  0
SECTION
  2
HEADER
  9
$ACADVER
  1
AC1014
  9
$ACADMAINTVER
 70
     0
  9
$DWGCODEPAGE
  3
ANSI_1252
  9
$INSBASE
 10
0.0
 20
0.0
 30
0.0
  9
$EXTMIN
 10
-11.885953
 20
-90.226844
 30
0.0
  9
$EXTMAX
 10
443.885953
 20
214.668844
 30
0.0
  9
$LIMMIN
 10
0.0
 20
0.0
  9
$LIMMAX
 10
0.0
 20
0.0
  9
$ORTHOMODE
 70
     0
  9
$REGENMODE
 70
     1
  9
$FILLMODE
 70
     1
  9
$QTEXTMODE
 70
     0
  9
$MIRRTEXT
 70
     1
  9
$DRAGMODE
 70
     2
  9
$LTSCALE
 40
1.0
  9
$OSMODE
 70
     0
  9
$ATTMODE
 70
     1
  9
$TEXTSIZE
 40
0.2
  9
$TRACEWID
 40
0.05
  9
$TEXTSTYLE
  7
STANDARD
  9
$CLAYER
  8
0
  9
$CELTYPE
  6
CONTINUOUS
  9
$CECOLOR
 62
   256
  9
$CELTSCALE
 40
1.0
  9
$DELOBJ
 70
     1
  9
$DISPSILH
 70
     0
  9
$DIMSCALE
 40
1.0
  9
$DIMASZ
 40
0.18
  9
$DIMEXO
 40
0.0625
  9
$DIMDLI
 40
0.38
  9
$DIMRND
 40
0.0
  9
$DIMDLE
 40
0.0
  9
$DIMEXE
 40
0.18
  9
$DIMTP
 40
0.0
  9
$DIMTM
 40
0.0
  9
$DIMTXT
 40
0.18
  9
$DIMCEN
 40
0.09
  9
$DIMTSZ
 40
0.0
  9
$DIMTOL
 70
     0
  9
$DIMLIM
 70
     0
  9
$DIMTIH
 70
     1
  9
$DIMTOH
 70
     1
  9
$DIMSE1
 70
     0
  9
$DIMSE2
 70
     0
  9
$DIMTAD
 70
     0
  9
$DIMZIN
 70
     0
  9
$DIMBLK
  1

  9
$DIMASO
 70
     1
  9
$DIMSHO
 70
     1
  9
$DIMPOST
  1

  9
$DIMAPOST
  1

  9
$DIMALT
 70
     0
  9
$DIMALTD
 70
     2
  9
$DIMALTF
 40
25.4
  9
$DIMLFAC
 40
1.0
  9
$DIMTOFL
 70
     0
  9
$DIMTVP
 40
0.0
  9
$DIMTIX
 70
     0
  9
$DIMSOXD
 70
     0
  9
$DIMSAH
 70
     0
  9
$DIMBLK1
  1

  9
$DIMBLK2
  1

  9
$DIMSTYLE
  2
STANDARD
  9
$DIMCLRD
 70
     0
  9
$DIMCLRE
 70
     0
  9
$DIMCLRT
 70
     0
  9
$DIMTFAC
 40
1.0
  9
$DIMGAP
 40
0.09
  9
$DIMJUST
 70
     0
  9
$DIMSD1
 70
     0
  9
$DIMSD2
 70
     0
  9
$DIMTOLJ
 70
     1
  9
$DIMTZIN
 70
     0
  9
$DIMALTZ
 70
     0
  9
$DIMALTTZ
 70
     0
  9
$DIMFIT
 70
     3
  9
$DIMUPT
 70
     0
  9
$DIMUNIT
 70
     2
  9
$DIMDEC
 70
     4
  9
$DIMTDEC
 70
     4
  9
$DIMALTU
 70
     2
  9
$DIMALTTD
 70
     2
  9
$DIMTXSTY
  7
STANDARD
  9
$DIMAUNIT
 70
     0
  9
$LUNITS
 70
     2
  9
$LUPREC
 70
     4
  9
$SKETCHINC
 40
0.1
  9
$FILLETRAD
 40
0.0
  9
$AUNITS
 70
     0
  9
$AUPREC
 70
     0
  9
$MENU
  1
acad
  9
$ELEVATION
 40
0.0
  9
$PELEVATION
 40
0.0
  9
$THICKNESS
 40
0.0
  9
$LIMCHECK
 70
     0
  9
$BLIPMODE
 70
     1
  9
$CHAMFERA
 40
0.0
  9
$CHAMFERB
 40
0.0
  9
$CHAMFERC
 40
0.0
  9
$CHAMFERD
 40
0.0
  9
$SKPOLY
 70
     0
  9
$TDCREATE
 40
0.000000000
  9
$TDUPDATE
 40
0.000000000
  9
$TDINDWG
 40
0.0000000000
  9
$TDUSRTIMER
 40
0.0000000000
  9
$USRTIMER
 70
     1
  9
$ANGBASE
 50
0.0
  9
$ANGDIR
 70
     0
  9
$PDMODE
 70
     0
  9
$PDSIZE
 40
0.0
  9
$PLINEWID
 40
0.0
  9
$COORDS
 70
     0
  9
$SPLFRAME
 70
     0
  9
$SPLINETYPE
 70
     6
  9
$SPLINESEGS
 70
     8
  9
$ATTDIA
 70
     0
  9
$ATTREQ
 70
     1
  9
$HANDLING
 70
     1
  9
$HANDSEED
  5
660
  9
$SURFTAB1
 70
     6
  9
$SURFTAB2
 70
     6
  9
$SURFTYPE
 70
     6
  9
$SURFU
 70
     6
  9
$SURFV
 70
     6
  9
$UCSNAME
  2

  9
$UCSORG
 10
0.0
 20
0.0
 30
0.0
  9
$UCSXDIR
 10
1.0
 20
0.0
 30
0.0
  9
$UCSYDIR
 10
0.0
 20
1.0
 30
0.0
  9
$PUCSNAME
  2

  9
$PUCSORG
 10
0.0
 20
0.0
 30
0.0
  9
$PUCSXDIR
 10
1.0
 20
0.0
 30
0.0
  9
$PUCSYDIR
 10
0.0
 20
1.0
 30
0.0
  9
$USERI1
 70
     0
  9
$USERI2
 70
     0
  9
$USERI3
 70
     0
  9
$USERI4
 70
     0
  9
$USERI5
 70
     0
  9
$USERR1
 40
0.0
  9
$USERR2
 40
0.0
  9
$USERR3
 40
0.0
  9
$USERR4
 40
0.0
  9
$USERR5
 40
0.0
  9
$WORLDVIEW
 70
     1
  9
$SHADEDGE
 70
     3
  9
$SHADEDIF
 70
    70
  9
$TILEMODE
 70
     1
  9
$MAXACTVP
 70
    16
  9
$PINSBASE
 10
0.0
 20
0.0
 30
0.0
  9
$PLIMCHECK
 70
     0
  9
$PEXTMIN
 10
1.000000E+20
 20
1.000000E+20
 30
1.000000E+20
  9
$PEXTMAX
 10
-1.000000E+20
 20
-1.000000E+20
 30
-1.000000E+20
  9
$PLIMMIN
 10
0.0
 20
0.0
  9
$PLIMMAX
 10
12.0
 20
9.0
  9
$UNITMODE
 70
     0
  9
$VISRETAIN
 70
     0
  9
$PLINEGEN
 70
     1
  9
$PSLTSCALE
 70
     0
  9
$TREEDEPTH
 70
  3020
  9
$PICKSTYLE
 70
     1
  9
$CMLSTYLE
  2
STANDARD
  9
$CMLJUST
 70
     0
  9
$CMLSCALE
 40
1.0
  9
$PROXYGRAPHICS
 70
     0
  9
$MEASUREMENT
 70
     0
  0
ENDSEC
  0
SECTION
  2
CLASSES
  0
CLASS
  1
LWPOLYLINE
  2
AcDbPolyline
  3
"AutoCAD"
 90
        0
280
     0
281
     1
  0
CLASS
  1
IMAGE
  2
AcDbRasterImage
  3
ISM
 90
      127
280
     0
281
     1
  0
CLASS
  1
OLE2FRAME
  2
AcDbOle2Frame
  3
""
 90
        0
280
     0
281
     1
  0
CLASS
  1
HATCH
  2
AcDbHatch
  3
"ACAD_SEDONA"
 90
        0
280
     0
281
     1
  0
CLASS
  1
DICTIONARYVAR
  2
AcDbDictionaryVar
  3
"AutoCAD"
 90
        0
280
     0
281
     0
  0
CLASS
  1
RASTERVARIABLES
  2
AcDbRasterVariables
  3
ISM
 90
        0
280
     0
281
     0
  0
CLASS
  1
IMAGEDEF
  2
AcDbRasterImageDef
  3
ISM
 90
        0
280
     0
281
     0
  0
CLASS
  1
IMAGEDEF_REACTOR
  2
AcDbRasterImageDefReactor
  3
ISM
 90
        1
280
     0
281
     0
  0
CLASS
  1
IDBUFFER
  2
AcDbIdBuffer
  3
"Acad"
 90
        0
280
     0
281
     0
  0
CLASS
  1
SPATIAL_FILTER
  2
AcDbSpatialFilter
  3
"Acad"
 90
        0
280
     0
281
     0
  0
CLASS
  1
XRECORD
  2
AcDbXrecord
  3
"<Built In>"
 90
        0
280
     0
281
     0
  0
CLASS
  1
SORTENTSTABLE
  2
AcDbSortentsTable
  3
"AutoCAD"
 90
        0
280
     0
281
     0
  0
CLASS
  1
LAYER_INDEX
  2
AcDbLayerIndex
  3
"Acad"
 90
        0
280
     0
281
     0
  0
CLASS
  1
SPATIAL_INDEX
  2
AcDbSpatialIndex
  3
"Acad"
 90
        0
280
     0
281
     0
  0
CLASS
  1
OBJECT_PTR
  2
CAseDLPNTableRecord
  3
"ASE-LPNTableRecord"
 90
        1
280
     0
281
     0
  0
ENDSEC
  0
SECTION
  2
TABLES
  0
TABLE
  2
VPORT
  5
7
100
AcDbSymbolTable
 70
     1
  0
VPORT
  5
15
100
AcDbSymbolTableRecord
100
AcDbViewportTableRecord
  2
*ACTIVE
 70
     0
 10
0.0
 20
0.0
 11
1.0
 21
1.0
 12
6.591288
 22
4.579184
 13
0.0
 23
0.0
 14
1.0
 24
1.0
 15
0.0
 25
0.0
 16
0.0
 26
0.0
 36
1.0
 17
0.0
 27
0.0
 37
0.0
 40
9.158369
 41
0.688564
 42
50.0
 43
0.0
 44
0.0
 50
0.0
 51
0.0
 71
     0
 72
   100
 73
     1
 74
     1
 75
     0
 76
     0
 77
     0
 78
     0
  0
ENDTAB
  0
TABLE
  2
LTYPE
  5
4
100
AcDbSymbolTable
 70
    10
  0
LTYPE
  5
11
100
AcDbSymbolTableRecord
100
AcDbLinetypeTableRecord
  2
BYBLOCK
 70
     0
  3

 72
    65
 73
     0
 40
0.0
  0
LTYPE
  5
12
100
AcDbSymbolTableRecord
100
AcDbLinetypeTableRecord
  2
BYLAYER
 70
     0
  3

 72
    65
 73
     0
 40
0.0
  0
LTYPE
  5
13
100
AcDbSymbolTableRecord
100
AcDbLinetypeTableRecord
  2
CONTINUOUS
 70
     0
  3
Solid line
 72
    65
 73
     0
 40
0.0
  0
LTYPE
  5
1D
100
AcDbSymbolTableRecord
100
AcDbLinetypeTableRecord
  2
TRACEJADO
 70
     0
  3
topoGRAPH
 72
    65
 73
     2
 40
4.35
 49
4.0
 74
     0
 49
-0.35
 74
     0
  0
LTYPE
  5
1E
100
AcDbSymbolTableRecord
100
AcDbLinetypeTableRecord
  2
TRACO-PONTO
 70
     0
  3
topoGRAPH
 72
    65
 73
     4
 40
4.7
 49
4.0
 74
     0
 49
-0.35
 74
     0
 49
0.0
 74
     0
 49
-0.35
 74
     0
  0
LTYPE
  5
1F
100
AcDbSymbolTableRecord
100
AcDbLinetypeTableRecord
  2
CERCA
 70
     0
  3
topoGRAPH
 72
    65
 73
     4
 40
4.7
 49
4.0
 74
     0
 49
-0.35
 74
     0
 49
0.0
 74
     0
 49
-0.35
 74
     0
  0
LTYPE
  5
20
100
AcDbSymbolTableRecord
100
AcDbLinetypeTableRecord
  2
PONTILHADO
 70
     0
  3
topoGRAPH
 72
    65
 73
     2
 40
0.5
 49
0.0
 74
     0
 49
-0.5
 74
     0
  0
LTYPE
  5
21
100
AcDbSymbolTableRecord
100
AcDbLinetypeTableRecord
  2
CERCA_VIVA
 70
     0
  3
topoGRAPH
 72
    65
 73
     4
 40
4.7
 49
4.0
 74
     0
 49
-0.35
 74
     0
 49
0.0
 74
     0
 49
-0.35
 74
     0
  0
LTYPE
  5
22
100
AcDbSymbolTableRecord
100
AcDbLinetypeTableRecord
  2
TAPUME
 70
     0
  3
topoGRAPH
 72
    65
 73
     4
 40
4.7
 49
4.0
 74
     0
 49
-0.35
 74
     0
 49
0.0
 74
     0
 49
-0.35
 74
     0
  0
LTYPE
  5
23
100
AcDbSymbolTableRecord
100
AcDbLinetypeTableRecord
  2
CONTINUO
 70
     0
  3
topoGRAPH
 72
    65
 73
     0
 40
0.0
  0
ENDTAB
  0
TABLE
  2
LAYER
  5
2
100
AcDbSymbolTable
 70
     3
  0
LAYER
  5
14
100
AcDbSymbolTableRecord
100
AcDbLayerTableRecord
  2
0
 70
     0
 62
     7
  6
CONTINUOUS
  0
LAYER
  5
2C
100
AcDbSymbolTableRecord
100
AcDbLayerTableRecord
  2
TG
 70
     0
 62
     7
  6
CONTINUO
  0
LAYER
  5
2D
100
AcDbSymbolTableRecord
100
AcDbLayerTableRecord
  2
PERFIL
 70
     0
 62
     7
  6
CONTINUO
  0
ENDTAB
  0
TABLE
  2
STYLE
  5
3
100
AcDbSymbolTable
 70
     9
  0
STYLE
  5
17
100
AcDbSymbolTableRecord
100
AcDbTextStyleTableRecord
  2
STANDARD
 70
     0
 40
0.0
 41
1.0
 50
0.0
 71
     0
 42
0.0
  3
txt
  4

  0
STYLE
  5
24
100
AcDbSymbolTableRecord
100
AcDbTextStyleTableRecord
  2
SIMPLEX
 70
     0
 40
0.2
 41
1.0
 50
0.0
 71
     0
 42
0.2
  3
simplex
  4

  0
STYLE
  5
25
100
AcDbSymbolTableRecord
100
AcDbTextStyleTableRecord
  2
COMPLEX
 70
     0
 40
0.2
 41
1.0
 50
0.0
 71
     0
 42
0.2
  3
complex
  4

  0
STYLE
  5
26
100
AcDbSymbolTableRecord
100
AcDbTextStyleTableRecord
  2
ROMANS
 70
     0
 40
0.2
 41
1.0
 50
0.0
 71
     0
 42
0.2
  3
romans
  4

  0
STYLE
  5
27
100
AcDbSymbolTableRecord
100
AcDbTextStyleTableRecord
  2
ROMAND
 70
     0
 40
0.2
 41
1.0
 50
0.0
 71
     0
 42
0.2
  3
romand
  4

  0
STYLE
  5
28
100
AcDbSymbolTableRecord
100
AcDbTextStyleTableRecord
  2
ROMANC
 70
     0
 40
0.2
 41
1.0
 50
0.0
 71
     0
 42
0.2
  3
romanc
  4

  0
STYLE
  5
29
100
AcDbSymbolTableRecord
100
AcDbTextStyleTableRecord
  2
ROMANT
 70
     0
 40
0.2
 41
1.0
 50
0.0
 71
     0
 42
0.2
  3
romant
  4

  0
STYLE
  5
2A
100
AcDbSymbolTableRecord
100
AcDbTextStyleTableRecord
  2
ITALICC
 70
     0
 40
0.2
 41
1.0
 50
0.0
 71
     0
 42
0.2
  3
italicc
  4

  0
STYLE
  5
2B
100
AcDbSymbolTableRecord
100
AcDbTextStyleTableRecord
  2
ITALICT
 70
     0
 40
0.2
 41
1.0
 50
0.0
 71
     0
 42
0.2
  3
italict
  4

  0
ENDTAB
  0
TABLE
  2
VIEW
  5
5
100
AcDbSymbolTable
 70
     0
  0
ENDTAB
  0
TABLE
  2
UCS
  5
6
100
AcDbSymbolTable
 70
     0
  0
ENDTAB
  0
TABLE
  2
APPID
  5
8
100
AcDbSymbolTable
 70
     1
  0
APPID
  5
16
100
AcDbSymbolTableRecord
100
AcDbRegAppTableRecord
  2
ACAD
 70
     0
  0
ENDTAB
  0
TABLE
  2
DIMSTYLE
  5
9
100
AcDbSymbolTable
 70
     1
  0
DIMSTYLE
105
18
100
AcDbSymbolTableRecord
100
AcDbDimStyleTableRecord
  2
STANDARD
 70
     0
  3

  4

  5

  6

  7

 40
1.0
 41
0.18
 42
0.0625
 43
0.38
 44
0.18
 45
0.0
 46
0.0
 47
0.0
 48
0.0
140
0.18
141
0.09
142
0.0
143
25.4
144
1.0
145
0.0
146
1.0
147
0.09
 71
     0
 72
     0
 73
     1
 74
     1
 75
     0
 76
     0
 77
     0
 78
     0
170
     0
171
     2
172
     0
173
     0
174
     0
175
     0
176
     0
177
     0
178
     0
270
     2
271
     4
272
     4
273
     2
274
     2
340
17
275
     0
280
     0
281
     0
282
     0
283
     1
284
     0
285
     0
286
     0
287
     0
288
     0
  0
ENDTAB
  0
TABLE
  2
BLOCK_RECORD
  5
1
100
AcDbSymbolTable
 70
    16
  0
BLOCK_RECORD
  5
A
100
AcDbSymbolTableRecord
100
AcDbBlockTableRecord
  2
*MODEL_SPACE
  0
BLOCK_RECORD
  5
B
100
AcDbSymbolTableRecord
100
AcDbBlockTableRecord
  2
*PAPER_SPACE
  0
BLOCK_RECORD
  5
2E
100
AcDbSymbolTableRecord
100
AcDbBlockTableRecord
  2
SIMB_XIS
  0
BLOCK_RECORD
  5
3C
100
AcDbSymbolTableRecord
100
AcDbBlockTableRecord
  2
SIMB_CIRCULO
  0
BLOCK_RECORD
  5
86
100
AcDbSymbolTableRecord
100
AcDbBlockTableRecord
  2
SIMB_ARVORE
  0
BLOCK_RECORD
  5
162
100
AcDbSymbolTableRecord
100
AcDbBlockTableRecord
  2
SIMB_QUADRADO
  0
BLOCK_RECORD
  5
16F
100
AcDbSymbolTableRecord
100
AcDbBlockTableRecord
  2
SIMB_BOLINHA
  0
BLOCK_RECORD
  5
1B9
100
AcDbSymbolTableRecord
100
AcDbBlockTableRecord
  2
SIMB_CRUZETA
  0
BLOCK_RECORD
  5
1C7
100
AcDbSymbolTableRecord
100
AcDbBlockTableRecord
  2
SIMB_BARRAS
  0
BLOCK_RECORD
  5
1D6
100
AcDbSymbolTableRecord
100
AcDbBlockTableRecord
  2
SIMB_PONTO
  0
BLOCK_RECORD
  5
1DD
100
AcDbSymbolTableRecord
100
AcDbBlockTableRecord
  2
SIMB_TRIANGULO
  0
BLOCK_RECORD
  5
1E9
100
AcDbSymbolTableRecord
100
AcDbBlockTableRecord
  2
SIMB_POSTE
  0
BLOCK_RECORD
  5
1FB
100
AcDbSymbolTableRecord
100
AcDbBlockTableRecord
  2
26D0B00
  0
BLOCK_RECORD
  5
263
100
AcDbSymbolTableRecord
100
AcDbBlockTableRecord
  2
1E35480
  0
BLOCK_RECORD
  5
5F8
100
AcDbSymbolTableRecord
100
AcDbBlockTableRecord
  2
26B8EF0
  0
BLOCK_RECORD
  5
612
100
AcDbSymbolTableRecord
100
AcDbBlockTableRecord
  2
26BBEF0
  0
BLOCK_RECORD
  5
62C
100
AcDbSymbolTableRecord
100
AcDbBlockTableRecord
  2
26BB170
  0
BLOCK_RECORD
  5
646
100
AcDbSymbolTableRecord
100
AcDbBlockTableRecord
  2
26BC2F0
  0
ENDTAB
  0
ENDSEC
  0
SECTION
  2
BLOCKS
  0
BLOCK
  5
D
100
AcDbEntity
  8
0
100
AcDbBlockBegin
  2
*MODEL_SPACE
 70
     0
 10
0.0
 20
0.0
 30
0.0
  3
*MODEL_SPACE
  1

  0
ENDBLK
  5
E
100
AcDbEntity
  8
0
100
AcDbBlockEnd
  0
BLOCK
  5
F
100
AcDbEntity
 67
     1
  8
0
100
AcDbBlockBegin
  2
*PAPER_SPACE
 70
     0
 10
0.0
 20
0.0
 30
0.0
  3
*PAPER_SPACE
  1

  0
ENDBLK
  5
10
100
AcDbEntity
 67
     1
  8
0
100
AcDbBlockEnd
  0
BLOCK
  5
2F
100
AcDbEntity
  8
0
100
AcDbBlockBegin
  2
SIMB_XIS
 70
     0
 10
0.0
 20
0.0
 30
0.0
  3
SIMB_XIS
  1

  0
POLYLINE
  5
30
100
AcDbEntity
  8
0
 62
     0
100
AcDb2dPolyline
 66
     1
 10
0.0
 20
0.0
 30
0.0
  0
VERTEX
  5
31
100
AcDbEntity
  8
0
 62
     0
100
AcDbVertex
100
AcDb2dVertex
 10
-0.35
 20
-5.0
 30
0.0
  0
VERTEX
  5
32
100
AcDbEntity
  8
0
 62
     0
100
AcDbVertex
100
AcDb2dVertex
 10
0.35
 20
5.0
 30
0.0
  0
SEQEND
  5
33
100
AcDbEntity
  8
0
 62
     0
  0
POLYLINE
  5
34
100
AcDbEntity
  8
0
 62
     0
100
AcDb2dPolyline
 66
     1
 10
0.0
 20
0.0
 30
0.0
  0
VERTEX
  5
35
100
AcDbEntity
  8
0
 62
     0
100
AcDbVertex
100
AcDb2dVertex
 10
0.35
 20
-5.0
 30
0.0
  0
VERTEX
  5
36
100
AcDbEntity
  8
0
 62
     0
100
AcDbVertex
100
AcDb2dVertex
 10
-0.35
 20
5.0
 30
0.0
  0
SEQEND
  5
37
100
AcDbEntity
  8
0
 62
     0
  0
ATTDEF
  5
38
100
AcDbEntity
  8
0
100
AcDbText
 10
0.0
 20
0.0
 30
0.0
 40
1.0
  1

100
AcDbAttributeDefinition
  3
pto:
  2
PONTO
 70
     0
  0
ATTDEF
  5
39
100
AcDbEntity
  8
0
100
AcDbText
 10
0.0
 20
0.0
 30
0.0
 40
1.0
  1

100
AcDbAttributeDefinition
  3
desc:
  2
DESC
 70
     0
  0
ATTDEF
  5
3A
100
AcDbEntity
  8
0
100
AcDbText
 10
0.0
 20
0.0
 30
0.0
 40
1.0
  1

100
AcDbAttributeDefinition
  3
ct:
  2
COTA
 70
     0
  0
ENDBLK
  5
3B
100
AcDbEntity
  8
0
100
AcDbBlockEnd
  0
BLOCK
  5
3D
100
AcDbEntity
  8
0
100
AcDbBlockBegin
  2
SIMB_CIRCULO
 70
     0
 10
0.0
 20
0.0
 30
0.0
  3
SIMB_CIRCULO
  1

  0
POLYLINE
  5
3F
100
AcDbEntity
  8
0
 62
     0
100
AcDb2dPolyline
 66
     1
 10
0.0
 20
0.0
 30
0.0
  0
VERTEX
  5
40
100
AcDbEntity
  8
0
 62
     0
100
AcDbVertex
100
AcDb2dVertex
 10
0.5
 20
0.0
 30
0.0
  0
VERTEX
  5
41
100
AcDbEntity
  8
0
 62
     0
100
AcDbVertex
100
AcDb2dVertex
 10
0.4975
 20
0.499
 30
0.0
  0
VERTEX
  5
42
100
AcDbEntity
  8
0
 62
     0
100
AcDbVertex
100
AcDb2dVertex
 10
0.49
 20
0.9935
 30
0.0
  0
VERTEX
  5
43
100
AcDbEntity
  8
0
 62
     0
100
AcDbVertex
100
AcDb2dVertex
 10
0.4775
 20
1.4775
 30
0.0
  0
VERTEX
  5
44
100
AcDbEntity
  8
0
 62
     0
100
AcDbVertex
100
AcDb2dVertex
 10
0.4605
 20
1.947
 30
0.0
  0
VERTEX
  5
45
100
AcDbEntity
  8
0
 62
     0
100
AcDbVertex
100
AcDb2dVertex
 10
0.439
 20
2.397
 30
0.0
  0
VERTEX
  5
46
100
AcDbEntity
  8
0
 62
     0
100
AcDbVertex
100
AcDb2dVertex
 10
0.4125
 20
2.823
 30
0.0
  0
VERTEX
  5
47
100
AcDbEntity
  8
0
 62
     0
100
AcDbVertex
100
AcDb2dVertex
 10
0.3825
 20
3.221
 30
0.0
  0
VERTEX
  5
48
100
AcDbEntity
  8
0
 62
     0
100
AcDbVertex
100
AcDb2dVertex
 10
0.3485
 20
3.587
 30
0.0
  0
VERTEX
  5
49
100
AcDbEntity
  8
0
 62
     0
100
AcDbVertex
100
AcDb2dVertex
 10
0.311
 20
3.9165
 30
0.0
  0
VERTEX
  5
4A
100
AcDbEntity
  8
0
 62
     0
100
AcDbVertex
100
AcDb2dVertex
 10
0.27
 20
4.2075
 30
0.0
  0
VERTEX
  5
4B
100
AcDbEntity
  8
0
 62
     0
100
AcDbVertex
100
AcDb2dVertex
 10
0.227
 20
4.456
 30
0.0
  0
VERTEX
  5
4C
100
AcDbEntity
  8
0
 62
     0
100
AcDbVertex
100
AcDb2dVertex
 10
0.181
 20
4.66
 30
0.0
  0
VERTEX
  5
4D
100
AcDbEntity
  8
0
 62
     0
100
AcDbVertex
100
AcDb2dVertex
 10
0.1335
 20
4.818
 30
0.0
  0
VERTEX
  5
4E
100
AcDbEntity
  8
0
 62
     0
100
AcDbVertex
100
AcDb2dVertex
 10
0.085
 20
4.927
 30
0.0
  0
VERTEX
  5
4F
100
AcDbEntity
  8
0
 62
     0
100
AcDbVertex
100
AcDb2dVertex
 10
0.0355
 20
4.9875
 30
0.0
  0
VERTEX
  5
50
100
AcDbEntity
  8
0
 62
     0
100
AcDbVertex
100
AcDb2dVertex
 10
-0.0145
 20
4.998
 30
0.0
  0
VERTEX
  5
51
100
AcDbEntity
  8
0
 62
     0
100
AcDbVertex
100
AcDb2dVertex
 10
-0.0645
 20
4.9585
 30
0.0
  0
VERTEX
  5
52
100
AcDbEntity
  8
0
 62
     0
100
AcDbVertex
100
AcDb2dVertex
 10
-0.1135
 20
4.869
 30
0.0
  0
VERTEX
  5
53
100
AcDbEntity
  8
0
 62
     0
100
AcDbVertex
100
AcDb2dVertex
 10
-0.1615
 20
4.7315
 30
0.0
  0
VERTEX
  5
54
100
AcDbEntity
  8
0
 62
     0
100
AcDbVertex
100
AcDb2dVertex
 10
-0.208
 20
4.5465
 30
0.0
  0
VERTEX
  5
55
100
AcDbEntity
  8
0
 62
     0
100
AcDbVertex
100
AcDb2dVertex
 10
-0.2525
 20
4.316
 30
0.0
  0
VERTEX
  5
56
100
AcDbEntity
  8
0
 62
     0
100
AcDbVertex
100
AcDb2dVertex
 10
-0.2945
 20
4.0425
 30
0.0
  0
VERTEX
  5
57
100
AcDbEntity
  8
0
 62
     0
100
AcDbVertex
100
AcDb2dVertex
 10
-0.333
 20
3.7285
 30
0.0
  0
VERTEX
  5
58
100
AcDbEntity
  8
0
 62
     0
100
AcDbVertex
100
AcDb2dVertex
 10
-0.3685
 20
3.3775
 30
0.0
  0
VERTEX
  5
59
100
AcDbEntity
  8
0
 62
     0
100
AcDbVertex
100
AcDb2dVertex
 10
-0.4005
 20
2.9925
 30
0.0
  0
VERTEX
  5
5A
100
AcDbEntity
  8
0
 62
     0
100
AcDbVertex
100
AcDb2dVertex
 10
-0.4285
 20
2.5775
 30
0.0
  0
VERTEX
  5
5B
100
AcDbEntity
  8
0
 62
     0
100
AcDbVertex
100
AcDb2dVertex
 10
-0.452
 20
2.137
 30
0.0
  0
VERTEX
  5
5C
100
AcDbEntity
  8
0
 62
     0
100
AcDbVertex
100
AcDb2dVertex
 10
-0.471
 20
1.675
 30
0.0
  0
VERTEX
  5
5D
100
AcDbEntity
  8
0
 62
     0
100
AcDbVertex
100
AcDb2dVertex
 10
-0.4855
 20
1.196
 30
0.0
  0
VERTEX
  5
5E
100
AcDbEntity
  8
0
 62
     0
100
AcDbVertex
100
AcDb2dVertex
 10
-0.495
 20
0.7055
 30
0.0
  0
VERTEX
  5
5F
100
AcDbEntity
  8
0
 62
     0
100
AcDbVertex
100
AcDb2dVertex
 10
-0.4995
 20
0.208
 30
0.0
  0
VERTEX
  5
60
100
AcDbEntity
  8
0
 62
     0
100
AcDbVertex
100
AcDb2dVertex
 10
-0.499
 20
-0.292
 30
0.0
  0
VERTEX
  5
61
100
AcDbEntity
  8
0
 62
     0
100
AcDbVertex
100
AcDb2dVertex
 10
-0.4935
 20
-0.7885
 30
0.0
  0
VERTEX
  5
62
100
AcDbEntity
  8
0
 62
     0
100
AcDbVertex
100
AcDb2dVertex
 10
-0.4835
 20
-1.2775
 30
0.0
  0
VERTEX
  5
63
100
AcDbEntity
  8
0
 62
     0
100
AcDbVertex
100
AcDb2dVertex
 10
-0.468
 20
-1.754
 30
0.0
  0
VERTEX
  5
64
100
AcDbEntity
  8
0
 62
     0
100
AcDbVertex
100
AcDb2dVertex
 10
-0.4485
 20
-2.2125
 30
0.0
  0
VERTEX
  5
65
100
AcDbEntity
  8
0
 62
     0
100
AcDbVertex
100
AcDb2dVertex
 10
-0.424
 20
-2.649
 30
0.0
  0
VERTEX
  5
66
100
AcDbEntity
  8
0
 62
     0
100
AcDbVertex
100
AcDb2dVertex
 10
-0.3955
 20
-3.0595
 30
0.0
  0
VERTEX
  5
67
100
AcDbEntity
  8
0
 62
     0
100
AcDbVertex
100
AcDb2dVertex
 10
-0.363
 20
-3.439
 30
0.0
  0
VERTEX
  5
68
100
AcDbEntity
  8
0
 62
     0
100
AcDbVertex
100
AcDb2dVertex
 10
-0.327
 20
-3.784
 30
0.0
  0
VERTEX
  5
69
100
AcDbEntity
  8
0
 62
     0
100
AcDbVertex
100
AcDb2dVertex
 10
-0.2875
 20
-4.0915
 30
0.0
  0
VERTEX
  5
6A
100
AcDbEntity
  8
0
 62
     0
100
AcDbVertex
100
AcDb2dVertex
 10
-0.245
 20
-4.358
 30
0.0
  0
VERTEX
  5
6B
100
AcDbEntity
  8
0
 62
     0
100
AcDbVertex
100
AcDb2dVertex
 10
-0.2005
 20
-4.581
 30
0.0
  0
VERTEX
  5
6C
100
AcDbEntity
  8
0
 62
     0
100
AcDbVertex
100
AcDb2dVertex
 10
-0.1535
 20
-4.758
 30
0.0
  0
VERTEX
  5
6D
100
AcDbEntity
  8
0
 62
     0
100
AcDbVertex
100
AcDb2dVertex
 10
-0.1055
 20
-4.8875
 30
0.0
  0
VERTEX
  5
6E
100
AcDbEntity
  8
0
 62
     0
100
AcDbVertex
100
AcDb2dVertex
 10
-0.056
 20
-4.9685
 30
0.0
  0
VERTEX
  5
6F
100
AcDbEntity
  8
0
 62
     0
100
AcDbVertex
100
AcDb2dVertex
 10
-0.006
 20
-4.9995
 30
0.0
  0
VERTEX
  5
70
100
AcDbEntity
  8
0
 62
     0
100
AcDbVertex
100
AcDb2dVertex
 10
0.0435
 20
-4.981
 30
0.0
  0
VERTEX
  5
71
100
AcDbEntity
  8
0
 62
     0
100
AcDbVertex
100
AcDb2dVertex
 10
0.0935
 20
-4.9125
 30
0.0
  0
VERTEX
  5
72
100
AcDbEntity
  8
0
 62
     0
100
AcDbVertex
100
AcDb2dVertex
 10
0.142
 20
-4.7945
 30
0.0
  0
VERTEX
  5
73
100
AcDbEntity
  8
0
 62
     0
100
AcDbVertex
100
AcDb2dVertex
 10
0.189
 20
-4.629
 30
0.0
  0
VERTEX
  5
74
100
AcDbEntity
  8
0
 62
     0
100
AcDbVertex
100
AcDb2dVertex
 10
0.2345
 20
-4.4175
 30
0.0
  0
VERTEX
  5
75
100
AcDbEntity
  8
0
 62
     0
100
AcDbVertex
100
AcDb2dVertex
 10
0.277
 20
-4.1615
 30
0.0
  0
VERTEX
  5
76
100
AcDbEntity
  8
0
 62
     0
100
AcDbVertex
100
AcDb2dVertex
 10
0.3175
 20
-3.864
 30
0.0
  0
VERTEX
  5
77
100
AcDbEntity
  8
0
 62
     0
100
AcDbVertex
100
AcDb2dVertex
 10
0.3545
 20
-3.5275
 30
0.0
  0
VERTEX
  5
78
100
AcDbEntity
  8
0
 62
     0
100
AcDbVertex
100
AcDb2dVertex
 10
0.388
 20
-3.1565
 30
0.0
  0
VERTEX
  5
79
100
AcDbEntity
  8
0
 62
     0
100
AcDbVertex
100
AcDb2dVertex
 10
0.4175
 20
-2.7535
 30
0.0
  0
VERTEX
  5
7A
100
AcDbEntity
  8
0
 62
     0
100
AcDbVertex
100
AcDb2dVertex
 10
0.443
 20
-2.323
 30
0.0
  0
VERTEX
  5
7B
100
AcDbEntity
  8
0
 62
     0
100
AcDbVertex
100
AcDb2dVertex
 10
0.4635
 20
-1.8695
 30
0.0
  0
VERTEX
  5
7C
100
AcDbEntity
  8
0
 62
     0
100
AcDbVertex
100
AcDb2dVertex
 10
0.48
 20
-1.397
 30
0.0
  0
VERTEX
  5
7D
100
AcDbEntity
  8
0
 62
     0
100
AcDbVertex
100
AcDb2dVertex
 10
0.4915
 20
-0.911
 30
0.0
  0
VERTEX
  5
7E
100
AcDbEntity
  8
0
 62
     0
100
AcDbVertex
100
AcDb2dVertex
 10
0.4985
 20
-0.4155
 30
0.0
  0
VERTEX
  5
7F
100
AcDbEntity
  8
0
 62
     0
100
AcDbVertex
100
AcDb2dVertex
 10
0.5
 20
0.0
 30
0.0
  0
SEQEND
  5
80
100
AcDbEntity
  8
0
 62
     0
  0
POINT
  5
81
100
AcDbEntity
  8
0
 62
     0
100
AcDbPoint
 10
0.0
 20
0.0
 30
0.0
  0
ATTDEF
  5
82
100
AcDbEntity
  8
0
100
AcDbText
 10
0.0
 20
0.0
 30
0.0
 40
1.0
  1

100
AcDbAttributeDefinition
  3
pto:
  2
PONTO
 70
     0
  0
ATTDEF
  5
83
100
AcDbEntity
  8
0
100
AcDbText
 10
0.0
 20
0.0
 30
0.0
 40
1.0
  1

100
AcDbAttributeDefinition
  3
desc:
  2
DESC
 70
     0
  0
ATTDEF
  5
84
100
AcDbEntity
  8
0
100
AcDbText
 10
0.0
 20
0.0
 30
0.0
 40
1.0
  1

100
AcDbAttributeDefinition
  3
ct:
  2
COTA
 70
     0
  0
ENDBLK
  5
85
100
AcDbEntity
  8
0
100
AcDbBlockEnd
  0
BLOCK
  5
87
100
AcDbEntity
  8
0
100
AcDbBlockBegin
  2
SIMB_ARVORE
 70
     0
 10
0.0
 20
0.0
 30
0.0
  3
SIMB_ARVORE
  1

  0
POLYLINE
  5
89
100
AcDbEntity
  8
0
 62
     0
100
AcDb2dPolyline
 66
     1
 10
0.0
 20
0.0
 30
0.0
  0
VERTEX
  5
8A
100
AcDbEntity
  8
0
 62
     0
100
AcDbVertex
100
AcDb2dVertex
 10
-0.001
 20
18.6965
 30
0.0
  0
VERTEX
  5
8B
100
AcDbEntity
  8
0
 62
     0
100
AcDbVertex
100
AcDb2dVertex
 10
-0.0435
 20
19.765
 30
0.0
  0
VERTEX
  5
8C
100
AcDbEntity
  8
0
 62
     0
100
AcDbVertex
100
AcDb2dVertex
 10
-0.096
 20
20.7865
 30
0.0
  0
VERTEX
  5
8D
100
AcDbEntity
  8
0
 62
     0
100
AcDbVertex
100
AcDb2dVertex
 10
-0.159
 20
21.7495
 30
0.0
  0
VERTEX
  5
8E
100
AcDbEntity
  8
0
 62
     0
100
AcDbVertex
100
AcDb2dVertex
 10
-0.231
 20
22.6455
 30
0.0
  0
VERTEX
  5
8F
100
AcDbEntity
  8
0
 62
     0
100
AcDbVertex
100
AcDb2dVertex
 10
-0.3115
 20
23.465
 30
0.0
  0
VERTEX
  5
90
100
AcDbEntity
  8
0
 62
     0
100
AcDbVertex
100
AcDb2dVertex
 10
-0.4
 20
24.1995
 30
0.0
  0
VERTEX
  5
91
100
AcDbEntity
  8
0
 62
     0
100
AcDbVertex
100
AcDb2dVertex
 10
-0.495
 20
24.8425
 30
0.0
  0
VERTEX
  5
92
100
AcDbEntity
  8
0
 62
     0
100
AcDbVertex
100
AcDb2dVertex
 10
-0.5965
 20
25.387
 30
0.0
  0
VERTEX
  5
93
100
AcDbEntity
  8
0
 62
     0
100
AcDbVertex
100
AcDb2dVertex
 10
-0.7025
 20
25.828
 30
0.0
  0
VERTEX
  5
94
100
AcDbEntity
  8
0
 62
     0
100
AcDbVertex
100
AcDb2dVertex
 10
-0.8125
 20
26.1605
 30
0.0
  0
VERTEX
  5
95
100
AcDbEntity
  8
0
 62
     0
100
AcDbVertex
100
AcDb2dVertex
 10
-0.9255
 20
26.3815
 30
0.0
  0
VERTEX
  5
96
100
AcDbEntity
  8
0
 62
     0
100
AcDbVertex
100
AcDb2dVertex
 10
-1.04
 20
26.489
 30
0.0
  0
VERTEX
  5
97
100
AcDbEntity
  8
0
 62
     0
100
AcDbVertex
100
AcDb2dVertex
 10
-1.155
 20
26.4815
 30
0.0
  0
VERTEX
  5
98
100
AcDbEntity
  8
0
 62
     0
100
AcDbVertex
100
AcDb2dVertex
 10
-1.269
 20
26.3595
 30
0.0
  0
VERTEX
  5
99
100
AcDbEntity
  8
0
 62
     0
100
AcDbVertex
100
AcDb2dVertex
 10
-1.3815
 20
26.124
 30
0.0
  0
VERTEX
  5
9A
100
AcDbEntity
  8
0
 62
     0
100
AcDbVertex
100
AcDb2dVertex
 10
-1.4915
 20
25.777
 30
0.0
  0
VERTEX
  5
9B
100
AcDbEntity
  8
0
 62
     0
100
AcDbVertex
100
AcDb2dVertex
 10
-1.597
 20
25.3225
 30
0.0
  0
VERTEX
  5
9C
100
AcDbEntity
  8
0
 62
     0
100
AcDbVertex
100
AcDb2dVertex
 10
-1.6975
 20
24.765
 30
0.0
  0
VERTEX
  5
9D
100
AcDbEntity
  8
0
 62
     0
100
AcDbVertex
100
AcDb2dVertex
 10
-1.792
 20
24.11
 30
0.0
  0
VERTEX
  5
9E
100
AcDbEntity
  8
0
 62
     0
100
AcDbVertex
100
AcDb2dVertex
 10
-1.8795
 20
23.3635
 30
0.0
  0
VERTEX
  5
9F
100
AcDbEntity
  8
0
 62
     0
100
AcDbVertex
100
AcDb2dVertex
 10
-1.959
 20
22.534
 30
0.0
  0
VERTEX
  5
A0
100
AcDbEntity
  8
0
 62
     0
100
AcDbVertex
100
AcDb2dVertex
 10
-2.0295
 20
21.629
 30
0.0
  0
VERTEX
  5
A1
100
AcDbEntity
  8
0
 62
     0
100
AcDbVertex
100
AcDb2dVertex
 10
-2.091
 20
20.6575
 30
0.0
  0
VERTEX
  5
A2
100
AcDbEntity
  8
0
 62
     0
100
AcDbVertex
100
AcDb2dVertex
 10
-2.1425
 20
19.63
 30
0.0
  0
VERTEX
  5
A3
100
AcDbEntity
  8
0
 62
     0
100
AcDbVertex
100
AcDb2dVertex
 10
-2.1835
 20
18.556
 30
0.0
  0
VERTEX
  5
A4
100
AcDbEntity
  8
0
 62
     0
100
AcDbVertex
100
AcDb2dVertex
 10
-2.2135
 20
17.446
 30
0.0
  0
VERTEX
  5
A5
100
AcDbEntity
  8
0
 62
     0
100
AcDbVertex
100
AcDb2dVertex
 10
-2.2325
 20
16.312
 30
0.0
  0
VERTEX
  5
A6
100
AcDbEntity
  8
0
 62
     0
100
AcDbVertex
100
AcDb2dVertex
 10
-2.24
 20
15.165
 30
0.0
  0
VERTEX
  5
A7
100
AcDbEntity
  8
0
 62
     0
100
AcDbVertex
100
AcDb2dVertex
 10
-2.236
 20
14.016
 30
0.0
  0
VERTEX
  5
A8
100
AcDbEntity
  8
0
 62
     0
100
AcDbVertex
100
AcDb2dVertex
 10
-2.22
 20
12.877
 30
0.0
  0
VERTEX
  5
A9
100
AcDbEntity
  8
0
 62
     0
100
AcDbVertex
100
AcDb2dVertex
 10
-2.1935
 20
11.7595
 30
0.0
  0
VERTEX
  5
AA
100
AcDbEntity
  8
0
 62
     0
100
AcDbVertex
100
AcDb2dVertex
 10
-2.1555
 20
10.674
 30
0.0
  0
VERTEX
  5
AB
100
AcDbEntity
  8
0
 62
     0
100
AcDbVertex
100
AcDb2dVertex
 10
-2.107
 20
9.632
 30
0.0
  0
VERTEX
  5
AC
100
AcDbEntity
  8
0
 62
     0
100
AcDbVertex
100
AcDb2dVertex
 10
-2.0485
 20
8.6435
 30
0.0
  0
VERTEX
  5
AD
100
AcDbEntity
  8
0
 62
     0
100
AcDbVertex
100
AcDb2dVertex
 10
-1.98
 20
7.7185
 30
0.0
  0
VERTEX
  5
AE
100
AcDbEntity
  8
0
 62
     0
100
AcDbVertex
100
AcDb2dVertex
 10
-1.903
 20
6.866
 30
0.0
  0
VERTEX
  5
AF
100
AcDbEntity
  8
0
 62
     0
100
AcDbVertex
100
AcDb2dVertex
 10
-1.8175
 20
6.095
 30
0.0
  0
VERTEX
  5
B0
100
AcDbEntity
  8
0
 62
     0
100
AcDbVertex
100
AcDb2dVertex
 10
-1.78
 20
5.8
 30
0.0
  0
SEQEND
  5
B1
100
AcDbEntity
  8
0
 62
     0
  0
POLYLINE
  5
B3
100
AcDbEntity
  8
0
 62
     0
100
AcDb2dPolyline
 66
     1
 10
0.0
 20
0.0
 30
0.0
  0
VERTEX
  5
B4
100
AcDbEntity
  8
0
 62
     0
100
AcDbVertex
100
AcDb2dVertex
 10
-1.7
 20
5.7845
 30
0.0
  0
VERTEX
  5
B5
100
AcDbEntity
  8
0
 62
     0
100
AcDbVertex
100
AcDb2dVertex
 10
-1.815
 20
5.787
 30
0.0
  0
VERTEX
  5
B6
100
AcDbEntity
  8
0
 62
     0
100
AcDbVertex
100
AcDb2dVertex
 10
-1.9295
 20
5.6745
 30
0.0
  0
VERTEX
  5
B7
100
AcDbEntity
  8
0
 62
     0
100
AcDbVertex
100
AcDb2dVertex
 10
-2.042
 20
5.4485
 30
0.0
  0
VERTEX
  5
B8
100
AcDbEntity
  8
0
 62
     0
100
AcDbVertex
100
AcDb2dVertex
 10
-2.152
 20
5.111
 30
0.0
  0
VERTEX
  5
B9
100
AcDbEntity
  8
0
 62
     0
100
AcDbVertex
100
AcDb2dVertex
 10
-2.258
 20
4.666
 30
0.0
  0
VERTEX
  5
BA
100
AcDbEntity
  8
0
 62
     0
100
AcDbVertex
100
AcDb2dVertex
 10
-2.359
 20
4.117
 30
0.0
  0
VERTEX
  5
BB
100
AcDbEntity
  8
0
 62
     0
100
AcDbVertex
100
AcDb2dVertex
 10
-2.454
 20
3.4695
 30
0.0
  0
VERTEX
  5
BC
100
AcDbEntity
  8
0
 62
     0
100
AcDbVertex
100
AcDb2dVertex
 10
-2.542
 20
2.731
 30
0.0
  0
VERTEX
  5
BD
100
AcDbEntity
  8
0
 62
     0
100
AcDbVertex
100
AcDb2dVertex
 10
-2.6225
 20
1.908
 30
0.0
  0
VERTEX
  5
BE
100
AcDbEntity
  8
0
 62
     0
100
AcDbVertex
100
AcDb2dVertex
 10
-2.694
 20
1.009
 30
0.0
  0
VERTEX
  5
BF
100
AcDbEntity
  8
0
 62
     0
100
AcDbVertex
100
AcDb2dVertex
 10
-2.7565
 20
0.0435
 30
0.0
  0
VERTEX
  5
C0
100
AcDbEntity
  8
0
 62
     0
100
AcDbVertex
100
AcDb2dVertex
 10
-2.8085
 20
-0.98
 30
0.0
  0
VERTEX
  5
C1
100
AcDbEntity
  8
0
 62
     0
100
AcDbVertex
100
AcDb2dVertex
 10
-2.8505
 20
-2.0505
 30
0.0
  0
VERTEX
  5
C2
100
AcDbEntity
  8
0
 62
     0
100
AcDbVertex
100
AcDb2dVertex
 10
-2.8815
 20
-3.1575
 30
0.0
  0
VERTEX
  5
C3
100
AcDbEntity
  8
0
 62
     0
100
AcDbVertex
100
AcDb2dVertex
 10
-2.9015
 20
-4.29
 30
0.0
  0
VERTEX
  5
C4
100
AcDbEntity
  8
0
 62
     0
100
AcDbVertex
100
AcDb2dVertex
 10
-2.9095
 20
-5.4365
 30
0.0
  0
VERTEX
  5
C5
100
AcDbEntity
  8
0
 62
     0
100
AcDbVertex
100
AcDb2dVertex
 10
-2.9065
 20
-6.5855
 30
0.0
  0
VERTEX
  5
C6
100
AcDbEntity
  8
0
 62
     0
100
AcDbVertex
100
AcDb2dVertex
 10
-2.892
 20
-7.726
 30
0.0
  0
VERTEX
  5
C7
100
AcDbEntity
  8
0
 62
     0
100
AcDbVertex
100
AcDb2dVertex
 10
-2.866
 20
-8.846
 30
0.0
  0
VERTEX
  5
C8
100
AcDbEntity
  8
0
 62
     0
100
AcDbVertex
100
AcDb2dVertex
 10
-2.829
 20
-9.9345
 30
0.0
  0
VERTEX
  5
C9
100
AcDbEntity
  8
0
 62
     0
100
AcDbVertex
100
AcDb2dVertex
 10
-2.7815
 20
-10.9805
 30
0.0
  0
VERTEX
  5
CA
100
AcDbEntity
  8
0
 62
     0
100
AcDbVertex
100
AcDb2dVertex
 10
-2.724
 20
-11.974
 30
0.0
  0
VERTEX
  5
CB
100
AcDbEntity
  8
0
 62
     0
100
AcDbVertex
100
AcDb2dVertex
 10
-2.6565
 20
-12.905
 30
0.0
  0
VERTEX
  5
CC
100
AcDbEntity
  8
0
 62
     0
100
AcDbVertex
100
AcDb2dVertex
 10
-2.58
 20
-13.764
 30
0.0
  0
VERTEX
  5
CD
100
AcDbEntity
  8
0
 62
     0
100
AcDbVertex
100
AcDb2dVertex
 10
-2.4955
 20
-14.542
 30
0.0
  0
VERTEX
  5
CE
100
AcDbEntity
  8
0
 62
     0
100
AcDbVertex
100
AcDb2dVertex
 10
-2.4035
 20
-15.232
 30
0.0
  0
VERTEX
  5
CF
100
AcDbEntity
  8
0
 62
     0
100
AcDbVertex
100
AcDb2dVertex
 10
-2.305
 20
-15.8265
 30
0.0
  0
VERTEX
  5
D0
100
AcDbEntity
  8
0
 62
     0
100
AcDbVertex
100
AcDb2dVertex
 10
-2.201
 20
-16.32
 30
0.0
  0
VERTEX
  5
D1
100
AcDbEntity
  8
0
 62
     0
100
AcDbVertex
100
AcDb2dVertex
 10
-2.093
 20
-16.7075
 30
0.0
  0
VERTEX
  5
D2
100
AcDbEntity
  8
0
 62
     0
100
AcDbVertex
100
AcDb2dVertex
 10
-1.9815
 20
-16.985
 30
0.0
  0
VERTEX
  5
D3
100
AcDbEntity
  8
0
 62
     0
100
AcDbVertex
100
AcDb2dVertex
 10
-1.8675
 20
-17.1495
 30
0.0
  0
VERTEX
  5
D4
100
AcDbEntity
  8
0
 62
     0
100
AcDbVertex
100
AcDb2dVertex
 10
-1.753
 20
-17.2
 30
0.0
  0
VERTEX
  5
D5
100
AcDbEntity
  8
0
 62
     0
100
AcDbVertex
100
AcDb2dVertex
 10
-1.638
 20
-17.135
 30
0.0
  0
VERTEX
  5
D6
100
AcDbEntity
  8
0
 62
     0
100
AcDbVertex
100
AcDb2dVertex
 10
-1.5245
 20
-16.956
 30
0.0
  0
VERTEX
  5
D7
100
AcDbEntity
  8
0
 62
     0
100
AcDbVertex
100
AcDb2dVertex
 10
-1.4135
 20
-16.665
 30
0.0
  0
VERTEX
  5
D8
100
AcDbEntity
  8
0
 62
     0
100
AcDbVertex
100
AcDb2dVertex
 10
-1.3055
 20
-16.264
 30
0.0
  0
VERTEX
  5
D9
100
AcDbEntity
  8
0
 62
     0
100
AcDbVertex
100
AcDb2dVertex
 10
-1.2025
 20
-15.7575
 30
0.0
  0
VERTEX
  5
DA
100
AcDbEntity
  8
0
 62
     0
100
AcDbVertex
100
AcDb2dVertex
 10
-1.1045
 20
-15.1505
 30
0.0
  0
VERTEX
  5
DB
100
AcDbEntity
  8
0
 62
     0
100
AcDbVertex
100
AcDb2dVertex
 10
-1.0135
 20
-14.449
 30
0.0
  0
VERTEX
  5
DC
100
AcDbEntity
  8
0
 62
     0
100
AcDbVertex
100
AcDb2dVertex
 10
-0.93
 20
-13.66
 30
0.0
  0
VERTEX
  5
DD
100
AcDbEntity
  8
0
 62
     0
100
AcDbVertex
100
AcDb2dVertex
 10
-0.8895
 20
-13.2165
 30
0.0
  0
SEQEND
  5
DE
100
AcDbEntity
  8
0
 62
     0
  0
POLYLINE
  5
E0
100
AcDbEntity
  8
0
 62
     0
100
AcDb2dPolyline
 66
     1
 10
0.0
 20
0.0
 30
0.0
  0
VERTEX
  5
E1
100
AcDbEntity
  8
0
 62
     0
100
AcDbVertex
100
AcDb2dVertex
 10
-1.0985
 20
-15.104
 30
0.0
  0
VERTEX
  5
E2
100
AcDbEntity
  8
0
 62
     0
100
AcDbVertex
100
AcDb2dVertex
 10
-1.127
 20
-16.218
 30
0.0
  0
VERTEX
  5
E3
100
AcDbEntity
  8
0
 62
     0
100
AcDbVertex
100
AcDb2dVertex
 10
-1.1445
 20
-17.3545
 30
0.0
  0
VERTEX
  5
E4
100
AcDbEntity
  8
0
 62
     0
100
AcDbVertex
100
AcDb2dVertex
 10
-1.15
 20
-18.5025
 30
0.0
  0
VERTEX
  5
E5
100
AcDbEntity
  8
0
 62
     0
100
AcDbVertex
100
AcDb2dVertex
 10
-1.144
 20
-19.6505
 30
0.0
  0
VERTEX
  5
E6
100
AcDbEntity
  8
0
 62
     0
100
AcDbVertex
100
AcDb2dVertex
 10
-1.127
 20
-20.787
 30
0.0
  0
VERTEX
  5
E7
100
AcDbEntity
  8
0
 62
     0
100
AcDbVertex
100
AcDb2dVertex
 10
-1.0985
 20
-21.901
 30
0.0
  0
VERTEX
  5
E8
100
AcDbEntity
  8
0
 62
     0
100
AcDbVertex
100
AcDb2dVertex
 10
-1.059
 20
-22.9805
 30
0.0
  0
VERTEX
  5
E9
100
AcDbEntity
  8
0
 62
     0
100
AcDbVertex
100
AcDb2dVertex
 10
-1.009
 20
-24.0155
 30
0.0
  0
VERTEX
  5
EA
100
AcDbEntity
  8
0
 62
     0
100
AcDbVertex
100
AcDb2dVertex
 10
-0.949
 20
-24.9955
 30
0.0
  0
VERTEX
  5
EB
100
AcDbEntity
  8
0
 62
     0
100
AcDbVertex
100
AcDb2dVertex
 10
-0.8795
 20
-25.9105
 30
0.0
  0
VERTEX
  5
EC
100
AcDbEntity
  8
0
 62
     0
100
AcDbVertex
100
AcDb2dVertex
 10
-0.801
 20
-26.7515
 30
0.0
  0
VERTEX
  5
ED
100
AcDbEntity
  8
0
 62
     0
100
AcDbVertex
100
AcDb2dVertex
 10
-0.7145
 20
-27.51
 30
0.0
  0
VERTEX
  5
EE
100
AcDbEntity
  8
0
 62
     0
100
AcDbVertex
100
AcDb2dVertex
 10
-0.621
 20
-28.1785
 30
0.0
  0
VERTEX
  5
EF
100
AcDbEntity
  8
0
 62
     0
100
AcDbVertex
100
AcDb2dVertex
 10
-0.5215
 20
-28.75
 30
0.0
  0
VERTEX
  5
F0
100
AcDbEntity
  8
0
 62
     0
100
AcDbVertex
100
AcDb2dVertex
 10
-0.4165
 20
-29.2195
 30
0.0
  0
VERTEX
  5
F1
100
AcDbEntity
  8
0
 62
     0
100
AcDbVertex
100
AcDb2dVertex
 10
-0.3075
 20
-29.5815
 30
0.0
  0
VERTEX
  5
F2
100
AcDbEntity
  8
0
 62
     0
100
AcDbVertex
100
AcDb2dVertex
 10
-0.195
 20
-29.833
 30
0.0
  0
VERTEX
  5
F3
100
AcDbEntity
  8
0
 62
     0
100
AcDbVertex
100
AcDb2dVertex
 10
-0.081
 20
-29.9715
 30
0.0
  0
VERTEX
  5
F4
100
AcDbEntity
  8
0
 62
     0
100
AcDbVertex
100
AcDb2dVertex
 10
0.034
 20
-29.995
 30
0.0
  0
VERTEX
  5
F5
100
AcDbEntity
  8
0
 62
     0
100
AcDbVertex
100
AcDb2dVertex
 10
0.1485
 20
-29.904
 30
0.0
  0
VERTEX
  5
F6
100
AcDbEntity
  8
0
 62
     0
100
AcDbVertex
100
AcDb2dVertex
 10
0.2615
 20
-29.6985
 30
0.0
  0
VERTEX
  5
F7
100
AcDbEntity
  8
0
 62
     0
100
AcDbVertex
100
AcDb2dVertex
 10
0.372
 20
-29.3815
 30
0.0
  0
VERTEX
  5
F8
100
AcDbEntity
  8
0
 62
     0
100
AcDbVertex
100
AcDb2dVertex
 10
0.479
 20
-28.956
 30
0.0
  0
VERTEX
  5
F9
100
AcDbEntity
  8
0
 62
     0
100
AcDbVertex
100
AcDb2dVertex
 10
0.581
 20
-28.4255
 30
0.0
  0
VERTEX
  5
FA
100
AcDbEntity
  8
0
 62
     0
100
AcDbVertex
100
AcDb2dVertex
 10
0.677
 20
-27.796
 30
0.0
  0
VERTEX
  5
FB
100
AcDbEntity
  8
0
 62
     0
100
AcDbVertex
100
AcDb2dVertex
 10
0.7665
 20
-27.074
 30
0.0
  0
VERTEX
  5
FC
100
AcDbEntity
  8
0
 62
     0
100
AcDbVertex
100
AcDb2dVertex
 10
0.848
 20
-26.266
 30
0.0
  0
VERTEX
  5
FD
100
AcDbEntity
  8
0
 62
     0
100
AcDbVertex
100
AcDb2dVertex
 10
0.9215
 20
-25.3805
 30
0.0
  0
VERTEX
  5
FE
100
AcDbEntity
  8
0
 62
     0
100
AcDbVertex
100
AcDb2dVertex
 10
0.9855
 20
-24.426
 30
0.0
  0
VERTEX
  5
FF
100
AcDbEntity
  8
0
 62
     0
100
AcDbVertex
100
AcDb2dVertex
 10
1.04
 20
-23.4125
 30
0.0
  0
VERTEX
  5
100
100
AcDbEntity
  8
0
 62
     0
100
AcDbVertex
100
AcDb2dVertex
 10
1.0835
 20
-22.35
 30
0.0
  0
VERTEX
  5
101
100
AcDbEntity
  8
0
 62
     0
100
AcDbVertex
100
AcDb2dVertex
 10
1.1165
 20
-21.249
 30
0.0
  0
VERTEX
  5
102
100
AcDbEntity
  8
0
 62
     0
100
AcDbVertex
100
AcDb2dVertex
 10
1.1385
 20
-20.1205
 30
0.0
  0
VERTEX
  5
103
100
AcDbEntity
  8
0
 62
     0
100
AcDbVertex
100
AcDb2dVertex
 10
1.149
 20
-18.9755
 30
0.0
  0
VERTEX
  5
104
100
AcDbEntity
  8
0
 62
     0
100
AcDbVertex
100
AcDb2dVertex
 10
1.148
 20
-17.826
 30
0.0
  0
VERTEX
  5
105
100
AcDbEntity
  8
0
 62
     0
100
AcDbVertex
100
AcDb2dVertex
 10
1.1355
 20
-16.6835
 30
0.0
  0
VERTEX
  5
106
100
AcDbEntity
  8
0
 62
     0
100
AcDbVertex
100
AcDb2dVertex
 10
1.112
 20
-15.559
 30
0.0
  0
VERTEX
  5
107
100
AcDbEntity
  8
0
 62
     0
100
AcDbVertex
100
AcDb2dVertex
 10
1.0985
 20
-15.104
 30
0.0
  0
SEQEND
  5
108
100
AcDbEntity
  8
0
 62
     0
  0
POLYLINE
  5
10A
100
AcDbEntity
  8
0
 62
     0
100
AcDb2dPolyline
 66
     1
 10
0.0
 20
0.0
 30
0.0
  0
VERTEX
  5
10B
100
AcDbEntity
  8
0
 62
     0
100
AcDbVertex
100
AcDb2dVertex
 10
1.099
 20
-15.1115
 30
0.0
  0
VERTEX
  5
10C
100
AcDbEntity
  8
0
 62
     0
100
AcDbVertex
100
AcDb2dVertex
 10
1.1965
 20
-15.7245
 30
0.0
  0
VERTEX
  5
10D
100
AcDbEntity
  8
0
 62
     0
100
AcDbVertex
100
AcDb2dVertex
 10
1.2995
 20
-16.237
 30
0.0
  0
VERTEX
  5
10E
100
AcDbEntity
  8
0
 62
     0
100
AcDbVertex
100
AcDb2dVertex
 10
1.407
 20
-16.6445
 30
0.0
  0
VERTEX
  5
10F
100
AcDbEntity
  8
0
 62
     0
100
AcDbVertex
100
AcDb2dVertex
 10
1.518
 20
-16.942
 30
0.0
  0
VERTEX
  5
110
100
AcDbEntity
  8
0
 62
     0
100
AcDbVertex
100
AcDb2dVertex
 10
1.6315
 20
-17.128
 30
0.0
  0
VERTEX
  5
111
100
AcDbEntity
  8
0
 62
     0
100
AcDbVertex
100
AcDb2dVertex
 10
1.746
 20
-17.199
 30
0.0
  0
VERTEX
  5
112
100
AcDbEntity
  8
0
 62
     0
100
AcDbVertex
100
AcDb2dVertex
 10
1.861
 20
-17.1555
 30
0.0
  0
VERTEX
  5
113
100
AcDbEntity
  8
0
 62
     0
100
AcDbVertex
100
AcDb2dVertex
 10
1.975
 20
-16.9975
 30
0.0
  0
VERTEX
  5
114
100
AcDbEntity
  8
0
 62
     0
100
AcDbVertex
100
AcDb2dVertex
 10
2.0865
 20
-16.727
 30
0.0
  0
VERTEX
  5
115
100
AcDbEntity
  8
0
 62
     0
100
AcDbVertex
100
AcDb2dVertex
 10
2.195
 20
-16.346
 30
0.0
  0
VERTEX
  5
116
100
AcDbEntity
  8
0
 62
     0
100
AcDbVertex
100
AcDb2dVertex
 10
2.299
 20
-15.8585
 30
0.0
  0
VERTEX
  5
117
100
AcDbEntity
  8
0
 62
     0
100
AcDbVertex
100
AcDb2dVertex
 10
2.398
 20
-15.2695
 30
0.0
  0
VERTEX
  5
118
100
AcDbEntity
  8
0
 62
     0
100
AcDbVertex
100
AcDb2dVertex
 10
2.49
 20
-14.585
 30
0.0
  0
VERTEX
  5
119
100
AcDbEntity
  8
0
 62
     0
100
AcDbVertex
100
AcDb2dVertex
 10
2.575
 20
-13.812
 30
0.0
  0
VERTEX
  5
11A
100
AcDbEntity
  8
0
 62
     0
100
AcDbVertex
100
AcDb2dVertex
 10
2.652
 20
-12.9575
 30
0.0
  0
VERTEX
  5
11B
100
AcDbEntity
  8
0
 62
     0
100
AcDbVertex
100
AcDb2dVertex
 10
2.72
 20
-12.0305
 30
0.0
  0
VERTEX
  5
11C
100
AcDbEntity
  8
0
 62
     0
100
AcDbVertex
100
AcDb2dVertex
 10
2.7785
 20
-11.0405
 30
0.0
  0
VERTEX
  5
11D
100
AcDbEntity
  8
0
 62
     0
100
AcDbVertex
100
AcDb2dVertex
 10
2.8265
 20
-9.997
 30
0.0
  0
VERTEX
  5
11E
100
AcDbEntity
  8
0
 62
     0
100
AcDbVertex
100
AcDb2dVertex
 10
2.8645
 20
-8.9105
 30
0.0
  0
VERTEX
  5
11F
100
AcDbEntity
  8
0
 62
     0
100
AcDbVertex
100
AcDb2dVertex
 10
2.891
 20
-7.792
 30
0.0
  0
VERTEX
  5
120
100
AcDbEntity
  8
0
 62
     0
100
AcDbVertex
100
AcDb2dVertex
 10
2.906
 20
-6.653
 30
0.0
  0
VERTEX
  5
121
100
AcDbEntity
  8
0
 62
     0
100
AcDbVertex
100
AcDb2dVertex
 10
2.91
 20
-5.504
 30
0.0
  0
VERTEX
  5
122
100
AcDbEntity
  8
0
 62
     0
100
AcDbVertex
100
AcDb2dVertex
 10
2.902
 20
-4.357
 30
0.0
  0
VERTEX
  5
123
100
AcDbEntity
  8
0
 62
     0
100
AcDbVertex
100
AcDb2dVertex
 10
2.883
 20
-3.2235
 30
0.0
  0
VERTEX
  5
124
100
AcDbEntity
  8
0
 62
     0
100
AcDbVertex
100
AcDb2dVertex
 10
2.8525
 20
-2.1145
 30
0.0
  0
VERTEX
  5
125
100
AcDbEntity
  8
0
 62
     0
100
AcDbVertex
100
AcDb2dVertex
 10
2.8115
 20
-1.0415
 30
0.0
  0
VERTEX
  5
126
100
AcDbEntity
  8
0
 62
     0
100
AcDbVertex
100
AcDb2dVertex
 10
2.7595
 20
-0.0155
 30
0.0
  0
VERTEX
  5
127
100
AcDbEntity
  8
0
 62
     0
100
AcDbVertex
100
AcDb2dVertex
 10
2.698
 20
0.9545
 30
0.0
  0
VERTEX
  5
128
100
AcDbEntity
  8
0
 62
     0
100
AcDbVertex
100
AcDb2dVertex
 10
2.627
 20
1.8575
 30
0.0
  0
VERTEX
  5
129
100
AcDbEntity
  8
0
 62
     0
100
AcDbVertex
100
AcDb2dVertex
 10
2.547
 20
2.685
 30
0.0
  0
VERTEX
  5
12A
100
AcDbEntity
  8
0
 62
     0
100
AcDbVertex
100
AcDb2dVertex
 10
2.4595
 20
3.429
 30
0.0
  0
VERTEX
  5
12B
100
AcDbEntity
  8
0
 62
     0
100
AcDbVertex
100
AcDb2dVertex
 10
2.365
 20
4.0815
 30
0.0
  0
VERTEX
  5
12C
100
AcDbEntity
  8
0
 62
     0
100
AcDbVertex
100
AcDb2dVertex
 10
2.264
 20
4.6365
 30
0.0
  0
VERTEX
  5
12D
100
AcDbEntity
  8
0
 62
     0
100
AcDbVertex
100
AcDb2dVertex
 10
2.1585
 20
5.088
 30
0.0
  0
VERTEX
  5
12E
100
AcDbEntity
  8
0
 62
     0
100
AcDbVertex
100
AcDb2dVertex
 10
2.0485
 20
5.432
 30
0.0
  0
VERTEX
  5
12F
100
AcDbEntity
  8
0
 62
     0
100
AcDbVertex
100
AcDb2dVertex
 10
1.936
 20
5.6645
 30
0.0
  0
VERTEX
  5
130
100
AcDbEntity
  8
0
 62
     0
100
AcDbVertex
100
AcDb2dVertex
 10
1.822
 20
5.7835
 30
0.0
  0
VERTEX
  5
131
100
AcDbEntity
  8
0
 62
     0
100
AcDbVertex
100
AcDb2dVertex
 10
1.78
 20
5.7985
 30
0.0
  0
SEQEND
  5
132
100
AcDbEntity
  8
0
 62
     0
  0
POLYLINE
  5
134
100
AcDbEntity
  8
0
 62
     0
100
AcDb2dPolyline
 66
     1
 10
0.0
 20
0.0
 30
0.0
  0
VERTEX
  5
135
100
AcDbEntity
  8
0
 62
     0
100
AcDbVertex
100
AcDb2dVertex
 10
1.78
 20
5.8
 30
0.0
  0
VERTEX
  5
136
100
AcDbEntity
  8
0
 62
     0
100
AcDbVertex
100
AcDb2dVertex
 10
1.8685
 20
6.535
 30
0.0
  0
VERTEX
  5
137
100
AcDbEntity
  8
0
 62
     0
100
AcDbVertex
100
AcDb2dVertex
 10
1.949
 20
7.354
 30
0.0
  0
VERTEX
  5
138
100
AcDbEntity
  8
0
 62
     0
100
AcDbVertex
100
AcDb2dVertex
 10
2.021
 20
8.25
 30
0.0
  0
VERTEX
  5
139
100
AcDbEntity
  8
0
 62
     0
100
AcDbVertex
100
AcDb2dVertex
 10
2.084
 20
9.213
 30
0.0
  0
VERTEX
  5
13A
100
AcDbEntity
  8
0
 62
     0
100
AcDbVertex
100
AcDb2dVertex
 10
2.1365
 20
10.2345
 30
0.0
  0
VERTEX
  5
13B
100
AcDbEntity
  8
0
 62
     0
100
AcDbVertex
100
AcDb2dVertex
 10
2.179
 20
11.303
 30
0.0
  0
VERTEX
  5
13C
100
AcDbEntity
  8
0
 62
     0
100
AcDbVertex
100
AcDb2dVertex
 10
2.2105
 20
12.4085
 30
0.0
  0
VERTEX
  5
13D
100
AcDbEntity
  8
0
 62
     0
100
AcDbVertex
100
AcDb2dVertex
 10
2.2305
 20
13.54
 30
0.0
  0
VERTEX
  5
13E
100
AcDbEntity
  8
0
 62
     0
100
AcDbVertex
100
AcDb2dVertex
 10
2.2395
 20
14.686
 30
0.0
  0
VERTEX
  5
13F
100
AcDbEntity
  8
0
 62
     0
100
AcDbVertex
100
AcDb2dVertex
 10
2.237
 20
15.8355
 30
0.0
  0
VERTEX
  5
140
100
AcDbEntity
  8
0
 62
     0
100
AcDbVertex
100
AcDb2dVertex
 10
2.223
 20
16.976
 30
0.0
  0
VERTEX
  5
141
100
AcDbEntity
  8
0
 62
     0
100
AcDbVertex
100
AcDb2dVertex
 10
2.1975
 20
18.0975
 30
0.0
  0
VERTEX
  5
142
100
AcDbEntity
  8
0
 62
     0
100
AcDbVertex
100
AcDb2dVertex
 10
2.161
 20
19.1875
 30
0.0
  0
VERTEX
  5
143
100
AcDbEntity
  8
0
 62
     0
100
AcDbVertex
100
AcDb2dVertex
 10
2.114
 20
20.236
 30
0.0
  0
VERTEX
  5
144
100
AcDbEntity
  8
0
 62
     0
100
AcDbVertex
100
AcDb2dVertex
 10
2.0565
 20
21.232
 30
0.0
  0
VERTEX
  5
145
100
AcDbEntity
  8
0
 62
     0
100
AcDbVertex
100
AcDb2dVertex
 10
1.9895
 20
22.1655
 30
0.0
  0
VERTEX
  5
146
100
AcDbEntity
  8
0
 62
     0
100
AcDbVertex
100
AcDb2dVertex
 10
1.9135
 20
23.028
 30
0.0
  0
VERTEX
  5
147
100
AcDbEntity
  8
0
 62
     0
100
AcDbVertex
100
AcDb2dVertex
 10
1.829
 20
23.81
 30
0.0
  0
VERTEX
  5
148
100
AcDbEntity
  8
0
 62
     0
100
AcDbVertex
100
AcDb2dVertex
 10
1.7375
 20
24.5035
 30
0.0
  0
VERTEX
  5
149
100
AcDbEntity
  8
0
 62
     0
100
AcDbVertex
100
AcDb2dVertex
 10
1.6395
 20
25.1025
 30
0.0
  0
VERTEX
  5
14A
100
AcDbEntity
  8
0
 62
     0
100
AcDbVertex
100
AcDb2dVertex
 10
1.536
 20
25.6005
 30
0.0
  0
VERTEX
  5
14B
100
AcDbEntity
  8
0
 62
     0
100
AcDbVertex
100
AcDb2dVertex
 10
1.428
 20
25.993
 30
0.0
  0
VERTEX
  5
14C
100
AcDbEntity
  8
0
 62
     0
100
AcDbVertex
100
AcDb2dVertex
 10
1.3165
 20
26.275
 30
0.0
  0
VERTEX
  5
14D
100
AcDbEntity
  8
0
 62
     0
100
AcDbVertex
100
AcDb2dVertex
 10
1.2025
 20
26.4445
 30
0.0
  0
VERTEX
  5
14E
100
AcDbEntity
  8
0
 62
     0
100
AcDbVertex
100
AcDb2dVertex
 10
1.088
 20
26.5
 30
0.0
  0
VERTEX
  5
14F
100
AcDbEntity
  8
0
 62
     0
100
AcDbVertex
100
AcDb2dVertex
 10
0.973
 20
26.4405
 30
0.0
  0
VERTEX
  5
150
100
AcDbEntity
  8
0
 62
     0
100
AcDbVertex
100
AcDb2dVertex
 10
0.8595
 20
26.2665
 30
0.0
  0
VERTEX
  5
151
100
AcDbEntity
  8
0
 62
     0
100
AcDbVertex
100
AcDb2dVertex
 10
0.748
 20
25.98
 30
0.0
  0
VERTEX
  5
152
100
AcDbEntity
  8
0
 62
     0
100
AcDbVertex
100
AcDb2dVertex
 10
0.64
 20
25.5835
 30
0.0
  0
VERTEX
  5
153
100
AcDbEntity
  8
0
 62
     0
100
AcDbVertex
100
AcDb2dVertex
 10
0.5365
 20
25.0815
 30
0.0
  0
VERTEX
  5
154
100
AcDbEntity
  8
0
 62
     0
100
AcDbVertex
100
AcDb2dVertex
 10
0.439
 20
24.479
 30
0.0
  0
VERTEX
  5
155
100
AcDbEntity
  8
0
 62
     0
100
AcDbVertex
100
AcDb2dVertex
 10
0.3475
 20
23.7815
 30
0.0
  0
VERTEX
  5
156
100
AcDbEntity
  8
0
 62
     0
100
AcDbVertex
100
AcDb2dVertex
 10
0.2635
 20
22.9965
 30
0.0
  0
VERTEX
  5
157
100
AcDbEntity
  8
0
 62
     0
100
AcDbVertex
100
AcDb2dVertex
 10
0.188
 20
22.1315
 30
0.0
  0
VERTEX
  5
158
100
AcDbEntity
  8
0
 62
     0
100
AcDbVertex
100
AcDb2dVertex
 10
0.121
 20
21.195
 30
0.0
  0
VERTEX
  5
159
100
AcDbEntity
  8
0
 62
     0
100
AcDbVertex
100
AcDb2dVertex
 10
0.064
 20
20.197
 30
0.0
  0
VERTEX
  5
15A
100
AcDbEntity
  8
0
 62
     0
100
AcDbVertex
100
AcDb2dVertex
 10
0.0175
 20
19.1465
 30
0.0
  0
VERTEX
  5
15B
100
AcDbEntity
  8
0
 62
     0
100
AcDbVertex
100
AcDb2dVertex
 10
0.001
 20
18.6965
 30
0.0
  0
SEQEND
  5
15C
100
AcDbEntity
  8
0
 62
     0
  0
POINT
  5
15D
100
AcDbEntity
  8
0
 62
     0
100
AcDbPoint
 10
0.0
 20
0.0
 30
0.0
  0
ATTDEF
  5
15E
100
AcDbEntity
  8
0
100
AcDbText
 10
0.0
 20
0.0
 30
0.0
 40
1.0
  1

100
AcDbAttributeDefinition
  3
pto:
  2
PONTO
 70
     0
  0
ATTDEF
  5
15F
100
AcDbEntity
  8
0
100
AcDbText
 10
0.0
 20
0.0
 30
0.0
 40
1.0
  1

100
AcDbAttributeDefinition
  3
desc:
  2
DESC
 70
     0
  0
ATTDEF
  5
160
100
AcDbEntity
  8
0
100
AcDbText
 10
0.0
 20
0.0
 30
0.0
 40
1.0
  1

100
AcDbAttributeDefinition
  3
ct:
  2
COTA
 70
     0
  0
ENDBLK
  5
161
100
AcDbEntity
  8
0
100
AcDbBlockEnd
  0
BLOCK
  5
163
100
AcDbEntity
  8
0
100
AcDbBlockBegin
  2
SIMB_QUADRADO
 70
     0
 10
0.0
 20
0.0
 30
0.0
  3
SIMB_QUADRADO
  1

  0
POLYLINE
  5
164
100
AcDbEntity
  8
0
 62
     0
100
AcDb2dPolyline
 66
     1
 10
0.0
 20
0.0
 30
0.0
 70
     1
  0
VERTEX
  5
165
100
AcDbEntity
  8
0
 62
     0
100
AcDbVertex
100
AcDb2dVertex
 10
-0.25
 20
-2.5
 30
0.0
  0
VERTEX
  5
166
100
AcDbEntity
  8
0
 62
     0
100
AcDbVertex
100
AcDb2dVertex
 10
0.25
 20
-2.5
 30
0.0
  0
VERTEX
  5
167
100
AcDbEntity
  8
0
 62
     0
100
AcDbVertex
100
AcDb2dVertex
 10
0.25
 20
2.5
 30
0.0
  0
VERTEX
  5
168
100
AcDbEntity
  8
0
 62
     0
100
AcDbVertex
100
AcDb2dVertex
 10
-0.25
 20
2.5
 30
0.0
  0
SEQEND
  5
169
100
AcDbEntity
  8
0
 62
     0
  0
POINT
  5
16A
100
AcDbEntity
  8
0
 62
     0
100
AcDbPoint
 10
0.0
 20
0.0
 30
0.0
  0
ATTDEF
  5
16B
100
AcDbEntity
  8
0
100
AcDbText
 10
0.0
 20
0.0
 30
0.0
 40
1.0
  1

100
AcDbAttributeDefinition
  3
pto:
  2
PONTO
 70
     0
  0
ATTDEF
  5
16C
100
AcDbEntity
  8
0
100
AcDbText
 10
0.0
 20
0.0
 30
0.0
 40
1.0
  1

100
AcDbAttributeDefinition
  3
desc:
  2
DESC
 70
     0
  0
ATTDEF
  5
16D
100
AcDbEntity
  8
0
100
AcDbText
 10
0.0
 20
0.0
 30
0.0
 40
1.0
  1

100
AcDbAttributeDefinition
  3
ct:
  2
COTA
 70
     0
  0
ENDBLK
  5
16E
100
AcDbEntity
  8
0
100
AcDbBlockEnd
  0
BLOCK
  5
170
100
AcDbEntity
  8
0
100
AcDbBlockBegin
  2
SIMB_BOLINHA
 70
     0
 10
0.0
 20
0.0
 30
0.0
  3
SIMB_BOLINHA
  1

  0
POLYLINE
  5
172
100
AcDbEntity
  8
0
 62
     0
100
AcDb2dPolyline
 66
     1
 10
0.0
 20
0.0
 30
0.0
  0
VERTEX
  5
173
100
AcDbEntity
  8
0
 62
     0
100
AcDbVertex
100
AcDb2dVertex
 10
0.3
 20
0.0
 30
0.0
  0
VERTEX
  5
174
100
AcDbEntity
  8
0
 62
     0
100
AcDbVertex
100
AcDb2dVertex
 10
0.2985
 20
0.2995
 30
0.0
  0
VERTEX
  5
175
100
AcDbEntity
  8
0
 62
     0
100
AcDbVertex
100
AcDb2dVertex
 10
0.294
 20
0.596
 30
0.0
  0
VERTEX
  5
176
100
AcDbEntity
  8
0
 62
     0
100
AcDbVertex
100
AcDb2dVertex
 10
0.2865
 20
0.8865
 30
0.0
  0
VERTEX
  5
177
100
AcDbEntity
  8
0
 62
     0
100
AcDbVertex
100
AcDb2dVertex
 10
0.2765
 20
1.1685
 30
0.0
  0
VERTEX
  5
178
100
AcDbEntity
  8
0
 62
     0
100
AcDbVertex
100
AcDb2dVertex
 10
0.2635
 20
1.4385
 30
0.0
  0
VERTEX
  5
179
100
AcDbEntity
  8
0
 62
     0
100
AcDbVertex
100
AcDb2dVertex
 10
0.2475
 20
1.694
 30
0.0
  0
VERTEX
  5
17A
100
AcDbEntity
  8
0
 62
     0
100
AcDbVertex
100
AcDb2dVertex
 10
0.2295
 20
1.9325
 30
0.0
  0
VERTEX
  5
17B
100
AcDbEntity
  8
0
 62
     0
100
AcDbVertex
100
AcDb2dVertex
 10
0.209
 20
2.152
 30
0.0
  0
VERTEX
  5
17C
100
AcDbEntity
  8
0
 62
     0
100
AcDbVertex
100
AcDb2dVertex
 10
0.1865
 20
2.35
 30
0.0
  0
VERTEX
  5
17D
100
AcDbEntity
  8
0
 62
     0
100
AcDbVertex
100
AcDb2dVertex
 10
0.162
 20
2.5245
 30
0.0
  0
VERTEX
  5
17E
100
AcDbEntity
  8
0
 62
     0
100
AcDbVertex
100
AcDb2dVertex
 10
0.136
 20
2.6735
 30
0.0
  0
VERTEX
  5
17F
100
AcDbEntity
  8
0
 62
     0
100
AcDbVertex
100
AcDb2dVertex
 10
0.1085
 20
2.796
 30
0.0
  0
VERTEX
  5
180
100
AcDbEntity
  8
0
 62
     0
100
AcDbVertex
100
AcDb2dVertex
 10
0.08
 20
2.8905
 30
0.0
  0
VERTEX
  5
181
100
AcDbEntity
  8
0
 62
     0
100
AcDbVertex
100
AcDb2dVertex
 10
0.051
 20
2.9565
 30
0.0
  0
VERTEX
  5
182
100
AcDbEntity
  8
0
 62
     0
100
AcDbVertex
100
AcDb2dVertex
 10
0.021
 20
2.9925
 30
0.0
  0
VERTEX
  5
183
100
AcDbEntity
  8
0
 62
     0
100
AcDbVertex
100
AcDb2dVertex
 10
-0.009
 20
2.9985
 30
0.0
  0
VERTEX
  5
184
100
AcDbEntity
  8
0
 62
     0
100
AcDbVertex
100
AcDb2dVertex
 10
-0.0385
 20
2.975
 30
0.0
  0
VERTEX
  5
185
100
AcDbEntity
  8
0
 62
     0
100
AcDbVertex
100
AcDb2dVertex
 10
-0.068
 20
2.9215
 30
0.0
  0
VERTEX
  5
186
100
AcDbEntity
  8
0
 62
     0
100
AcDbVertex
100
AcDb2dVertex
 10
-0.097
 20
2.839
 30
0.0
  0
VERTEX
  5
187
100
AcDbEntity
  8
0
 62
     0
100
AcDbVertex
100
AcDb2dVertex
 10
-0.125
 20
2.728
 30
0.0
  0
VERTEX
  5
188
100
AcDbEntity
  8
0
 62
     0
100
AcDbVertex
100
AcDb2dVertex
 10
-0.1515
 20
2.5895
 30
0.0
  0
VERTEX
  5
189
100
AcDbEntity
  8
0
 62
     0
100
AcDbVertex
100
AcDb2dVertex
 10
-0.1765
 20
2.4255
 30
0.0
  0
VERTEX
  5
18A
100
AcDbEntity
  8
0
 62
     0
100
AcDbVertex
100
AcDb2dVertex
 10
-0.2
 20
2.237
 30
0.0
  0
VERTEX
  5
18B
100
AcDbEntity
  8
0
 62
     0
100
AcDbVertex
100
AcDb2dVertex
 10
-0.221
 20
2.0265
 30
0.0
  0
VERTEX
  5
18C
100
AcDbEntity
  8
0
 62
     0
100
AcDbVertex
100
AcDb2dVertex
 10
-0.2405
 20
1.7955
 30
0.0
  0
VERTEX
  5
18D
100
AcDbEntity
  8
0
 62
     0
100
AcDbVertex
100
AcDb2dVertex
 10
-0.257
 20
1.5465
 30
0.0
  0
VERTEX
  5
18E
100
AcDbEntity
  8
0
 62
     0
100
AcDbVertex
100
AcDb2dVertex
 10
-0.271
 20
1.282
 30
0.0
  0
VERTEX
  5
18F
100
AcDbEntity
  8
0
 62
     0
100
AcDbVertex
100
AcDb2dVertex
 10
-0.2825
 20
1.005
 30
0.0
  0
VERTEX
  5
190
100
AcDbEntity
  8
0
 62
     0
100
AcDbVertex
100
AcDb2dVertex
 10
-0.2915
 20
0.7175
 30
0.0
  0
VERTEX
  5
191
100
AcDbEntity
  8
0
 62
     0
100
AcDbVertex
100
AcDb2dVertex
 10
-0.297
 20
0.4235
 30
0.0
  0
VERTEX
  5
192
100
AcDbEntity
  8
0
 62
     0
100
AcDbVertex
100
AcDb2dVertex
 10
-0.2995
 20
0.1245
 30
0.0
  0
VERTEX
  5
193
100
AcDbEntity
  8
0
 62
     0
100
AcDbVertex
100
AcDb2dVertex
 10
-0.2995
 20
-0.175
 30
0.0
  0
VERTEX
  5
194
100
AcDbEntity
  8
0
 62
     0
100
AcDbVertex
100
AcDb2dVertex
 10
-0.296
 20
-0.473
 30
0.0
  0
VERTEX
  5
195
100
AcDbEntity
  8
0
 62
     0
100
AcDbVertex
100
AcDb2dVertex
 10
-0.29
 20
-0.7665
 30
0.0
  0
VERTEX
  5
196
100
AcDbEntity
  8
0
 62
     0
100
AcDbVertex
100
AcDb2dVertex
 10
-0.281
 20
-1.0525
 30
0.0
  0
VERTEX
  5
197
100
AcDbEntity
  8
0
 62
     0
100
AcDbVertex
100
AcDb2dVertex
 10
-0.269
 20
-1.3275
 30
0.0
  0
VERTEX
  5
198
100
AcDbEntity
  8
0
 62
     0
100
AcDbVertex
100
AcDb2dVertex
 10
-0.2545
 20
-1.5895
 30
0.0
  0
VERTEX
  5
199
100
AcDbEntity
  8
0
 62
     0
100
AcDbVertex
100
AcDb2dVertex
 10
-0.2375
 20
-1.8355
 30
0.0
  0
VERTEX
  5
19A
100
AcDbEntity
  8
0
 62
     0
100
AcDbVertex
100
AcDb2dVertex
 10
-0.218
 20
-2.0635
 30
0.0
  0
VERTEX
  5
19B
100
AcDbEntity
  8
0
 62
     0
100
AcDbVertex
100
AcDb2dVertex
 10
-0.196
 20
-2.2705
 30
0.0
  0
VERTEX
  5
19C
100
AcDbEntity
  8
0
 62
     0
100
AcDbVertex
100
AcDb2dVertex
 10
-0.1725
 20
-2.455
 30
0.0
  0
VERTEX
  5
19D
100
AcDbEntity
  8
0
 62
     0
100
AcDbVertex
100
AcDb2dVertex
 10
-0.147
 20
-2.6145
 30
0.0
  0
VERTEX
  5
19E
100
AcDbEntity
  8
0
 62
     0
100
AcDbVertex
100
AcDb2dVertex
 10
-0.12
 20
-2.7485
 30
0.0
  0
VERTEX
  5
19F
100
AcDbEntity
  8
0
 62
     0
100
AcDbVertex
100
AcDb2dVertex
 10
-0.092
 20
-2.855
 30
0.0
  0
VERTEX
  5
1A0
100
AcDbEntity
  8
0
 62
     0
100
AcDbVertex
100
AcDb2dVertex
 10
-0.063
 20
-2.9325
 30
0.0
  0
VERTEX
  5
1A1
100
AcDbEntity
  8
0
 62
     0
100
AcDbVertex
100
AcDb2dVertex
 10
-0.0335
 20
-2.981
 30
0.0
  0
VERTEX
  5
1A2
100
AcDbEntity
  8
0
 62
     0
100
AcDbVertex
100
AcDb2dVertex
 10
-0.0035
 20
-3.0
 30
0.0
  0
VERTEX
  5
1A3
100
AcDbEntity
  8
0
 62
     0
100
AcDbVertex
100
AcDb2dVertex
 10
0.026
 20
-2.9885
 30
0.0
  0
VERTEX
  5
1A4
100
AcDbEntity
  8
0
 62
     0
100
AcDbVertex
100
AcDb2dVertex
 10
0.056
 20
-2.9475
 30
0.0
  0
VERTEX
  5
1A5
100
AcDbEntity
  8
0
 62
     0
100
AcDbVertex
100
AcDb2dVertex
 10
0.085
 20
-2.877
 30
0.0
  0
VERTEX
  5
1A6
100
AcDbEntity
  8
0
 62
     0
100
AcDbVertex
100
AcDb2dVertex
 10
0.1135
 20
-2.7775
 30
0.0
  0
VERTEX
  5
1A7
100
AcDbEntity
  8
0
 62
     0
100
AcDbVertex
100
AcDb2dVertex
 10
0.1405
 20
-2.6505
 30
0.0
  0
VERTEX
  5
1A8
100
AcDbEntity
  8
0
 62
     0
100
AcDbVertex
100
AcDb2dVertex
 10
0.1665
 20
-2.497
 30
0.0
  0
VERTEX
  5
1A9
100
AcDbEntity
  8
0
 62
     0
100
AcDbVertex
100
AcDb2dVertex
 10
0.1905
 20
-2.3185
 30
0.0
  0
VERTEX
  5
1AA
100
AcDbEntity
  8
0
 62
     0
100
AcDbVertex
100
AcDb2dVertex
 10
0.2125
 20
-2.1165
 30
0.0
  0
VERTEX
  5
1AB
100
AcDbEntity
  8
0
 62
     0
100
AcDbVertex
100
AcDb2dVertex
 10
0.2325
 20
-1.894
 30
0.0
  0
VERTEX
  5
1AC
100
AcDbEntity
  8
0
 62
     0
100
AcDbVertex
100
AcDb2dVertex
 10
0.2505
 20
-1.652
 30
0.0
  0
VERTEX
  5
1AD
100
AcDbEntity
  8
0
 62
     0
100
AcDbVertex
100
AcDb2dVertex
 10
0.2655
 20
-1.394
 30
0.0
  0
VERTEX
  5
1AE
100
AcDbEntity
  8
0
 62
     0
100
AcDbVertex
100
AcDb2dVertex
 10
0.278
 20
-1.1215
 30
0.0
  0
VERTEX
  5
1AF
100
AcDbEntity
  8
0
 62
     0
100
AcDbVertex
100
AcDb2dVertex
 10
0.288
 20
-0.838
 30
0.0
  0
VERTEX
  5
1B0
100
AcDbEntity
  8
0
 62
     0
100
AcDbVertex
100
AcDb2dVertex
 10
0.295
 20
-0.5465
 30
0.0
  0
VERTEX
  5
1B1
100
AcDbEntity
  8
0
 62
     0
100
AcDbVertex
100
AcDb2dVertex
 10
0.299
 20
-0.2495
 30
0.0
  0
VERTEX
  5
1B2
100
AcDbEntity
  8
0
 62
     0
100
AcDbVertex
100
AcDb2dVertex
 10
0.3
 20
0.0
 30
0.0
  0
SEQEND
  5
1B3
100
AcDbEntity
  8
0
 62
     0
  0
POINT
  5
1B4
100
AcDbEntity
  8
0
 62
     0
100
AcDbPoint
 10
0.0
 20
0.0
 30
0.0
  0
ATTDEF
  5
1B5
100
AcDbEntity
  8
0
100
AcDbText
 10
0.0
 20
0.0
 30
0.0
 40
1.0
  1

100
AcDbAttributeDefinition
  3
pto:
  2
PONTO
 70
     0
  0
ATTDEF
  5
1B6
100
AcDbEntity
  8
0
100
AcDbText
 10
0.0
 20
0.0
 30
0.0
 40
1.0
  1

100
AcDbAttributeDefinition
  3
desc:
  2
DESC
 70
     0
  0
ATTDEF
  5
1B7
100
AcDbEntity
  8
0
100
AcDbText
 10
0.0
 20
0.0
 30
0.0
 40
1.0
  1

100
AcDbAttributeDefinition
  3
ct:
  2
COTA
 70
     0
  0
ENDBLK
  5
1B8
100
AcDbEntity
  8
0
100
AcDbBlockEnd
  0
BLOCK
  5
1BA
100
AcDbEntity
  8
0
100
AcDbBlockBegin
  2
SIMB_CRUZETA
 70
     0
 10
0.0
 20
0.0
 30
0.0
  3
SIMB_CRUZETA
  1

  0
POLYLINE
  5
1BB
100
AcDbEntity
  8
0
 62
     0
100
AcDb2dPolyline
 66
     1
 10
0.0
 20
0.0
 30
0.0
  0
VERTEX
  5
1BC
100
AcDbEntity
  8
0
 62
     0
100
AcDbVertex
100
AcDb2dVertex
 10
-0.5
 20
0.0
 30
0.0
  0
VERTEX
  5
1BD
100
AcDbEntity
  8
0
 62
     0
100
AcDbVertex
100
AcDb2dVertex
 10
0.5
 20
0.0
 30
0.0
  0
SEQEND
  5
1BE
100
AcDbEntity
  8
0
 62
     0
  0
POLYLINE
  5
1BF
100
AcDbEntity
  8
0
 62
     0
100
AcDb2dPolyline
 66
     1
 10
0.0
 20
0.0
 30
0.0
  0
VERTEX
  5
1C0
100
AcDbEntity
  8
0
 62
     0
100
AcDbVertex
100
AcDb2dVertex
 10
0.0
 20
-5.0
 30
0.0
  0
VERTEX
  5
1C1
100
AcDbEntity
  8
0
 62
     0
100
AcDbVertex
100
AcDb2dVertex
 10
0.0
 20
5.0
 30
0.0
  0
SEQEND
  5
1C2
100
AcDbEntity
  8
0
 62
     0
  0
ATTDEF
  5
1C3
100
AcDbEntity
  8
0
100
AcDbText
 10
0.0
 20
0.0
 30
0.0
 40
1.0
  1

100
AcDbAttributeDefinition
  3
pto:
  2
PONTO
 70
     0
  0
ATTDEF
  5
1C4
100
AcDbEntity
  8
0
100
AcDbText
 10
0.0
 20
0.0
 30
0.0
 40
1.0
  1

100
AcDbAttributeDefinition
  3
desc:
  2
DESC
 70
     0
  0
ATTDEF
  5
1C5
100
AcDbEntity
  8
0
100
AcDbText
 10
0.0
 20
0.0
 30
0.0
 40
1.0
  1

100
AcDbAttributeDefinition
  3
ct:
  2
COTA
 70
     0
  0
ENDBLK
  5
1C6
100
AcDbEntity
  8
0
100
AcDbBlockEnd
  0
BLOCK
  5
1C8
100
AcDbEntity
  8
0
100
AcDbBlockBegin
  2
SIMB_BARRAS
 70
     0
 10
0.0
 20
0.0
 30
0.0
  3
SIMB_BARRAS
  1

  0
POLYLINE
  5
1C9
100
AcDbEntity
  8
0
 62
     0
100
AcDb2dPolyline
 66
     1
 10
0.0
 20
0.0
 30
0.0
  0
VERTEX
  5
1CA
100
AcDbEntity
  8
0
 62
     0
100
AcDbVertex
100
AcDb2dVertex
 10
-0.35
 20
-5.0
 30
0.0
  0
VERTEX
  5
1CB
100
AcDbEntity
  8
0
 62
     0
100
AcDbVertex
100
AcDb2dVertex
 10
-0.1
 20
5.0
 30
0.0
  0
SEQEND
  5
1CC
100
AcDbEntity
  8
0
 62
     0
  0
POLYLINE
  5
1CD
100
AcDbEntity
  8
0
 62
     0
100
AcDb2dPolyline
 66
     1
 10
0.0
 20
0.0
 30
0.0
  0
VERTEX
  5
1CE
100
AcDbEntity
  8
0
 62
     0
100
AcDbVertex
100
AcDb2dVertex
 10
0.35
 20
5.0
 30
0.0
  0
VERTEX
  5
1CF
100
AcDbEntity
  8
0
 62
     0
100
AcDbVertex
100
AcDb2dVertex
 10
0.1
 20
-5.0
 30
0.0
  0
SEQEND
  5
1D0
100
AcDbEntity
  8
0
 62
     0
  0
POINT
  5
1D1
100
AcDbEntity
  8
0
 62
     0
100
AcDbPoint
 10
0.0
 20
0.0
 30
0.0
  0
ATTDEF
  5
1D2
100
AcDbEntity
  8
0
100
AcDbText
 10
0.0
 20
0.0
 30
0.0
 40
1.0
  1

100
AcDbAttributeDefinition
  3
pto:
  2
PONTO
 70
     0
  0
ATTDEF
  5
1D3
100
AcDbEntity
  8
0
100
AcDbText
 10
0.0
 20
0.0
 30
0.0
 40
1.0
  1

100
AcDbAttributeDefinition
  3
desc:
  2
DESC
 70
     0
  0
ATTDEF
  5
1D4
100
AcDbEntity
  8
0
100
AcDbText
 10
0.0
 20
0.0
 30
0.0
 40
1.0
  1

100
AcDbAttributeDefinition
  3
ct:
  2
COTA
 70
     0
  0
ENDBLK
  5
1D5
100
AcDbEntity
  8
0
100
AcDbBlockEnd
  0
BLOCK
  5
1D7
100
AcDbEntity
  8
0
100
AcDbBlockBegin
  2
SIMB_PONTO
 70
     0
 10
0.0
 20
0.0
 30
0.0
  3
SIMB_PONTO
  1

  0
POINT
  5
1D8
100
AcDbEntity
  8
0
 62
     0
100
AcDbPoint
 10
0.0
 20
0.0
 30
0.0
  0
ATTDEF
  5
1D9
100
AcDbEntity
  8
0
100
AcDbText
 10
0.0
 20
0.0
 30
0.0
 40
1.0
  1

100
AcDbAttributeDefinition
  3
pto:
  2
PONTO
 70
     0
  0
ATTDEF
  5
1DA
100
AcDbEntity
  8
0
100
AcDbText
 10
0.0
 20
0.0
 30
0.0
 40
1.0
  1

100
AcDbAttributeDefinition
  3
desc:
  2
DESC
 70
     0
  0
ATTDEF
  5
1DB
100
AcDbEntity
  8
0
100
AcDbText
 10
0.0
 20
0.0
 30
0.0
 40
1.0
  1

100
AcDbAttributeDefinition
  3
ct:
  2
COTA
 70
     0
  0
ENDBLK
  5
1DC
100
AcDbEntity
  8
0
100
AcDbBlockEnd
  0
BLOCK
  5
1DE
100
AcDbEntity
  8
0
100
AcDbBlockBegin
  2
SIMB_TRIANGULO
 70
     0
 10
0.0
 20
0.0
 30
0.0
  3
SIMB_TRIANGULO
  1

  0
POLYLINE
  5
1DF
100
AcDbEntity
  8
0
 62
     0
100
AcDb2dPolyline
 66
     1
 10
0.0
 20
0.0
 30
0.0
 70
     1
  0
VERTEX
  5
1E0
100
AcDbEntity
  8
0
 62
     0
100
AcDbVertex
100
AcDb2dVertex
 10
-0.6
 20
-3.0
 30
0.0
  0
VERTEX
  5
1E1
100
AcDbEntity
  8
0
 62
     0
100
AcDbVertex
100
AcDb2dVertex
 10
0.0
 20
7.0
 30
0.0
  0
VERTEX
  5
1E2
100
AcDbEntity
  8
0
 62
     0
100
AcDbVertex
100
AcDb2dVertex
 10
0.6
 20
-3.0
 30
0.0
  0
SEQEND
  5
1E3
100
AcDbEntity
  8
0
 62
     0
  0
POINT
  5
1E4
100
AcDbEntity
  8
0
 62
     0
100
AcDbPoint
 10
0.0
 20
0.0
 30
0.0
  0
ATTDEF
  5
1E5
100
AcDbEntity
  8
0
100
AcDbText
 10
0.0
 20
0.0
 30
0.0
 40
1.0
  1

100
AcDbAttributeDefinition
  3
pto:
  2
PONTO
 70
     0
  0
ATTDEF
  5
1E6
100
AcDbEntity
  8
0
100
AcDbText
 10
0.0
 20
0.0
 30
0.0
 40
1.0
  1

100
AcDbAttributeDefinition
  3
desc:
  2
DESC
 70
     0
  0
ATTDEF
  5
1E7
100
AcDbEntity
  8
0
100
AcDbText
 10
0.0
 20
0.0
 30
0.0
 40
1.0
  1

100
AcDbAttributeDefinition
  3
ct:
  2
COTA
 70
     0
  0
ENDBLK
  5
1E8
100
AcDbEntity
  8
0
100
AcDbBlockEnd
  0
BLOCK
  5
1EA
100
AcDbEntity
  8
0
100
AcDbBlockBegin
  2
SIMB_POSTE
 70
     0
 10
0.0
 20
0.0
 30
0.0
  3
SIMB_POSTE
  1

  0
POLYLINE
  5
1EB
100
AcDbEntity
  8
0
 62
     0
100
AcDb2dPolyline
 66
     1
 10
0.0
 20
0.0
 30
0.0
  0
VERTEX
  5
1EC
100
AcDbEntity
  8
0
 62
     0
100
AcDbVertex
100
AcDb2dVertex
 10
0.0
 20
0.0
 30
0.0
  0
VERTEX
  5
1ED
100
AcDbEntity
  8
0
 62
     0
100
AcDbVertex
100
AcDb2dVertex
 10
0.0
 20
50.0
 30
0.0
  0
SEQEND
  5
1EE
100
AcDbEntity
  8
0
 62
     0
  0
POLYLINE
  5
1EF
100
AcDbEntity
  8
0
 62
     0
100
AcDb2dPolyline
 66
     1
 10
0.0
 20
0.0
 30
0.0
  0
VERTEX
  5
1F0
100
AcDbEntity
  8
0
 62
     0
100
AcDbVertex
100
AcDb2dVertex
 10
-1.5
 20
30.0
 30
0.0
  0
VERTEX
  5
1F1
100
AcDbEntity
  8
0
 62
     0
100
AcDbVertex
100
AcDb2dVertex
 10
1.5
 20
30.0
 30
0.0
  0
SEQEND
  5
1F2
100
AcDbEntity
  8
0
 62
     0
  0
POLYLINE
  5
1F3
100
AcDbEntity
  8
0
 62
     0
100
AcDb2dPolyline
 66
     1
 10
0.0
 20
0.0
 30
0.0
  0
VERTEX
  5
1F4
100
AcDbEntity
  8
0
 62
     0
100
AcDbVertex
100
AcDb2dVertex
 10
-1.0
 20
40.0
 30
0.0
  0
VERTEX
  5
1F5
100
AcDbEntity
  8
0
 62
     0
100
AcDbVertex
100
AcDb2dVertex
 10
1.0
 20
40.0
 30
0.0
  0
SEQEND
  5
1F6
100
AcDbEntity
  8
0
 62
     0
  0
ATTDEF
  5
1F7
100
AcDbEntity
  8
0
100
AcDbText
 10
0.0
 20
0.0
 30
0.0
 40
1.0
  1

100
AcDbAttributeDefinition
  3
pto:
  2
PONTO
 70
     0
  0
ATTDEF
  5
1F8
100
AcDbEntity
  8
0
100
AcDbText
 10
0.0
 20
0.0
 30
0.0
 40
1.0
  1

100
AcDbAttributeDefinition
  3
desc:
  2
DESC
 70
     0
  0
ATTDEF
  5
1F9
100
AcDbEntity
  8
0
100
AcDbText
 10
0.0
 20
0.0
 30
0.0
 40
1.0
  1

100
AcDbAttributeDefinition
  3
ct:
  2
COTA
 70
     0
  0
ENDBLK
  5
1FA
100
AcDbEntity
  8
0
100
AcDbBlockEnd
  0
BLOCK
  5
1FC
100
AcDbEntity
  8
0
100
AcDbBlockBegin
  2
26D0B00
 70
     0
 10
0.0
 20
0.0
 30
0.0
  3
26D0B00
  1

  0
POLYLINE
  5
1FD
100
AcDbEntity
  8
PERFIL
  6
CONTINUO
 62
     7
100
AcDb2dPolyline
 66
     1
 10
0.0
 20
0.0
 30
0.0
  0
VERTEX
  5
1FE
100
AcDbEntity
  8
PERFIL
  6
CONTINUO
 62
     7
100
AcDbVertex
100
AcDb2dVertex
 10
0.0
 20
115.96
 30
5.149
  0
VERTEX
  5
1FF
100
AcDbEntity
  8
PERFIL
  6
CONTINUO
 62
     7
100
AcDbVertex
100
AcDb2dVertex
 10
40.0
 20
110.98
 30
4.9
  0
VERTEX
  5
200
100
AcDbEntity
  8
PERFIL
  6
CONTINUO
 62
     7
100
AcDbVertex
100
AcDb2dVertex
 10
80.0
 20
110.78
 30
4.89
  0
VERTEX
  5
201
100
AcDbEntity
  8
PERFIL
  6
CONTINUO
 62
     7
100
AcDbVertex
100
AcDb2dVertex
 10
120.0
 20
108.62
 30
4.782
  0
VERTEX
  5
202
100
AcDbEntity
  8
PERFIL
  6
CONTINUO
 62
     7
100
AcDbVertex
100
AcDb2dVertex
 10
160.0
 20
107.48
 30
4.725
  0
VERTEX
  5
203
100
AcDbEntity
  8
PERFIL
  6
CONTINUO
 62
     7
100
AcDbVertex
100
AcDb2dVertex
 10
200.0
 20
111.9
 30
4.946
  0
VERTEX
  5
204
100
AcDbEntity
  8
PERFIL
  6
CONTINUO
 62
     7
100
AcDbVertex
100
AcDb2dVertex
 10
240.0
 20
107.68
 30
4.735
  0
VERTEX
  5
205
100
AcDbEntity
  8
PERFIL
  6
CONTINUO
 62
     7
100
AcDbVertex
100
AcDb2dVertex
 10
280.0
 20
106.48
 30
4.675
  0
VERTEX
  5
206
100
AcDbEntity
  8
PERFIL
  6
CONTINUO
 62
     7
100
AcDbVertex
100
AcDb2dVertex
 10
320.0
 20
108.74
 30
4.788
  0
VERTEX
  5
207
100
AcDbEntity
  8
PERFIL
  6
CONTINUO
 62
     7
100
AcDbVertex
100
AcDb2dVertex
 10
360.0
 20
109.44
 30
4.823
  0
VERTEX
  5
208
100
AcDbEntity
  8
PERFIL
  6
CONTINUO
 62
     7
100
AcDbVertex
100
AcDb2dVertex
 10
400.0
 20
105.96
 30
4.649
  0
VERTEX
  5
209
100
AcDbEntity
  8
PERFIL
  6
CONTINUO
 62
     7
100
AcDbVertex
100
AcDb2dVertex
 10
440.0
 20
110.32
 30
4.867
  0
SEQEND
  5
20A
100
AcDbEntity
  8
PERFIL
  6
CONTINUO
 62
     7
  0
POLYLINE
  5
20B
100
AcDbEntity
  8
PERFIL
  6
CONTINUO
 62
   254
100
AcDb2dPolyline
 66
     1
 10
0.0
 20
0.0
 30
0.0
  0
VERTEX
  5
20C
100
AcDbEntity
  8
PERFIL
  6
CONTINUO
 62
   254
100
AcDbVertex
100
AcDb2dVertex
 10
0.0
 20
115.96
 30
5.149
  0
VERTEX
  5
20D
100
AcDbEntity
  8
PERFIL
  6
CONTINUO
 62
   254
100
AcDbVertex
100
AcDb2dVertex
 10
0.0
 20
92.98
 30
0.0
  0
SEQEND
  5
20E
100
AcDbEntity
  8
PERFIL
  6
CONTINUO
 62
   254
  0
POLYLINE
  5
20F
100
AcDbEntity
  8
PERFIL
  6
CONTINUO
 62
   254
100
AcDb2dPolyline
 66
     1
 10
0.0
 20
0.0
 30
0.0
  0
VERTEX
  5
210
100
AcDbEntity
  8
PERFIL
  6
CONTINUO
 62
   254
100
AcDbVertex
100
AcDb2dVertex
 10
40.0
 20
110.98
 30
4.9
  0
VERTEX
  5
211
100
AcDbEntity
  8
PERFIL
  6
CONTINUO
 62
   254
100
AcDbVertex
100
AcDb2dVertex
 10
40.0
 20
92.98
 30
0.0
  0
SEQEND
  5
212
100
AcDbEntity
  8
PERFIL
  6
CONTINUO
 62
   254
  0
POLYLINE
  5
213
100
AcDbEntity
  8
PERFIL
  6
CONTINUO
 62
   254
100
AcDb2dPolyline
 66
     1
 10
0.0
 20
0.0
 30
0.0
  0
VERTEX
  5
214
100
AcDbEntity
  8
PERFIL
  6
CONTINUO
 62
   254
100
AcDbVertex
100
AcDb2dVertex
 10
80.0
 20
110.78
 30
4.89
  0
VERTEX
  5
215
100
AcDbEntity
  8
PERFIL
  6
CONTINUO
 62
   254
100
AcDbVertex
100
AcDb2dVertex
 10
80.0
 20
92.98
 30
0.0
  0
SEQEND
  5
216
100
AcDbEntity
  8
PERFIL
  6
CONTINUO
 62
   254
  0
POLYLINE
  5
217
100
AcDbEntity
  8
PERFIL
  6
CONTINUO
 62
   254
100
AcDb2dPolyline
 66
     1
 10
0.0
 20
0.0
 30
0.0
  0
VERTEX
  5
218
100
AcDbEntity
  8
PERFIL
  6
CONTINUO
 62
   254
100
AcDbVertex
100
AcDb2dVertex
 10
120.0
 20
108.62
 30
4.782
  0
VERTEX
  5
219
100
AcDbEntity
  8
PERFIL
  6
CONTINUO
 62
   254
100
AcDbVertex
100
AcDb2dVertex
 10
120.0
 20
92.98
 30
0.0
  0
SEQEND
  5
21A
100
AcDbEntity
  8
PERFIL
  6
CONTINUO
 62
   254
  0
POLYLINE
  5
21B
100
AcDbEntity
  8
PERFIL
  6
CONTINUO
 62
   254
100
AcDb2dPolyline
 66
     1
 10
0.0
 20
0.0
 30
0.0
  0
VERTEX
  5
21C
100
AcDbEntity
  8
PERFIL
  6
CONTINUO
 62
   254
100
AcDbVertex
100
AcDb2dVertex
 10
160.0
 20
107.48
 30
4.725
  0
VERTEX
  5
21D
100
AcDbEntity
  8
PERFIL
  6
CONTINUO
 62
   254
100
AcDbVertex
100
AcDb2dVertex
 10
160.0
 20
92.98
 30
0.0
  0
SEQEND
  5
21E
100
AcDbEntity
  8
PERFIL
  6
CONTINUO
 62
   254
  0
POLYLINE
  5
21F
100
AcDbEntity
  8
PERFIL
  6
CONTINUO
 62
   254
100
AcDb2dPolyline
 66
     1
 10
0.0
 20
0.0
 30
0.0
  0
VERTEX
  5
220
100
AcDbEntity
  8
PERFIL
  6
CONTINUO
 62
   254
100
AcDbVertex
100
AcDb2dVertex
 10
200.0
 20
111.9
 30
4.946
  0
VERTEX
  5
221
100
AcDbEntity
  8
PERFIL
  6
CONTINUO
 62
   254
100
AcDbVertex
100
AcDb2dVertex
 10
200.0
 20
92.98
 30
0.0
  0
SEQEND
  5
222
100
AcDbEntity
  8
PERFIL
  6
CONTINUO
 62
   254
  0
POLYLINE
  5
223
100
AcDbEntity
  8
PERFIL
  6
CONTINUO
 62
   254
100
AcDb2dPolyline
 66
     1
 10
0.0
 20
0.0
 30
0.0
  0
VERTEX
  5
224
100
AcDbEntity
  8
PERFIL
  6
CONTINUO
 62
   254
100
AcDbVertex
100
AcDb2dVertex
 10
240.0
 20
107.68
 30
4.735
  0
VERTEX
  5
225
100
AcDbEntity
  8
PERFIL
  6
CONTINUO
 62
   254
100
AcDbVertex
100
AcDb2dVertex
 10
240.0
 20
92.98
 30
0.0
  0
SEQEND
  5
226
100
AcDbEntity
  8
PERFIL
  6
CONTINUO
 62
   254
  0
POLYLINE
  5
227
100
AcDbEntity
  8
PERFIL
  6
CONTINUO
 62
   254
100
AcDb2dPolyline
 66
     1
 10
0.0
 20
0.0
 30
0.0
  0
VERTEX
  5
228
100
AcDbEntity
  8
PERFIL
  6
CONTINUO
 62
   254
100
AcDbVertex
100
AcDb2dVertex
 10
280.0
 20
106.48
 30
4.675
  0
VERTEX
  5
229
100
AcDbEntity
  8
PERFIL
  6
CONTINUO
 62
   254
100
AcDbVertex
100
AcDb2dVertex
 10
280.0
 20
92.98
 30
0.0
  0
SEQEND
  5
22A
100
AcDbEntity
  8
PERFIL
  6
CONTINUO
 62
   254
  0
POLYLINE
  5
22B
100
AcDbEntity
  8
PERFIL
  6
CONTINUO
 62
   254
100
AcDb2dPolyline
 66
     1
 10
0.0
 20
0.0
 30
0.0
  0
VERTEX
  5
22C
100
AcDbEntity
  8
PERFIL
  6
CONTINUO
 62
   254
100
AcDbVertex
100
AcDb2dVertex
 10
320.0
 20
108.74
 30
4.788
  0
VERTEX
  5
22D
100
AcDbEntity
  8
PERFIL
  6
CONTINUO
 62
   254
100
AcDbVertex
100
AcDb2dVertex
 10
320.0
 20
92.98
 30
0.0
  0
SEQEND
  5
22E
100
AcDbEntity
  8
PERFIL
  6
CONTINUO
 62
   254
  0
POLYLINE
  5
22F
100
AcDbEntity
  8
PERFIL
  6
CONTINUO
 62
   254
100
AcDb2dPolyline
 66
     1
 10
0.0
 20
0.0
 30
0.0
  0
VERTEX
  5
230
100
AcDbEntity
  8
PERFIL
  6
CONTINUO
 62
   254
100
AcDbVertex
100
AcDb2dVertex
 10
360.0
 20
109.44
 30
4.823
  0
VERTEX
  5
231
100
AcDbEntity
  8
PERFIL
  6
CONTINUO
 62
   254
100
AcDbVertex
100
AcDb2dVertex
 10
360.0
 20
92.98
 30
0.0
  0
SEQEND
  5
232
100
AcDbEntity
  8
PERFIL
  6
CONTINUO
 62
   254
  0
POLYLINE
  5
233
100
AcDbEntity
  8
PERFIL
  6
CONTINUO
 62
   254
100
AcDb2dPolyline
 66
     1
 10
0.0
 20
0.0
 30
0.0
  0
VERTEX
  5
234
100
AcDbEntity
  8
PERFIL
  6
CONTINUO
 62
   254
100
AcDbVertex
100
AcDb2dVertex
 10
400.0
 20
105.96
 30
4.649
  0
VERTEX
  5
235
100
AcDbEntity
  8
PERFIL
  6
CONTINUO
 62
   254
100
AcDbVertex
100
AcDb2dVertex
 10
400.0
 20
92.98
 30
0.0
  0
SEQEND
  5
236
100
AcDbEntity
  8
PERFIL
  6
CONTINUO
 62
   254
  0
POLYLINE
  5
237
100
AcDbEntity
  8
PERFIL
  6
CONTINUO
 62
   254
100
AcDb2dPolyline
 66
     1
 10
0.0
 20
0.0
 30
0.0
  0
VERTEX
  5
238
100
AcDbEntity
  8
PERFIL
  6
CONTINUO
 62
   254
100
AcDbVertex
100
AcDb2dVertex
 10
440.0
 20
110.32
 30
4.867
  0
VERTEX
  5
239
100
AcDbEntity
  8
PERFIL
  6
CONTINUO
 62
   254
100
AcDbVertex
100
AcDb2dVertex
 10
440.0
 20
92.98
 30
0.0
  0
SEQEND
  5
23A
100
AcDbEntity
  8
PERFIL
  6
CONTINUO
 62
   254
  0
TEXT
  5
23B
100
AcDbEntity
  8
PERFIL
 62
   254
100
AcDbText
 10
6.0
 20
114.700615
 30
5.036031
 40
1.5
  1
PCV01 - 0+3.500
 50
90.0
 41
0.798519
  7
SIMPLEX
 72
     5
 11
6.0
 21
132.667282
 31
5.036031
100
AcDbText
  0
POLYLINE
  5
23C
100
AcDbEntity
  8
PERFIL
  6
CONTINUO
 62
   254
100
AcDb2dPolyline
 66
     1
 10
0.0
 20
0.0
 30
0.0
  0
VERTEX
  5
23D
100
AcDbEntity
  8
PERFIL
  6
CONTINUO
 62
   254
100
AcDbVertex
100
AcDb2dVertex
 10
7.0
 20
113.700615
 30
5.036031
  0
VERTEX
  5
23E
100
AcDbEntity
  8
PERFIL
  6
CONTINUO
 62
   254
100
AcDbVertex
100
AcDb2dVertex
 10
7.0
 20
132.667282
 30
0.0
  0
SEQEND
  5
23F
100
AcDbEntity
  8
PERFIL
  6
CONTINUO
 62
   254
  0
TEXT
  5
240
100
AcDbEntity
  8
PERFIL
 62
   254
100
AcDbText
 10
18.0
 20
112.584
 30
5.036031
 40
1.5
  1
PTV01 - 0+9.500
 50
90.0
 41
0.784938
  7
SIMPLEX
 72
     5
 11
18.0
 21
130.245111
 31
5.036031
100
AcDbText
  0
POLYLINE
  5
241
100
AcDbEntity
  8
PERFIL
  6
CONTINUO
 62
   254
100
AcDb2dPolyline
 66
     1
 10
0.0
 20
0.0
 30
0.0
  0
VERTEX
  5
242
100
AcDbEntity
  8
PERFIL
  6
CONTINUO
 62
   254
100
AcDbVertex
100
AcDb2dVertex
 10
19.0
 20
111.584
 30
5.036031
  0
VERTEX
  5
243
100
AcDbEntity
  8
PERFIL
  6
CONTINUO
 62
   254
100
AcDbVertex
100
AcDb2dVertex
 10
19.0
 20
130.245111
 30
0.0
  0
SEQEND
  5
244
100
AcDbEntity
  8
PERFIL
  6
CONTINUO
 62
   254
  0
TEXT
  5
245
100
AcDbEntity
  8
PERFIL
 62
   254
100
AcDbText
 10
214.0
 20
106.704
 30
4.6362
 40
1.5
  1
PCV02 - 0+107.500
 50
90.0
 41
0.800436
  7
SIMPLEX
 72
     5
 11
214.0
 21
127.115111
 31
4.6362
100
AcDbText
  0
POLYLINE
  5
246
100
AcDbEntity
  8
PERFIL
  6
CONTINUO
 62
   254
100
AcDb2dPolyline
 66
     1
 10
0.0
 20
0.0
 30
0.0
  0
VERTEX
  5
247
100
AcDbEntity
  8
PERFIL
  6
CONTINUO
 62
   254
100
AcDbVertex
100
AcDb2dVertex
 10
215.0
 20
105.704
 30
4.6362
  0
VERTEX
  5
248
100
AcDbEntity
  8
PERFIL
  6
CONTINUO
 62
   254
100
AcDbVertex
100
AcDb2dVertex
 10
215.0
 20
127.115111
 30
0.0
  0
SEQEND
  5
249
100
AcDbEntity
  8
PERFIL
  6
CONTINUO
 62
   254
  0
TEXT
  5
24A
100
AcDbEntity
  8
PERFIL
 62
   254
100
AcDbText
 10
244.0
 20
114.44966
 30
4.6362
 40
1.5
  1
PTV02 - 0+122.500
 50
90.0
 41
0.788453
  7
SIMPLEX
 72
     5
 11
244.0
 21
134.555216
 31
4.6362
100
AcDbText
  0
POLYLINE
  5
24B
100
AcDbEntity
  8
PERFIL
  6
CONTINUO
 62
   254
100
AcDb2dPolyline
 66
     1
 10
0.0
 20
0.0
 30
0.0
  0
VERTEX
  5
24C
100
AcDbEntity
  8
PERFIL
  6
CONTINUO
 62
   254
100
AcDbVertex
100
AcDb2dVertex
 10
245.0
 20
113.44966
 30
4.6362
  0
VERTEX
  5
24D
100
AcDbEntity
  8
PERFIL
  6
CONTINUO
 62
   254
100
AcDbVertex
100
AcDb2dVertex
 10
245.0
 20
134.555216
 30
0.0
  0
SEQEND
  5
24E
100
AcDbEntity
  8
PERFIL
  6
CONTINUO
 62
   254
  0
TEXT
  5
24F
100
AcDbEntity
  8
PERFIL
 62
   254
100
AcDbText
 10
267.0
 20
127.01634
 30
5.651817
 40
1.5
  1
PCV03 - 0+134.000
 50
90.0
 41
0.800436
  7
SIMPLEX
 72
     5
 11
267.0
 21
147.427451
 31
5.651817
100
AcDbText
  0
POLYLINE
  5
250
100
AcDbEntity
  8
PERFIL
  6
CONTINUO
 62
   254
100
AcDb2dPolyline
 66
     1
 10
0.0
 20
0.0
 30
0.0
  0
VERTEX
  5
251
100
AcDbEntity
  8
PERFIL
  6
CONTINUO
 62
   254
100
AcDbVertex
100
AcDb2dVertex
 10
268.0
 20
126.01634
 30
5.651817
  0
VERTEX
  5
252
100
AcDbEntity
  8
PERFIL
  6
CONTINUO
 62
   254
100
AcDbVertex
100
AcDb2dVertex
 10
268.0
 20
147.427451
 30
0.0
  0
SEQEND
  5
253
100
AcDbEntity
  8
PERFIL
  6
CONTINUO
 62
   254
  0
TEXT
  5
254
100
AcDbEntity
  8
PERFIL
 62
   254
100
AcDbText
 10
297.0
 20
126.452714
 30
5.651817
 40
1.5
  1
PTV03 - 0+149.000
 50
90.0
 41
0.788453
  7
SIMPLEX
 72
     5
 11
297.0
 21
146.55827
 31
5.651817
100
AcDbText
  0
POLYLINE
  5
255
100
AcDbEntity
  8
PERFIL
  6
CONTINUO
 62
   254
100
AcDb2dPolyline
 66
     1
 10
0.0
 20
0.0
 30
0.0
  0
VERTEX
  5
256
100
AcDbEntity
  8
PERFIL
  6
CONTINUO
 62
   254
100
AcDbVertex
100
AcDb2dVertex
 10
298.0
 20
125.452714
 30
5.651817
  0
VERTEX
  5
257
100
AcDbEntity
  8
PERFIL
  6
CONTINUO
 62
   254
100
AcDbVertex
100
AcDb2dVertex
 10
298.0
 20
146.55827
 30
0.0
  0
SEQEND
  5
258
100
AcDbEntity
  8
PERFIL
  6
CONTINUO
 62
   254
  0
TEXT
  5
259
100
AcDbEntity
  8
PERFIL
 62
   254
100
AcDbText
 10
309.0
 20
119.445286
 30
5.273264
 40
1.5
  1
PCV04 - 0+155.000
 50
90.0
 41
0.800436
  7
SIMPLEX
 72
     5
 11
309.0
 21
139.856397
 31
5.273264
100
AcDbText
  0
POLYLINE
  5
25A
100
AcDbEntity
  8
PERFIL
  6
CONTINUO
 62
   254
100
AcDb2dPolyline
 66
     1
 10
0.0
 20
0.0
 30
0.0
  0
VERTEX
  5
25B
100
AcDbEntity
  8
PERFIL
  6
CONTINUO
 62
   254
100
AcDbVertex
100
AcDb2dVertex
 10
310.0
 20
118.445286
 30
5.273264
  0
VERTEX
  5
25C
100
AcDbEntity
  8
PERFIL
  6
CONTINUO
 62
   254
100
AcDbVertex
100
AcDb2dVertex
 10
310.0
 20
139.856397
 30
0.0
  0
SEQEND
  5
25D
100
AcDbEntity
  8
PERFIL
  6
CONTINUO
 62
   254
  0
TEXT
  5
25E
100
AcDbEntity
  8
PERFIL
 62
   254
100
AcDbText
 10
339.0
 20
110.236522
 30
5.273264
 40
1.5
  1
PTV04 - 0+170.000
 50
90.0
 41
0.788453
  7
SIMPLEX
 72
     5
 11
339.0
 21
130.342077
 31
5.273264
100
AcDbText
  0
POLYLINE
  5
25F
100
AcDbEntity
  8
PERFIL
  6
CONTINUO
 62
   254
100
AcDb2dPolyline
 66
     1
 10
0.0
 20
0.0
 30
0.0
  0
VERTEX
  5
260
100
AcDbEntity
  8
PERFIL
  6
CONTINUO
 62
   254
100
AcDbVertex
100
AcDb2dVertex
 10
340.0
 20
109.236522
 30
5.273264
  0
VERTEX
  5
261
100
AcDbEntity
  8
PERFIL
  6
CONTINUO
 62
   254
100
AcDbVertex
100
AcDb2dVertex
 10
340.0
 20
130.342077
 30
0.0
  0
SEQEND
  5
262
100
AcDbEntity
  8
PERFIL
  6
CONTINUO
 62
   254
  0
POLYLINE
  5
2BE
100
AcDbEntity
  8
PERFIL
  6
CONTINUO
 62
   255
100
AcDb2dPolyline
 66
     1
 10
0.0
 20
0.0
 30
0.0
  0
VERTEX
  5
2BF
100
AcDbEntity
  8
PERFIL
  6
CONTINUO
 62
   255
100
AcDbVertex
100
AcDb2dVertex
 10
0.0
 20
92.98
 30
4.0
  0
VERTEX
  5
2C0
100
AcDbEntity
  8
PERFIL
  6
CONTINUO
 62
   255
100
AcDbVertex
100
AcDb2dVertex
 10
0.0
 20
129.860077
 30
5.844004
  0
SEQEND
  5
2C1
100
AcDbEntity
  8
PERFIL
  6
CONTINUO
 62
   255
  0
POLYLINE
  5
2C2
100
AcDbEntity
  8
PERFIL
  6
CONTINUO
 62
   255
100
AcDb2dPolyline
 66
     1
 10
0.0
 20
0.0
 30
0.0
  0
VERTEX
  5
2C3
100
AcDbEntity
  8
PERFIL
  6
CONTINUO
 62
   255
100
AcDbVertex
100
AcDb2dVertex
 10
0.0
 20
92.98
 30
4.0
  0
VERTEX
  5
2C4
100
AcDbEntity
  8
PERFIL
  6
CONTINUO
 62
   255
100
AcDbVertex
100
AcDb2dVertex
 10
440.0
 20
92.98
 30
4.0
  0
SEQEND
  5
2C5
100
AcDbEntity
  8
PERFIL
  6
CONTINUO
 62
   255
  0
TEXT
  5
2C6
100
AcDbEntity
  8
PERFIL
 62
     7
100
AcDbText
 10
-10.0
 20
93.48
 30
0.0
 40
2.5
  1
4
 41
0.488889
  7
SIMPLEX
 72
     5
 11
-8.777778
 21
93.48
 31
0.0
100
AcDbText
  0
POLYLINE
  5
2C7
100
AcDbEntity
  8
PERFIL
  6
CONTINUO
 62
   255
100
AcDb2dPolyline
 66
     1
 10
0.0
 20
0.0
 30
0.0
  0
VERTEX
  5
2C8
100
AcDbEntity
  8
PERFIL
  6
CONTINUO
 62
   255
100
AcDbVertex
100
AcDb2dVertex
 10
-10.0
 20
92.98
 30
4.0
  0
VERTEX
  5
2C9
100
AcDbEntity
  8
PERFIL
  6
CONTINUO
 62
   255
100
AcDbVertex
100
AcDb2dVertex
 10
0.0
 20
92.98
 30
4.0
  0
SEQEND
  5
2CA
100
AcDbEntity
  8
PERFIL
  6
CONTINUO
 62
   255
  0
POLYLINE
  5
2CB
100
AcDbEntity
  8
PERFIL
  6
CONTINUO
 62
     7
100
AcDb2dPolyline
 66
     1
 10
0.0
 20
0.0
 30
0.0
  0
VERTEX
  5
2CC
100
AcDbEntity
  8
PERFIL
  6
CONTINUO
 62
     7
100
AcDbVertex
100
AcDb2dVertex
 10
0.0
 20
92.98
 30
4.0
  0
VERTEX
  5
2CD
100
AcDbEntity
  8
PERFIL
  6
CONTINUO
 62
     7
100
AcDbVertex
100
AcDb2dVertex
 10
440.0
 20
92.98
 30
4.0
  0
SEQEND
  5
2CE
100
AcDbEntity
  8
PERFIL
  6
CONTINUO
 62
     7
  0
POLYLINE
  5
2CF
100
AcDbEntity
  8
PERFIL
  6
CONTINUO
 62
   255
100
AcDb2dPolyline
 66
     1
 10
0.0
 20
0.0
 30
0.0
  0
VERTEX
  5
2D0
100
AcDbEntity
  8
PERFIL
  6
CONTINUO
 62
   255
100
AcDbVertex
100
AcDb2dVertex
 10
-5.0
 20
102.98
 30
4.5
  0
VERTEX
  5
2D1
100
AcDbEntity
  8
PERFIL
  6
CONTINUO
 62
   255
100
AcDbVertex
100
AcDb2dVertex
 10
0.0
 20
102.98
 30
4.5
  0
SEQEND
  5
2D2
100
AcDbEntity
  8
PERFIL
  6
CONTINUO
 62
   255
  0
POLYLINE
  5
2D3
100
AcDbEntity
  8
PERFIL
  6
CONTINUO
 62
     7
100
AcDb2dPolyline
 66
     1
 10
0.0
 20
0.0
 30
0.0
  0
VERTEX
  5
2D4
100
AcDbEntity
  8
PERFIL
  6
CONTINUO
 62
     7
100
AcDbVertex
100
AcDb2dVertex
 10
0.0
 20
102.98
 30
4.5
  0
VERTEX
  5
2D5
100
AcDbEntity
  8
PERFIL
  6
CONTINUO
 62
     7
100
AcDbVertex
100
AcDb2dVertex
 10
440.0
 20
102.98
 30
4.5
  0
SEQEND
  5
2D6
100
AcDbEntity
  8
PERFIL
  6
CONTINUO
 62
     7
  0
TEXT
  5
2D7
100
AcDbEntity
  8
PERFIL
 62
     7
100
AcDbText
 10
-10.0
 20
113.48
 30
0.0
 40
2.5
  1
5
 41
0.488889
  7
SIMPLEX
 72
     5
 11
-8.777778
 21
113.48
 31
0.0
100
AcDbText
  0
POLYLINE
  5
2D8
100
AcDbEntity
  8
PERFIL
  6
CONTINUO
 62
   255
100
AcDb2dPolyline
 66
     1
 10
0.0
 20
0.0
 30
0.0
  0
VERTEX
  5
2D9
100
AcDbEntity
  8
PERFIL
  6
CONTINUO
 62
   255
100
AcDbVertex
100
AcDb2dVertex
 10
-10.0
 20
112.98
 30
5.0
  0
VERTEX
  5
2DA
100
AcDbEntity
  8
PERFIL
  6
CONTINUO
 62
   255
100
AcDbVertex
100
AcDb2dVertex
 10
0.0
 20
112.98
 30
5.0
  0
SEQEND
  5
2DB
100
AcDbEntity
  8
PERFIL
  6
CONTINUO
 62
   255
  0
POLYLINE
  5
2DC
100
AcDbEntity
  8
PERFIL
  6
CONTINUO
 62
     7
100
AcDb2dPolyline
 66
     1
 10
0.0
 20
0.0
 30
0.0
  0
VERTEX
  5
2DD
100
AcDbEntity
  8
PERFIL
  6
CONTINUO
 62
     7
100
AcDbVertex
100
AcDb2dVertex
 10
0.0
 20
112.98
 30
5.0
  0
VERTEX
  5
2DE
100
AcDbEntity
  8
PERFIL
  6
CONTINUO
 62
     7
100
AcDbVertex
100
AcDb2dVertex
 10
440.0
 20
112.98
 30
5.0
  0
SEQEND
  5
2DF
100
AcDbEntity
  8
PERFIL
  6
CONTINUO
 62
     7
  0
POLYLINE
  5
2E0
100
AcDbEntity
  8
PERFIL
  6
CONTINUO
 62
   255
100
AcDb2dPolyline
 66
     1
 10
0.0
 20
0.0
 30
0.0
  0
VERTEX
  5
2E1
100
AcDbEntity
  8
PERFIL
  6
CONTINUO
 62
   255
100
AcDbVertex
100
AcDb2dVertex
 10
-5.0
 20
122.98
 30
5.5
  0
VERTEX
  5
2E2
100
AcDbEntity
  8
PERFIL
  6
CONTINUO
 62
   255
100
AcDbVertex
100
AcDb2dVertex
 10
0.0
 20
122.98
 30
5.5
  0
SEQEND
  5
2E3
100
AcDbEntity
  8
PERFIL
  6
CONTINUO
 62
   255
  0
POLYLINE
  5
2E4
100
AcDbEntity
  8
PERFIL
  6
CONTINUO
 62
     7
100
AcDb2dPolyline
 66
     1
 10
0.0
 20
0.0
 30
0.0
  0
VERTEX
  5
2E5
100
AcDbEntity
  8
PERFIL
  6
CONTINUO
 62
     7
100
AcDbVertex
100
AcDb2dVertex
 10
0.0
 20
122.98
 30
5.5
  0
VERTEX
  5
2E6
100
AcDbEntity
  8
PERFIL
  6
CONTINUO
 62
     7
100
AcDbVertex
100
AcDb2dVertex
 10
440.0
 20
122.98
 30
5.5
  0
SEQEND
  5
2E7
100
AcDbEntity
  8
PERFIL
  6
CONTINUO
 62
     7
  0
POLYLINE
  5
2E8
100
AcDbEntity
  8
PERFIL
  6
CONTINUO
 62
     7
100
AcDb2dPolyline
 66
     1
 10
0.0
 20
0.0
 30
0.0
  0
VERTEX
  5
2E9
100
AcDbEntity
  8
PERFIL
  6
CONTINUO
 62
     7
100
AcDbVertex
100
AcDb2dVertex
 10
20.0
 20
92.98
 30
0.0
  0
VERTEX
  5
2EA
100
AcDbEntity
  8
PERFIL
  6
CONTINUO
 62
     7
100
AcDbVertex
100
AcDb2dVertex
 10
20.0
 20
129.860077
 30
0.0
  0
SEQEND
  5
2EB
100
AcDbEntity
  8
PERFIL
  6
CONTINUO
 62
     7
  0
POLYLINE
  5
2EC
100
AcDbEntity
  8
PERFIL
  6
CONTINUO
 62
     7
100
AcDb2dPolyline
 66
     1
 10
0.0
 20
0.0
 30
0.0
  0
VERTEX
  5
2ED
100
AcDbEntity
  8
PERFIL
  6
CONTINUO
 62
     7
100
AcDbVertex
100
AcDb2dVertex
 10
30.0
 20
92.98
 30
0.0
  0
VERTEX
  5
2EE
100
AcDbEntity
  8
PERFIL
  6
CONTINUO
 62
     7
100
AcDbVertex
100
AcDb2dVertex
 10
30.0
 20
129.860077
 30
0.0
  0
SEQEND
  5
2EF
100
AcDbEntity
  8
PERFIL
  6
CONTINUO
 62
     7
  0
POLYLINE
  5
2F0
100
AcDbEntity
  8
PERFIL
  6
CONTINUO
 62
     7
100
AcDb2dPolyline
 66
     1
 10
0.0
 20
0.0
 30
0.0
  0
VERTEX
  5
2F1
100
AcDbEntity
  8
PERFIL
  6
CONTINUO
 62
     7
100
AcDbVertex
100
AcDb2dVertex
 10
40.0
 20
92.98
 30
0.0
  0
VERTEX
  5
2F2
100
AcDbEntity
  8
PERFIL
  6
CONTINUO
 62
     7
100
AcDbVertex
100
AcDb2dVertex
 10
40.0
 20
129.860077
 30
0.0
  0
SEQEND
  5
2F3
100
AcDbEntity
  8
PERFIL
  6
CONTINUO
 62
     7
  0
POLYLINE
  5
2F4
100
AcDbEntity
  8
PERFIL
  6
CONTINUO
 62
     7
100
AcDb2dPolyline
 66
     1
 10
0.0
 20
0.0
 30
0.0
  0
VERTEX
  5
2F5
100
AcDbEntity
  8
PERFIL
  6
CONTINUO
 62
     7
100
AcDbVertex
100
AcDb2dVertex
 10
50.0
 20
92.98
 30
0.0
  0
VERTEX
  5
2F6
100
AcDbEntity
  8
PERFIL
  6
CONTINUO
 62
     7
100
AcDbVertex
100
AcDb2dVertex
 10
50.0
 20
129.860077
 30
0.0
  0
SEQEND
  5
2F7
100
AcDbEntity
  8
PERFIL
  6
CONTINUO
 62
     7
  0
POLYLINE
  5
2F8
100
AcDbEntity
  8
PERFIL
  6
CONTINUO
 62
     7
100
AcDb2dPolyline
 66
     1
 10
0.0
 20
0.0
 30
0.0
  0
VERTEX
  5
2F9
100
AcDbEntity
  8
PERFIL
  6
CONTINUO
 62
     7
100
AcDbVertex
100
AcDb2dVertex
 10
60.0
 20
92.98
 30
0.0
  0
VERTEX
  5
2FA
100
AcDbEntity
  8
PERFIL
  6
CONTINUO
 62
     7
100
AcDbVertex
100
AcDb2dVertex
 10
60.0
 20
129.860077
 30
0.0
  0
SEQEND
  5
2FB
100
AcDbEntity
  8
PERFIL
  6
CONTINUO
 62
     7
  0
POLYLINE
  5
2FC
100
AcDbEntity
  8
PERFIL
  6
CONTINUO
 62
     7
100
AcDb2dPolyline
 66
     1
 10
0.0
 20
0.0
 30
0.0
  0
VERTEX
  5
2FD
100
AcDbEntity
  8
PERFIL
  6
CONTINUO
 62
     7
100
AcDbVertex
100
AcDb2dVertex
 10
70.0
 20
92.98
 30
0.0
  0
VERTEX
  5
2FE
100
AcDbEntity
  8
PERFIL
  6
CONTINUO
 62
     7
100
AcDbVertex
100
AcDb2dVertex
 10
70.0
 20
129.860077
 30
0.0
  0
SEQEND
  5
2FF
100
AcDbEntity
  8
PERFIL
  6
CONTINUO
 62
     7
  0
POLYLINE
  5
300
100
AcDbEntity
  8
PERFIL
  6
CONTINUO
 62
     7
100
AcDb2dPolyline
 66
     1
 10
0.0
 20
0.0
 30
0.0
  0
VERTEX
  5
301
100
AcDbEntity
  8
PERFIL
  6
CONTINUO
 62
     7
100
AcDbVertex
100
AcDb2dVertex
 10
80.0
 20
92.98
 30
0.0
  0
VERTEX
  5
302
100
AcDbEntity
  8
PERFIL
  6
CONTINUO
 62
     7
100
AcDbVertex
100
AcDb2dVertex
 10
80.0
 20
129.860077
 30
0.0
  0
SEQEND
  5
303
100
AcDbEntity
  8
PERFIL
  6
CONTINUO
 62
     7
  0
POLYLINE
  5
304
100
AcDbEntity
  8
PERFIL
  6
CONTINUO
 62
     7
100
AcDb2dPolyline
 66
     1
 10
0.0
 20
0.0
 30
0.0
  0
VERTEX
  5
305
100
AcDbEntity
  8
PERFIL
  6
CONTINUO
 62
     7
100
AcDbVertex
100
AcDb2dVertex
 10
90.0
 20
92.98
 30
0.0
  0
VERTEX
  5
306
100
AcDbEntity
  8
PERFIL
  6
CONTINUO
 62
     7
100
AcDbVertex
100
AcDb2dVertex
 10
90.0
 20
129.860077
 30
0.0
  0
SEQEND
  5
307
100
AcDbEntity
  8
PERFIL
  6
CONTINUO
 62
     7
  0
POLYLINE
  5
308
100
AcDbEntity
  8
PERFIL
  6
CONTINUO
 62
     7
100
AcDb2dPolyline
 66
     1
 10
0.0
 20
0.0
 30
0.0
  0
VERTEX
  5
309
100
AcDbEntity
  8
PERFIL
  6
CONTINUO
 62
     7
100
AcDbVertex
100
AcDb2dVertex
 10
100.0
 20
92.98
 30
0.0
  0
VERTEX
  5
30A
100
AcDbEntity
  8
PERFIL
  6
CONTINUO
 62
     7
100
AcDbVertex
100
AcDb2dVertex
 10
100.0
 20
129.860077
 30
0.0
  0
SEQEND
  5
30B
100
AcDbEntity
  8
PERFIL
  6
CONTINUO
 62
     7
  0
POLYLINE
  5
30C
100
AcDbEntity
  8
PERFIL
  6
CONTINUO
 62
     7
100
AcDb2dPolyline
 66
     1
 10
0.0
 20
0.0
 30
0.0
  0
VERTEX
  5
30D
100
AcDbEntity
  8
PERFIL
  6
CONTINUO
 62
     7
100
AcDbVertex
100
AcDb2dVertex
 10
110.0
 20
92.98
 30
0.0
  0
VERTEX
  5
30E
100
AcDbEntity
  8
PERFIL
  6
CONTINUO
 62
     7
100
AcDbVertex
100
AcDb2dVertex
 10
110.0
 20
129.860077
 30
0.0
  0
SEQEND
  5
30F
100
AcDbEntity
  8
PERFIL
  6
CONTINUO
 62
     7
  0
POLYLINE
  5
310
100
AcDbEntity
  8
PERFIL
  6
CONTINUO
 62
     7
100
AcDb2dPolyline
 66
     1
 10
0.0
 20
0.0
 30
0.0
  0
VERTEX
  5
311
100
AcDbEntity
  8
PERFIL
  6
CONTINUO
 62
     7
100
AcDbVertex
100
AcDb2dVertex
 10
120.0
 20
92.98
 30
0.0
  0
VERTEX
  5
312
100
AcDbEntity
  8
PERFIL
  6
CONTINUO
 62
     7
100
AcDbVertex
100
AcDb2dVertex
 10
120.0
 20
129.860077
 30
0.0
  0
SEQEND
  5
313
100
AcDbEntity
  8
PERFIL
  6
CONTINUO
 62
     7
  0
POLYLINE
  5
314
100
AcDbEntity
  8
PERFIL
  6
CONTINUO
 62
     7
100
AcDb2dPolyline
 66
     1
 10
0.0
 20
0.0
 30
0.0
  0
VERTEX
  5
315
100
AcDbEntity
  8
PERFIL
  6
CONTINUO
 62
     7
100
AcDbVertex
100
AcDb2dVertex
 10
130.0
 20
92.98
 30
0.0
  0
VERTEX
  5
316
100
AcDbEntity
  8
PERFIL
  6
CONTINUO
 62
     7
100
AcDbVertex
100
AcDb2dVertex
 10
130.0
 20
129.860077
 30
0.0
  0
SEQEND
  5
317
100
AcDbEntity
  8
PERFIL
  6
CONTINUO
 62
     7
  0
POLYLINE
  5
318
100
AcDbEntity
  8
PERFIL
  6
CONTINUO
 62
     7
100
AcDb2dPolyline
 66
     1
 10
0.0
 20
0.0
 30
0.0
  0
VERTEX
  5
319
100
AcDbEntity
  8
PERFIL
  6
CONTINUO
 62
     7
100
AcDbVertex
100
AcDb2dVertex
 10
140.0
 20
92.98
 30
0.0
  0
VERTEX
  5
31A
100
AcDbEntity
  8
PERFIL
  6
CONTINUO
 62
     7
100
AcDbVertex
100
AcDb2dVertex
 10
140.0
 20
129.860077
 30
0.0
  0
SEQEND
  5
31B
100
AcDbEntity
  8
PERFIL
  6
CONTINUO
 62
     7
  0
POLYLINE
  5
31C
100
AcDbEntity
  8
PERFIL
  6
CONTINUO
 62
     7
100
AcDb2dPolyline
 66
     1
 10
0.0
 20
0.0
 30
0.0
  0
VERTEX
  5
31D
100
AcDbEntity
  8
PERFIL
  6
CONTINUO
 62
     7
100
AcDbVertex
100
AcDb2dVertex
 10
150.0
 20
92.98
 30
0.0
  0
VERTEX
  5
31E
100
AcDbEntity
  8
PERFIL
  6
CONTINUO
 62
     7
100
AcDbVertex
100
AcDb2dVertex
 10
150.0
 20
129.860077
 30
0.0
  0
SEQEND
  5
31F
100
AcDbEntity
  8
PERFIL
  6
CONTINUO
 62
     7
  0
POLYLINE
  5
320
100
AcDbEntity
  8
PERFIL
  6
CONTINUO
 62
     7
100
AcDb2dPolyline
 66
     1
 10
0.0
 20
0.0
 30
0.0
  0
VERTEX
  5
321
100
AcDbEntity
  8
PERFIL
  6
CONTINUO
 62
     7
100
AcDbVertex
100
AcDb2dVertex
 10
160.0
 20
92.98
 30
0.0
  0
VERTEX
  5
322
100
AcDbEntity
  8
PERFIL
  6
CONTINUO
 62
     7
100
AcDbVertex
100
AcDb2dVertex
 10
160.0
 20
129.860077
 30
0.0
  0
SEQEND
  5
323
100
AcDbEntity
  8
PERFIL
  6
CONTINUO
 62
     7
  0
POLYLINE
  5
324
100
AcDbEntity
  8
PERFIL
  6
CONTINUO
 62
     7
100
AcDb2dPolyline
 66
     1
 10
0.0
 20
0.0
 30
0.0
  0
VERTEX
  5
325
100
AcDbEntity
  8
PERFIL
  6
CONTINUO
 62
     7
100
AcDbVertex
100
AcDb2dVertex
 10
170.0
 20
92.98
 30
0.0
  0
VERTEX
  5
326
100
AcDbEntity
  8
PERFIL
  6
CONTINUO
 62
     7
100
AcDbVertex
100
AcDb2dVertex
 10
170.0
 20
129.860077
 30
0.0
  0
SEQEND
  5
327
100
AcDbEntity
  8
PERFIL
  6
CONTINUO
 62
     7
  0
POLYLINE
  5
328
100
AcDbEntity
  8
PERFIL
  6
CONTINUO
 62
     7
100
AcDb2dPolyline
 66
     1
 10
0.0
 20
0.0
 30
0.0
  0
VERTEX
  5
329
100
AcDbEntity
  8
PERFIL
  6
CONTINUO
 62
     7
100
AcDbVertex
100
AcDb2dVertex
 10
180.0
 20
92.98
 30
0.0
  0
VERTEX
  5
32A
100
AcDbEntity
  8
PERFIL
  6
CONTINUO
 62
     7
100
AcDbVertex
100
AcDb2dVertex
 10
180.0
 20
129.860077
 30
0.0
  0
SEQEND
  5
32B
100
AcDbEntity
  8
PERFIL
  6
CONTINUO
 62
     7
  0
POLYLINE
  5
32C
100
AcDbEntity
  8
PERFIL
  6
CONTINUO
 62
     7
100
AcDb2dPolyline
 66
     1
 10
0.0
 20
0.0
 30
0.0
  0
VERTEX
  5
32D
100
AcDbEntity
  8
PERFIL
  6
CONTINUO
 62
     7
100
AcDbVertex
100
AcDb2dVertex
 10
190.0
 20
92.98
 30
0.0
  0
VERTEX
  5
32E
100
AcDbEntity
  8
PERFIL
  6
CONTINUO
 62
     7
100
AcDbVertex
100
AcDb2dVertex
 10
190.0
 20
129.860077
 30
0.0
  0
SEQEND
  5
32F
100
AcDbEntity
  8
PERFIL
  6
CONTINUO
 62
     7
  0
POLYLINE
  5
330
100
AcDbEntity
  8
PERFIL
  6
CONTINUO
 62
     7
100
AcDb2dPolyline
 66
     1
 10
0.0
 20
0.0
 30
0.0
  0
VERTEX
  5
331
100
AcDbEntity
  8
PERFIL
  6
CONTINUO
 62
     7
100
AcDbVertex
100
AcDb2dVertex
 10
200.0
 20
92.98
 30
0.0
  0
VERTEX
  5
332
100
AcDbEntity
  8
PERFIL
  6
CONTINUO
 62
     7
100
AcDbVertex
100
AcDb2dVertex
 10
200.0
 20
129.860077
 30
0.0
  0
SEQEND
  5
333
100
AcDbEntity
  8
PERFIL
  6
CONTINUO
 62
     7
  0
POLYLINE
  5
334
100
AcDbEntity
  8
PERFIL
  6
CONTINUO
 62
     7
100
AcDb2dPolyline
 66
     1
 10
0.0
 20
0.0
 30
0.0
  0
VERTEX
  5
335
100
AcDbEntity
  8
PERFIL
  6
CONTINUO
 62
     7
100
AcDbVertex
100
AcDb2dVertex
 10
210.0
 20
92.98
 30
0.0
  0
VERTEX
  5
336
100
AcDbEntity
  8
PERFIL
  6
CONTINUO
 62
     7
100
AcDbVertex
100
AcDb2dVertex
 10
210.0
 20
129.860077
 30
0.0
  0
SEQEND
  5
337
100
AcDbEntity
  8
PERFIL
  6
CONTINUO
 62
     7
  0
POLYLINE
  5
338
100
AcDbEntity
  8
PERFIL
  6
CONTINUO
 62
     7
100
AcDb2dPolyline
 66
     1
 10
0.0
 20
0.0
 30
0.0
  0
VERTEX
  5
339
100
AcDbEntity
  8
PERFIL
  6
CONTINUO
 62
     7
100
AcDbVertex
100
AcDb2dVertex
 10
220.0
 20
92.98
 30
0.0
  0
VERTEX
  5
33A
100
AcDbEntity
  8
PERFIL
  6
CONTINUO
 62
     7
100
AcDbVertex
100
AcDb2dVertex
 10
220.0
 20
129.860077
 30
0.0
  0
SEQEND
  5
33B
100
AcDbEntity
  8
PERFIL
  6
CONTINUO
 62
     7
  0
POLYLINE
  5
33C
100
AcDbEntity
  8
PERFIL
  6
CONTINUO
 62
     7
100
AcDb2dPolyline
 66
     1
 10
0.0
 20
0.0
 30
0.0
  0
VERTEX
  5
33D
100
AcDbEntity
  8
PERFIL
  6
CONTINUO
 62
     7
100
AcDbVertex
100
AcDb2dVertex
 10
230.0
 20
92.98
 30
0.0
  0
VERTEX
  5
33E
100
AcDbEntity
  8
PERFIL
  6
CONTINUO
 62
     7
100
AcDbVertex
100
AcDb2dVertex
 10
230.0
 20
129.860077
 30
0.0
  0
SEQEND
  5
33F
100
AcDbEntity
  8
PERFIL
  6
CONTINUO
 62
     7
  0
POLYLINE
  5
340
100
AcDbEntity
  8
PERFIL
  6
CONTINUO
 62
     7
100
AcDb2dPolyline
 66
     1
 10
0.0
 20
0.0
 30
0.0
  0
VERTEX
  5
341
100
AcDbEntity
  8
PERFIL
  6
CONTINUO
 62
     7
100
AcDbVertex
100
AcDb2dVertex
 10
240.0
 20
92.98
 30
0.0
  0
VERTEX
  5
342
100
AcDbEntity
  8
PERFIL
  6
CONTINUO
 62
     7
100
AcDbVertex
100
AcDb2dVertex
 10
240.0
 20
129.860077
 30
0.0
  0
SEQEND
  5
343
100
AcDbEntity
  8
PERFIL
  6
CONTINUO
 62
     7
  0
POLYLINE
  5
344
100
AcDbEntity
  8
PERFIL
  6
CONTINUO
 62
     7
100
AcDb2dPolyline
 66
     1
 10
0.0
 20
0.0
 30
0.0
  0
VERTEX
  5
345
100
AcDbEntity
  8
PERFIL
  6
CONTINUO
 62
     7
100
AcDbVertex
100
AcDb2dVertex
 10
250.0
 20
92.98
 30
0.0
  0
VERTEX
  5
346
100
AcDbEntity
  8
PERFIL
  6
CONTINUO
 62
     7
100
AcDbVertex
100
AcDb2dVertex
 10
250.0
 20
129.860077
 30
0.0
  0
SEQEND
  5
347
100
AcDbEntity
  8
PERFIL
  6
CONTINUO
 62
     7
  0
POLYLINE
  5
348
100
AcDbEntity
  8
PERFIL
  6
CONTINUO
 62
     7
100
AcDb2dPolyline
 66
     1
 10
0.0
 20
0.0
 30
0.0
  0
VERTEX
  5
349
100
AcDbEntity
  8
PERFIL
  6
CONTINUO
 62
     7
100
AcDbVertex
100
AcDb2dVertex
 10
260.0
 20
92.98
 30
0.0
  0
VERTEX
  5
34A
100
AcDbEntity
  8
PERFIL
  6
CONTINUO
 62
     7
100
AcDbVertex
100
AcDb2dVertex
 10
260.0
 20
129.860077
 30
0.0
  0
SEQEND
  5
34B
100
AcDbEntity
  8
PERFIL
  6
CONTINUO
 62
     7
  0
POLYLINE
  5
34C
100
AcDbEntity
  8
PERFIL
  6
CONTINUO
 62
     7
100
AcDb2dPolyline
 66
     1
 10
0.0
 20
0.0
 30
0.0
  0
VERTEX
  5
34D
100
AcDbEntity
  8
PERFIL
  6
CONTINUO
 62
     7
100
AcDbVertex
100
AcDb2dVertex
 10
270.0
 20
92.98
 30
0.0
  0
VERTEX
  5
34E
100
AcDbEntity
  8
PERFIL
  6
CONTINUO
 62
     7
100
AcDbVertex
100
AcDb2dVertex
 10
270.0
 20
129.860077
 30
0.0
  0
SEQEND
  5
34F
100
AcDbEntity
  8
PERFIL
  6
CONTINUO
 62
     7
  0
POLYLINE
  5
350
100
AcDbEntity
  8
PERFIL
  6
CONTINUO
 62
     7
100
AcDb2dPolyline
 66
     1
 10
0.0
 20
0.0
 30
0.0
  0
VERTEX
  5
351
100
AcDbEntity
  8
PERFIL
  6
CONTINUO
 62
     7
100
AcDbVertex
100
AcDb2dVertex
 10
280.0
 20
92.98
 30
0.0
  0
VERTEX
  5
352
100
AcDbEntity
  8
PERFIL
  6
CONTINUO
 62
     7
100
AcDbVertex
100
AcDb2dVertex
 10
280.0
 20
129.860077
 30
0.0
  0
SEQEND
  5
353
100
AcDbEntity
  8
PERFIL
  6
CONTINUO
 62
     7
  0
POLYLINE
  5
354
100
AcDbEntity
  8
PERFIL
  6
CONTINUO
 62
     7
100
AcDb2dPolyline
 66
     1
 10
0.0
 20
0.0
 30
0.0
  0
VERTEX
  5
355
100
AcDbEntity
  8
PERFIL
  6
CONTINUO
 62
     7
100
AcDbVertex
100
AcDb2dVertex
 10
290.0
 20
92.98
 30
0.0
  0
VERTEX
  5
356
100
AcDbEntity
  8
PERFIL
  6
CONTINUO
 62
     7
100
AcDbVertex
100
AcDb2dVertex
 10
290.0
 20
129.860077
 30
0.0
  0
SEQEND
  5
357
100
AcDbEntity
  8
PERFIL
  6
CONTINUO
 62
     7
  0
POLYLINE
  5
358
100
AcDbEntity
  8
PERFIL
  6
CONTINUO
 62
     7
100
AcDb2dPolyline
 66
     1
 10
0.0
 20
0.0
 30
0.0
  0
VERTEX
  5
359
100
AcDbEntity
  8
PERFIL
  6
CONTINUO
 62
     7
100
AcDbVertex
100
AcDb2dVertex
 10
300.0
 20
92.98
 30
0.0
  0
VERTEX
  5
35A
100
AcDbEntity
  8
PERFIL
  6
CONTINUO
 62
     7
100
AcDbVertex
100
AcDb2dVertex
 10
300.0
 20
129.860077
 30
0.0
  0
SEQEND
  5
35B
100
AcDbEntity
  8
PERFIL
  6
CONTINUO
 62
     7
  0
POLYLINE
  5
35C
100
AcDbEntity
  8
PERFIL
  6
CONTINUO
 62
     7
100
AcDb2dPolyline
 66
     1
 10
0.0
 20
0.0
 30
0.0
  0
VERTEX
  5
35D
100
AcDbEntity
  8
PERFIL
  6
CONTINUO
 62
     7
100
AcDbVertex
100
AcDb2dVertex
 10
310.0
 20
92.98
 30
0.0
  0
VERTEX
  5
35E
100
AcDbEntity
  8
PERFIL
  6
CONTINUO
 62
     7
100
AcDbVertex
100
AcDb2dVertex
 10
310.0
 20
129.860077
 30
0.0
  0
SEQEND
  5
35F
100
AcDbEntity
  8
PERFIL
  6
CONTINUO
 62
     7
  0
POLYLINE
  5
360
100
AcDbEntity
  8
PERFIL
  6
CONTINUO
 62
     7
100
AcDb2dPolyline
 66
     1
 10
0.0
 20
0.0
 30
0.0
  0
VERTEX
  5
361
100
AcDbEntity
  8
PERFIL
  6
CONTINUO
 62
     7
100
AcDbVertex
100
AcDb2dVertex
 10
320.0
 20
92.98
 30
0.0
  0
VERTEX
  5
362
100
AcDbEntity
  8
PERFIL
  6
CONTINUO
 62
     7
100
AcDbVertex
100
AcDb2dVertex
 10
320.0
 20
129.860077
 30
0.0
  0
SEQEND
  5
363
100
AcDbEntity
  8
PERFIL
  6
CONTINUO
 62
     7
  0
POLYLINE
  5
364
100
AcDbEntity
  8
PERFIL
  6
CONTINUO
 62
     7
100
AcDb2dPolyline
 66
     1
 10
0.0
 20
0.0
 30
0.0
  0
VERTEX
  5
365
100
AcDbEntity
  8
PERFIL
  6
CONTINUO
 62
     7
100
AcDbVertex
100
AcDb2dVertex
 10
330.0
 20
92.98
 30
0.0
  0
VERTEX
  5
366
100
AcDbEntity
  8
PERFIL
  6
CONTINUO
 62
     7
100
AcDbVertex
100
AcDb2dVertex
 10
330.0
 20
129.860077
 30
0.0
  0
SEQEND
  5
367
100
AcDbEntity
  8
PERFIL
  6
CONTINUO
 62
     7
  0
POLYLINE
  5
368
100
AcDbEntity
  8
PERFIL
  6
CONTINUO
 62
     7
100
AcDb2dPolyline
 66
     1
 10
0.0
 20
0.0
 30
0.0
  0
VERTEX
  5
369
100
AcDbEntity
  8
PERFIL
  6
CONTINUO
 62
     7
100
AcDbVertex
100
AcDb2dVertex
 10
340.0
 20
92.98
 30
0.0
  0
VERTEX
  5
36A
100
AcDbEntity
  8
PERFIL
  6
CONTINUO
 62
     7
100
AcDbVertex
100
AcDb2dVertex
 10
340.0
 20
129.860077
 30
0.0
  0
SEQEND
  5
36B
100
AcDbEntity
  8
PERFIL
  6
CONTINUO
 62
     7
  0
POLYLINE
  5
36C
100
AcDbEntity
  8
PERFIL
  6
CONTINUO
 62
     7
100
AcDb2dPolyline
 66
     1
 10
0.0
 20
0.0
 30
0.0
  0
VERTEX
  5
36D
100
AcDbEntity
  8
PERFIL
  6
CONTINUO
 62
     7
100
AcDbVertex
100
AcDb2dVertex
 10
350.0
 20
92.98
 30
0.0
  0
VERTEX
  5
36E
100
AcDbEntity
  8
PERFIL
  6
CONTINUO
 62
     7
100
AcDbVertex
100
AcDb2dVertex
 10
350.0
 20
129.860077
 30
0.0
  0
SEQEND
  5
36F
100
AcDbEntity
  8
PERFIL
  6
CONTINUO
 62
     7
  0
POLYLINE
  5
370
100
AcDbEntity
  8
PERFIL
  6
CONTINUO
 62
     7
100
AcDb2dPolyline
 66
     1
 10
0.0
 20
0.0
 30
0.0
  0
VERTEX
  5
371
100
AcDbEntity
  8
PERFIL
  6
CONTINUO
 62
     7
100
AcDbVertex
100
AcDb2dVertex
 10
360.0
 20
92.98
 30
0.0
  0
VERTEX
  5
372
100
AcDbEntity
  8
PERFIL
  6
CONTINUO
 62
     7
100
AcDbVertex
100
AcDb2dVertex
 10
360.0
 20
129.860077
 30
0.0
  0
SEQEND
  5
373
100
AcDbEntity
  8
PERFIL
  6
CONTINUO
 62
     7
  0
POLYLINE
  5
374
100
AcDbEntity
  8
PERFIL
  6
CONTINUO
 62
     7
100
AcDb2dPolyline
 66
     1
 10
0.0
 20
0.0
 30
0.0
  0
VERTEX
  5
375
100
AcDbEntity
  8
PERFIL
  6
CONTINUO
 62
     7
100
AcDbVertex
100
AcDb2dVertex
 10
370.0
 20
92.98
 30
0.0
  0
VERTEX
  5
376
100
AcDbEntity
  8
PERFIL
  6
CONTINUO
 62
     7
100
AcDbVertex
100
AcDb2dVertex
 10
370.0
 20
129.860077
 30
0.0
  0
SEQEND
  5
377
100
AcDbEntity
  8
PERFIL
  6
CONTINUO
 62
     7
  0
POLYLINE
  5
378
100
AcDbEntity
  8
PERFIL
  6
CONTINUO
 62
     7
100
AcDb2dPolyline
 66
     1
 10
0.0
 20
0.0
 30
0.0
  0
VERTEX
  5
379
100
AcDbEntity
  8
PERFIL
  6
CONTINUO
 62
     7
100
AcDbVertex
100
AcDb2dVertex
 10
380.0
 20
92.98
 30
0.0
  0
VERTEX
  5
37A
100
AcDbEntity
  8
PERFIL
  6
CONTINUO
 62
     7
100
AcDbVertex
100
AcDb2dVertex
 10
380.0
 20
129.860077
 30
0.0
  0
SEQEND
  5
37B
100
AcDbEntity
  8
PERFIL
  6
CONTINUO
 62
     7
  0
POLYLINE
  5
37C
100
AcDbEntity
  8
PERFIL
  6
CONTINUO
 62
     7
100
AcDb2dPolyline
 66
     1
 10
0.0
 20
0.0
 30
0.0
  0
VERTEX
  5
37D
100
AcDbEntity
  8
PERFIL
  6
CONTINUO
 62
     7
100
AcDbVertex
100
AcDb2dVertex
 10
390.0
 20
92.98
 30
0.0
  0
VERTEX
  5
37E
100
AcDbEntity
  8
PERFIL
  6
CONTINUO
 62
     7
100
AcDbVertex
100
AcDb2dVertex
 10
390.0
 20
129.860077
 30
0.0
  0
SEQEND
  5
37F
100
AcDbEntity
  8
PERFIL
  6
CONTINUO
 62
     7
  0
POLYLINE
  5
380
100
AcDbEntity
  8
PERFIL
  6
CONTINUO
 62
     7
100
AcDb2dPolyline
 66
     1
 10
0.0
 20
0.0
 30
0.0
  0
VERTEX
  5
381
100
AcDbEntity
  8
PERFIL
  6
CONTINUO
 62
     7
100
AcDbVertex
100
AcDb2dVertex
 10
400.0
 20
92.98
 30
0.0
  0
VERTEX
  5
382
100
AcDbEntity
  8
PERFIL
  6
CONTINUO
 62
     7
100
AcDbVertex
100
AcDb2dVertex
 10
400.0
 20
129.860077
 30
0.0
  0
SEQEND
  5
383
100
AcDbEntity
  8
PERFIL
  6
CONTINUO
 62
     7
  0
POLYLINE
  5
384
100
AcDbEntity
  8
PERFIL
  6
CONTINUO
 62
     7
100
AcDb2dPolyline
 66
     1
 10
0.0
 20
0.0
 30
0.0
  0
VERTEX
  5
385
100
AcDbEntity
  8
PERFIL
  6
CONTINUO
 62
     7
100
AcDbVertex
100
AcDb2dVertex
 10
410.0
 20
92.98
 30
0.0
  0
VERTEX
  5
386
100
AcDbEntity
  8
PERFIL
  6
CONTINUO
 62
     7
100
AcDbVertex
100
AcDb2dVertex
 10
410.0
 20
129.860077
 30
0.0
  0
SEQEND
  5
387
100
AcDbEntity
  8
PERFIL
  6
CONTINUO
 62
     7
  0
POLYLINE
  5
388
100
AcDbEntity
  8
PERFIL
  6
CONTINUO
 62
     7
100
AcDb2dPolyline
 66
     1
 10
0.0
 20
0.0
 30
0.0
  0
VERTEX
  5
389
100
AcDbEntity
  8
PERFIL
  6
CONTINUO
 62
     7
100
AcDbVertex
100
AcDb2dVertex
 10
420.0
 20
92.98
 30
0.0
  0
VERTEX
  5
38A
100
AcDbEntity
  8
PERFIL
  6
CONTINUO
 62
     7
100
AcDbVertex
100
AcDb2dVertex
 10
420.0
 20
129.860077
 30
0.0
  0
SEQEND
  5
38B
100
AcDbEntity
  8
PERFIL
  6
CONTINUO
 62
     7
  0
POLYLINE
  5
38C
100
AcDbEntity
  8
PERFIL
  6
CONTINUO
 62
     7
100
AcDb2dPolyline
 66
     1
 10
0.0
 20
0.0
 30
0.0
  0
VERTEX
  5
38D
100
AcDbEntity
  8
PERFIL
  6
CONTINUO
 62
     7
100
AcDbVertex
100
AcDb2dVertex
 10
430.0
 20
92.98
 30
0.0
  0
VERTEX
  5
38E
100
AcDbEntity
  8
PERFIL
  6
CONTINUO
 62
     7
100
AcDbVertex
100
AcDb2dVertex
 10
430.0
 20
129.860077
 30
0.0
  0
SEQEND
  5
38F
100
AcDbEntity
  8
PERFIL
  6
CONTINUO
 62
     7
  0
POLYLINE
  5
390
100
AcDbEntity
  8
PERFIL
  6
CONTINUO
 62
     7
100
AcDb2dPolyline
 66
     1
 10
0.0
 20
0.0
 30
0.0
  0
VERTEX
  5
391
100
AcDbEntity
  8
PERFIL
  6
CONTINUO
 62
     7
100
AcDbVertex
100
AcDb2dVertex
 10
440.0
 20
92.98
 30
0.0
  0
VERTEX
  5
392
100
AcDbEntity
  8
PERFIL
  6
CONTINUO
 62
     7
100
AcDbVertex
100
AcDb2dVertex
 10
440.0
 20
129.860077
 30
0.0
  0
SEQEND
  5
393
100
AcDbEntity
  8
PERFIL
  6
CONTINUO
 62
     7
  0
ENDBLK
  5
394
100
AcDbEntity
  8
0
100
AcDbBlockEnd
  0
BLOCK
  5
264
100
AcDbEntity
  8
0
100
AcDbBlockBegin
  2
1E35480
 70
     0
 10
0.0
 20
0.0
 30
0.0
  3
1E35480
  1

  0
POLYLINE
  5
265
100
AcDbEntity
  8
PERFIL
  6
CONTINUO
 62
     4
100
AcDb2dPolyline
 66
     1
 10
0.0
 20
0.0
 30
0.0
  0
VERTEX
  5
266
100
AcDbEntity
  8
PERFIL
  6
CONTINUO
 62
     4
100
AcDbVertex
100
AcDb2dVertex
 10
0.0
 20
115.96
 30
5.149
  0
VERTEX
  5
267
100
AcDbEntity
  8
PERFIL
  6
CONTINUO
 62
     4
100
AcDbVertex
100
AcDb2dVertex
 10
7.0
 20
113.700615
 30
5.036031
  0
SEQEND
  5
268
100
AcDbEntity
  8
PERFIL
  6
CONTINUO
 62
     4
  0
POLYLINE
  5
26A
100
AcDbEntity
  8
PERFIL
  6
CONTINUO
 62
     4
100
AcDb2dPolyline
 66
     1
 10
0.0
 20
0.0
 30
0.0
  0
VERTEX
  5
26B
100
AcDbEntity
  8
PERFIL
  6
CONTINUO
 62
     4
100
AcDbVertex
100
AcDb2dVertex
 10
7.0
 20
113.700615
 30
0.0
  0
VERTEX
  5
26C
100
AcDbEntity
  8
PERFIL
  6
CONTINUO
 62
     4
100
AcDbVertex
100
AcDb2dVertex
 10
9.0
 20
113.103872
 30
0.0
  0
VERTEX
  5
26D
100
AcDbEntity
  8
PERFIL
  6
CONTINUO
 62
     4
100
AcDbVertex
100
AcDb2dVertex
 10
11.0
 20
112.604718
 30
0.0
  0
VERTEX
  5
26E
100
AcDbEntity
  8
PERFIL
  6
CONTINUO
 62
     4
100
AcDbVertex
100
AcDb2dVertex
 10
13.0
 20
112.203154
 30
0.0
  0
VERTEX
  5
26F
100
AcDbEntity
  8
PERFIL
  6
CONTINUO
 62
     4
100
AcDbVertex
100
AcDb2dVertex
 10
15.0
 20
111.899179
 30
0.0
  0
VERTEX
  5
270
100
AcDbEntity
  8
PERFIL
  6
CONTINUO
 62
     4
100
AcDbVertex
100
AcDb2dVertex
 10
17.0
 20
111.692795
 30
0.0
  0
VERTEX
  5
271
100
AcDbEntity
  8
PERFIL
  6
CONTINUO
 62
     4
100
AcDbVertex
100
AcDb2dVertex
 10
19.0
 20
111.584
 30
0.0
  0
SEQEND
  5
272
100
AcDbEntity
  8
PERFIL
  6
CONTINUO
 62
     4
  0
POLYLINE
  5
273
100
AcDbEntity
  8
PERFIL
  6
CONTINUO
 62
     4
100
AcDb2dPolyline
 66
     1
 10
0.0
 20
0.0
 30
0.0
  0
VERTEX
  5
274
100
AcDbEntity
  8
PERFIL
  6
CONTINUO
 62
     4
100
AcDbVertex
100
AcDb2dVertex
 10
19.0
 20
111.584
 30
4.9302
  0
VERTEX
  5
275
100
AcDbEntity
  8
PERFIL
  6
CONTINUO
 62
     4
100
AcDbVertex
100
AcDb2dVertex
 10
215.0
 20
105.704
 30
4.6362
  0
SEQEND
  5
276
100
AcDbEntity
  8
PERFIL
  6
CONTINUO
 62
     4
  0
POLYLINE
  5
278
100
AcDbEntity
  8
PERFIL
  6
CONTINUO
 62
     4
100
AcDb2dPolyline
 66
     1
 10
0.0
 20
0.0
 30
0.0
  0
VERTEX
  5
279
100
AcDbEntity
  8
PERFIL
  6
CONTINUO
 62
     4
100
AcDbVertex
100
AcDb2dVertex
 10
215.0
 20
105.704
 30
0.0
  0
VERTEX
  5
27A
100
AcDbEntity
  8
PERFIL
  6
CONTINUO
 62
     4
100
AcDbVertex
100
AcDb2dVertex
 10
217.0
 20
105.682425
 30
0.0
  0
VERTEX
  5
27B
100
AcDbEntity
  8
PERFIL
  6
CONTINUO
 62
     4
100
AcDbVertex
100
AcDb2dVertex
 10
219.0
 20
105.737701
 30
0.0
  0
VERTEX
  5
27C
100
AcDbEntity
  8
PERFIL
  6
CONTINUO
 62
     4
100
AcDbVertex
100
AcDb2dVertex
 10
221.0
 20
105.869826
 30
0.0
  0
VERTEX
  5
27D
100
AcDbEntity
  8
PERFIL
  6
CONTINUO
 62
     4
100
AcDbVertex
100
AcDb2dVertex
 10
223.0
 20
106.078803
 30
0.0
  0
VERTEX
  5
27E
100
AcDbEntity
  8
PERFIL
  6
CONTINUO
 62
     4
100
AcDbVertex
100
AcDb2dVertex
 10
225.0
 20
106.364629
 30
0.0
  0
VERTEX
  5
27F
100
AcDbEntity
  8
PERFIL
  6
CONTINUO
 62
     4
100
AcDbVertex
100
AcDb2dVertex
 10
227.0
 20
106.727306
 30
0.0
  0
VERTEX
  5
280
100
AcDbEntity
  8
PERFIL
  6
CONTINUO
 62
     4
100
AcDbVertex
100
AcDb2dVertex
 10
229.0
 20
107.166833
 30
0.0
  0
VERTEX
  5
281
100
AcDbEntity
  8
PERFIL
  6
CONTINUO
 62
     4
100
AcDbVertex
100
AcDb2dVertex
 10
231.0
 20
107.68321
 30
0.0
  0
VERTEX
  5
282
100
AcDbEntity
  8
PERFIL
  6
CONTINUO
 62
     4
100
AcDbVertex
100
AcDb2dVertex
 10
233.0
 20
108.276438
 30
0.0
  0
VERTEX
  5
283
100
AcDbEntity
  8
PERFIL
  6
CONTINUO
 62
     4
100
AcDbVertex
100
AcDb2dVertex
 10
235.0
 20
108.946516
 30
0.0
  0
VERTEX
  5
284
100
AcDbEntity
  8
PERFIL
  6
CONTINUO
 62
     4
100
AcDbVertex
100
AcDb2dVertex
 10
237.0
 20
109.693444
 30
0.0
  0
VERTEX
  5
285
100
AcDbEntity
  8
PERFIL
  6
CONTINUO
 62
     4
100
AcDbVertex
100
AcDb2dVertex
 10
239.0
 20
110.517223
 30
0.0
  0
VERTEX
  5
286
100
AcDbEntity
  8
PERFIL
  6
CONTINUO
 62
     4
100
AcDbVertex
100
AcDb2dVertex
 10
241.0
 20
111.417852
 30
0.0
  0
VERTEX
  5
287
100
AcDbEntity
  8
PERFIL
  6
CONTINUO
 62
     4
100
AcDbVertex
100
AcDb2dVertex
 10
243.0
 20
112.395331
 30
0.0
  0
VERTEX
  5
288
100
AcDbEntity
  8
PERFIL
  6
CONTINUO
 62
     4
100
AcDbVertex
100
AcDb2dVertex
 10
245.0
 20
113.44966
 30
0.0
  0
SEQEND
  5
289
100
AcDbEntity
  8
PERFIL
  6
CONTINUO
 62
     4
  0
POLYLINE
  5
28A
100
AcDbEntity
  8
PERFIL
  6
CONTINUO
 62
     4
100
AcDb2dPolyline
 66
     1
 10
0.0
 20
0.0
 30
0.0
  0
VERTEX
  5
28B
100
AcDbEntity
  8
PERFIL
  6
CONTINUO
 62
     4
100
AcDbVertex
100
AcDb2dVertex
 10
245.0
 20
113.44966
 30
5.023483
  0
VERTEX
  5
28C
100
AcDbEntity
  8
PERFIL
  6
CONTINUO
 62
     4
100
AcDbVertex
100
AcDb2dVertex
 10
268.0
 20
126.01634
 30
5.651817
  0
SEQEND
  5
28D
100
AcDbEntity
  8
PERFIL
  6
CONTINUO
 62
     4
  0
POLYLINE
  5
28F
100
AcDbEntity
  8
PERFIL
  6
CONTINUO
 62
     4
100
AcDb2dPolyline
 66
     1
 10
0.0
 20
0.0
 30
0.0
  0
VERTEX
  5
290
100
AcDbEntity
  8
PERFIL
  6
CONTINUO
 62
     4
100
AcDbVertex
100
AcDb2dVertex
 10
268.0
 20
126.01634
 30
0.0
  0
VERTEX
  5
291
100
AcDbEntity
  8
PERFIL
  6
CONTINUO
 62
     4
100
AcDbVertex
100
AcDb2dVertex
 10
270.0
 20
127.033739
 30
0.0
  0
VERTEX
  5
292
100
AcDbEntity
  8
PERFIL
  6
CONTINUO
 62
     4
100
AcDbVertex
100
AcDb2dVertex
 10
272.0
 20
127.900428
 30
0.0
  0
VERTEX
  5
293
100
AcDbEntity
  8
PERFIL
  6
CONTINUO
 62
     4
100
AcDbVertex
100
AcDb2dVertex
 10
274.0
 20
128.616406
 30
0.0
  0
VERTEX
  5
294
100
AcDbEntity
  8
PERFIL
  6
CONTINUO
 62
     4
100
AcDbVertex
100
AcDb2dVertex
 10
276.0
 20
129.181673
 30
0.0
  0
VERTEX
  5
295
100
AcDbEntity
  8
PERFIL
  6
CONTINUO
 62
     4
100
AcDbVertex
100
AcDb2dVertex
 10
278.0
 20
129.59623
 30
0.0
  0
VERTEX
  5
296
100
AcDbEntity
  8
PERFIL
  6
CONTINUO
 62
     4
100
AcDbVertex
100
AcDb2dVertex
 10
280.0
 20
129.860077
 30
0.0
  0
VERTEX
  5
297
100
AcDbEntity
  8
PERFIL
  6
CONTINUO
 62
     4
100
AcDbVertex
100
AcDb2dVertex
 10
282.0
 20
129.973212
 30
0.0
  0
VERTEX
  5
298
100
AcDbEntity
  8
PERFIL
  6
CONTINUO
 62
     4
100
AcDbVertex
100
AcDb2dVertex
 10
284.0
 20
129.935637
 30
0.0
  0
VERTEX
  5
299
100
AcDbEntity
  8
PERFIL
  6
CONTINUO
 62
     4
100
AcDbVertex
100
AcDb2dVertex
 10
286.0
 20
129.747351
 30
0.0
  0
VERTEX
  5
29A
100
AcDbEntity
  8
PERFIL
  6
CONTINUO
 62
     4
100
AcDbVertex
100
AcDb2dVertex
 10
288.0
 20
129.408355
 30
0.0
  0
VERTEX
  5
29B
100
AcDbEntity
  8
PERFIL
  6
CONTINUO
 62
     4
100
AcDbVertex
100
AcDb2dVertex
 10
290.0
 20
128.918648
 30
0.0
  0
VERTEX
  5
29C
100
AcDbEntity
  8
PERFIL
  6
CONTINUO
 62
     4
100
AcDbVertex
100
AcDb2dVertex
 10
292.0
 20
128.278231
 30
0.0
  0
VERTEX
  5
29D
100
AcDbEntity
  8
PERFIL
  6
CONTINUO
 62
     4
100
AcDbVertex
100
AcDb2dVertex
 10
294.0
 20
127.487103
 30
0.0
  0
VERTEX
  5
29E
100
AcDbEntity
  8
PERFIL
  6
CONTINUO
 62
     4
100
AcDbVertex
100
AcDb2dVertex
 10
296.0
 20
126.545264
 30
0.0
  0
VERTEX
  5
29F
100
AcDbEntity
  8
PERFIL
  6
CONTINUO
 62
     4
100
AcDbVertex
100
AcDb2dVertex
 10
298.0
 20
125.452714
 30
0.0
  0
SEQEND
  5
2A0
100
AcDbEntity
  8
PERFIL
  6
CONTINUO
 62
     4
  0
POLYLINE
  5
2A1
100
AcDbEntity
  8
PERFIL
  6
CONTINUO
 62
     4
100
AcDb2dPolyline
 66
     1
 10
0.0
 20
0.0
 30
0.0
  0
VERTEX
  5
2A2
100
AcDbEntity
  8
PERFIL
  6
CONTINUO
 62
     4
100
AcDbVertex
100
AcDb2dVertex
 10
298.0
 20
125.452714
 30
5.623636
  0
VERTEX
  5
2A3
100
AcDbEntity
  8
PERFIL
  6
CONTINUO
 62
     4
100
AcDbVertex
100
AcDb2dVertex
 10
310.0
 20
118.445286
 30
5.273264
  0
SEQEND
  5
2A4
100
AcDbEntity
  8
PERFIL
  6
CONTINUO
 62
     4
  0
POLYLINE
  5
2A6
100
AcDbEntity
  8
PERFIL
  6
CONTINUO
 62
     4
100
AcDb2dPolyline
 66
     1
 10
0.0
 20
0.0
 30
0.0
  0
VERTEX
  5
2A7
100
AcDbEntity
  8
PERFIL
  6
CONTINUO
 62
     4
100
AcDbVertex
100
AcDb2dVertex
 10
310.0
 20
118.445286
 30
0.0
  0
VERTEX
  5
2A8
100
AcDbEntity
  8
PERFIL
  6
CONTINUO
 62
     4
100
AcDbVertex
100
AcDb2dVertex
 10
312.0
 20
117.314313
 30
0.0
  0
VERTEX
  5
2A9
100
AcDbEntity
  8
PERFIL
  6
CONTINUO
 62
     4
100
AcDbVertex
100
AcDb2dVertex
 10
314.0
 20
116.257206
 30
0.0
  0
VERTEX
  5
2AA
100
AcDbEntity
  8
PERFIL
  6
CONTINUO
 62
     4
100
AcDbVertex
100
AcDb2dVertex
 10
316.0
 20
115.273964
 30
0.0
  0
VERTEX
  5
2AB
100
AcDbEntity
  8
PERFIL
  6
CONTINUO
 62
     4
100
AcDbVertex
100
AcDb2dVertex
 10
318.0
 20
114.364586
 30
0.0
  0
VERTEX
  5
2AC
100
AcDbEntity
  8
PERFIL
  6
CONTINUO
 62
     4
100
AcDbVertex
100
AcDb2dVertex
 10
320.0
 20
113.529074
 30
0.0
  0
VERTEX
  5
2AD
100
AcDbEntity
  8
PERFIL
  6
CONTINUO
 62
     4
100
AcDbVertex
100
AcDb2dVertex
 10
322.0
 20
112.767426
 30
0.0
  0
VERTEX
  5
2AE
100
AcDbEntity
  8
PERFIL
  6
CONTINUO
 62
     4
100
AcDbVertex
100
AcDb2dVertex
 10
324.0
 20
112.079644
 30
0.0
  0
VERTEX
  5
2AF
100
AcDbEntity
  8
PERFIL
  6
CONTINUO
 62
     4
100
AcDbVertex
100
AcDb2dVertex
 10
326.0
 20
111.465726
 30
0.0
  0
VERTEX
  5
2B0
100
AcDbEntity
  8
PERFIL
  6
CONTINUO
 62
     4
100
AcDbVertex
100
AcDb2dVertex
 10
328.0
 20
110.925674
 30
0.0
  0
VERTEX
  5
2B1
100
AcDbEntity
  8
PERFIL
  6
CONTINUO
 62
     4
100
AcDbVertex
100
AcDb2dVertex
 10
330.0
 20
110.459486
 30
0.0
  0
VERTEX
  5
2B2
100
AcDbEntity
  8
PERFIL
  6
CONTINUO
 62
     4
100
AcDbVertex
100
AcDb2dVertex
 10
332.0
 20
110.067163
 30
0.0
  0
VERTEX
  5
2B3
100
AcDbEntity
  8
PERFIL
  6
CONTINUO
 62
     4
100
AcDbVertex
100
AcDb2dVertex
 10
334.0
 20
109.748705
 30
0.0
  0
VERTEX
  5
2B4
100
AcDbEntity
  8
PERFIL
  6
CONTINUO
 62
     4
100
AcDbVertex
100
AcDb2dVertex
 10
336.0
 20
109.504113
 30
0.0
  0
VERTEX
  5
2B5
100
AcDbEntity
  8
PERFIL
  6
CONTINUO
 62
     4
100
AcDbVertex
100
AcDb2dVertex
 10
338.0
 20
109.333385
 30
0.0
  0
VERTEX
  5
2B6
100
AcDbEntity
  8
PERFIL
  6
CONTINUO
 62
     4
100
AcDbVertex
100
AcDb2dVertex
 10
340.0
 20
109.236522
 30
0.0
  0
SEQEND
  5
2B7
100
AcDbEntity
  8
PERFIL
  6
CONTINUO
 62
     4
  0
POLYLINE
  5
2B8
100
AcDbEntity
  8
PERFIL
  6
CONTINUO
 62
     4
100
AcDb2dPolyline
 66
     1
 10
0.0
 20
0.0
 30
0.0
  0
VERTEX
  5
2B9
100
AcDbEntity
  8
PERFIL
  6
CONTINUO
 62
     4
100
AcDbVertex
100
AcDb2dVertex
 10
340.0
 20
109.236522
 30
4.812826
  0
VERTEX
  5
2BA
100
AcDbEntity
  8
PERFIL
  6
CONTINUO
 62
     4
100
AcDbVertex
100
AcDb2dVertex
 10
440.0
 20
106.24
 30
4.663
  0
SEQEND
  5
2BB
100
AcDbEntity
  8
PERFIL
  6
CONTINUO
 62
     4
  0
ENDBLK
  5
2BC
100
AcDbEntity
  8
0
100
AcDbBlockEnd
  0
BLOCK
  5
5F9
100
AcDbEntity
  8
0
100
AcDbBlockBegin
  2
26B8EF0
 70
     0
 10
0.0
 20
0.0
 30
0.0
  3
26B8EF0
  1

  0
POLYLINE
  5
5FA
100
AcDbEntity
  8
PERFIL
  6
CONTINUO
 62
   254
100
AcDb2dPolyline
 66
     1
 10
0.0
 20
0.0
 30
0.0
  0
VERTEX
  5
5FB
100
AcDbEntity
  8
PERFIL
  6
CONTINUO
 62
   254
100
AcDbVertex
100
AcDb2dVertex
 10
-6.033123
 20
117.907307
 30
4.9392
  0
VERTEX
  5
5FC
100
AcDbEntity
  8
PERFIL
  6
CONTINUO
 62
   254
100
AcDbVertex
100
AcDb2dVertex
 10
13.0
 20
111.764
 30
4.9392
  0
VERTEX
  5
5FD
100
AcDbEntity
  8
PERFIL
  6
CONTINUO
 62
   254
100
AcDbVertex
100
AcDb2dVertex
 10
32.991006
 20
111.16427
 30
4.9392
  0
SEQEND
  5
5FE
100
AcDbEntity
  8
PERFIL
  6
CONTINUO
 62
   254
  0
TEXT
  5
5FF
100
AcDbEntity
  8
PERFIL
 62
   254
100
AcDbText
 10
0.533284
 20
113.534442
 30
0.0
 40
1.5
  1
-3.23%
 50
342.111517
 41
0.814815
  7
SIMPLEX
 72
     5
 11
7.512096
 21
111.281896
 31
0.0
100
AcDbText
  0
TEXT
  5
600
100
AcDbEntity
  8
PERFIL
 62
   254
100
AcDbText
 10
20.285505
 20
109.07476
 30
0.0
 40
1.5
  1
-0.30%
 50
358.281642
 41
0.814815
  7
SIMPLEX
 72
     5
 11
27.615541
 21
108.854859
 31
0.0
100
AcDbText
  0
TEXT
  5
601
100
AcDbEntity
  8
PERFIL
 62
   254
100
AcDbText
 10
8.844444
 20
105.264
 30
4.9392
 40
1.5
  1
0+6.500
 41
0.791534
  7
SIMPLEX
 72
     5
 11
17.155556
 21
105.264
 31
4.9392
100
AcDbText
  0
TEXT
  5
602
100
AcDbEntity
  8
PERFIL
 62
   254
100
AcDbText
 10
8.844444
 20
103.014
 30
4.9392
 40
1.5
  1
Z: 4.939
 41
0.692593
  7
SIMPLEX
 72
     5
 11
17.155556
 21
103.014
 31
4.9392
100
AcDbText
  0
TEXT
  5
603
100
AcDbEntity
  8
PERFIL
 62
   254
100
AcDbText
 10
8.936111
 20
100.764
 30
4.9392
 40
1.5
  1
L: 6.000
 41
0.677315
  7
SIMPLEX
 72
     5
 11
17.063889
 21
100.764
 31
4.9392
100
AcDbText
  0
TEXT
  5
604
100
AcDbEntity
  8
PERFIL
 62
   254
100
AcDbText
 10
7.102778
 20
98.514
 30
4.9392
 40
1.5
  1
Rv: 204.940
 41
0.714815
  7
SIMPLEX
 72
     5
 11
18.897222
 21
98.514
 31
4.9392
100
AcDbText
  0
TEXT
  5
605
100
AcDbEntity
  8
PERFIL
 62
   254
100
AcDbText
 10
8.813889
 20
96.264
 30
4.9392
 40
1.5
  1
K: 2.049
 41
0.697685
  7
SIMPLEX
 72
     5
 11
17.186111
 21
96.264
 31
4.9392
100
AcDbText
  0
POLYLINE
  5
606
100
AcDbEntity
  8
PERFIL
  6
CONTINUO
 62
   254
100
AcDb2dPolyline
 66
     1
 10
0.0
 20
0.0
 30
0.0
  0
VERTEX
  5
607
100
AcDbEntity
  8
PERFIL
  6
CONTINUO
 62
   254
100
AcDbVertex
100
AcDb2dVertex
 10
13.0
 20
111.764
 30
4.9392
  0
VERTEX
  5
608
100
AcDbEntity
  8
PERFIL
  6
CONTINUO
 62
   254
100
AcDbVertex
100
AcDb2dVertex
 10
13.0
 20
107.764
 30
4.9392
  0
SEQEND
  5
609
100
AcDbEntity
  8
PERFIL
  6
CONTINUO
 62
   254
  0
POLYLINE
  5
60A
100
AcDbEntity
  8
PERFIL
  6
CONTINUO
 62
   254
100
AcDb2dPolyline
 66
     1
 10
0.0
 20
0.0
 30
0.0
 70
     1
  0
VERTEX
  5
60B
100
AcDbEntity
  8
PERFIL
  6
CONTINUO
 62
   254
100
AcDbVertex
100
AcDb2dVertex
 10
2.102778
 20
107.764
 30
4.9392
  0
VERTEX
  5
60C
100
AcDbEntity
  8
PERFIL
  6
CONTINUO
 62
   254
100
AcDbVertex
100
AcDb2dVertex
 10
23.897222
 20
107.764
 30
4.9392
  0
VERTEX
  5
60D
100
AcDbEntity
  8
PERFIL
  6
CONTINUO
 62
   254
100
AcDbVertex
100
AcDb2dVertex
 10
23.897222
 20
93.514
 30
4.9392
  0
VERTEX
  5
60E
100
AcDbEntity
  8
PERFIL
  6
CONTINUO
 62
   254
100
AcDbVertex
100
AcDb2dVertex
 10
2.102778
 20
93.514
 30
4.9392
  0
SEQEND
  5
60F
100
AcDbEntity
  8
PERFIL
  6
CONTINUO
 62
   254
  0
ENDBLK
  5
610
100
AcDbEntity
  8
0
100
AcDbBlockEnd
  0
BLOCK
  5
613
100
AcDbEntity
  8
0
100
AcDbBlockBegin
  2
26BBEF0
 70
     0
 10
0.0
 20
0.0
 30
0.0
  3
26BBEF0
  1

  0
POLYLINE
  5
614
100
AcDbEntity
  8
PERFIL
  6
CONTINUO
 62
   254
100
AcDb2dPolyline
 66
     1
 10
0.0
 20
0.0
 30
0.0
  0
VERTEX
  5
615
100
AcDbEntity
  8
PERFIL
  6
CONTINUO
 62
   254
100
AcDbVertex
100
AcDb2dVertex
 10
210.008994
 20
105.85373
 30
4.6137
  0
VERTEX
  5
616
100
AcDbEntity
  8
PERFIL
  6
CONTINUO
 62
   254
100
AcDbVertex
100
AcDb2dVertex
 10
230.0
 20
105.254
 30
4.6137
  0
VERTEX
  5
617
100
AcDbEntity
  8
PERFIL
  6
CONTINUO
 62
   254
100
AcDbVertex
100
AcDb2dVertex
 10
247.551098
 20
114.843523
 30
4.6137
  0
SEQEND
  5
618
100
AcDbEntity
  8
PERFIL
  6
CONTINUO
 62
   254
  0
TEXT
  5
619
100
AcDbEntity
  8
PERFIL
 62
   254
100
AcDbText
 10
217.294499
 20
103.16449
 30
0.0
 40
1.5
  1
-0.30%
 50
358.281642
 41
0.814815
  7
SIMPLEX
 72
     5
 11
224.624535
 21
102.944589
 31
0.0
100
AcDbText
  0
TEXT
  5
61A
100
AcDbEntity
  8
PERFIL
 62
   254
100
AcDbText
 10
237.974231
 20
106.355267
 30
0.0
 40
1.5
  1
5.46%
 50
28.651193
 41
0.765926
  7
SIMPLEX
 72
     5
 11
243.015296
 21
109.109591
 31
0.0
100
AcDbText
  0
TEXT
  5
61B
100
AcDbEntity
  8
PERFIL
 62
   254
100
AcDbText
 10
224.622222
 20
98.754
 30
4.6137
 40
1.5
  1
0+115.000
 41
0.796708
  7
SIMPLEX
 72
     5
 11
235.377778
 21
98.754
 31
4.6137
100
AcDbText
  0
TEXT
  5
61C
100
AcDbEntity
  8
PERFIL
 62
   254
100
AcDbText
 10
225.844444
 20
96.504
 30
4.6137
 40
1.5
  1
Z: 4.614
 41
0.692593
  7
SIMPLEX
 72
     5
 11
234.155556
 21
96.504
 31
4.6137
100
AcDbText
  0
TEXT
  5
61D
100
AcDbEntity
  8
PERFIL
 62
   254
100
AcDbText
 10
225.325
 20
94.254
 30
4.6137
 40
1.5
  1
L: 15.000
 41
0.692593
  7
SIMPLEX
 72
     5
 11
234.675
 21
94.254
 31
4.6137
100
AcDbText
  0
TEXT
  5
61E
100
AcDbEntity
  8
PERFIL
 62
   254
100
AcDbText
 10
224.102778
 20
92.004
 30
4.6137
 40
1.5
  1
Rv: 260.246
 41
0.714815
  7
SIMPLEX
 72
     5
 11
235.897222
 21
92.004
 31
4.6137
100
AcDbText
  0
TEXT
  5
61F
100
AcDbEntity
  8
PERFIL
 62
   254
100
AcDbText
 10
225.813889
 20
89.754
 30
4.6137
 40
1.5
  1
K: 2.602
 41
0.697685
  7
SIMPLEX
 72
     5
 11
234.186111
 21
89.754
 31
4.6137
100
AcDbText
  0
POLYLINE
  5
620
100
AcDbEntity
  8
PERFIL
  6
CONTINUO
 62
   254
100
AcDb2dPolyline
 66
     1
 10
0.0
 20
0.0
 30
0.0
  0
VERTEX
  5
621
100
AcDbEntity
  8
PERFIL
  6
CONTINUO
 62
   254
100
AcDbVertex
100
AcDb2dVertex
 10
230.0
 20
105.254
 30
4.6137
  0
VERTEX
  5
622
100
AcDbEntity
  8
PERFIL
  6
CONTINUO
 62
   254
100
AcDbVertex
100
AcDb2dVertex
 10
230.0
 20
101.254
 30
4.6137
  0
SEQEND
  5
623
100
AcDbEntity
  8
PERFIL
  6
CONTINUO
 62
   254
  0
POLYLINE
  5
624
100
AcDbEntity
  8
PERFIL
  6
CONTINUO
 62
   254
100
AcDb2dPolyline
 66
     1
 10
0.0
 20
0.0
 30
0.0
 70
     1
  0
VERTEX
  5
625
100
AcDbEntity
  8
PERFIL
  6
CONTINUO
 62
   254
100
AcDbVertex
100
AcDb2dVertex
 10
219.102778
 20
101.254
 30
4.6137
  0
VERTEX
  5
626
100
AcDbEntity
  8
PERFIL
  6
CONTINUO
 62
   254
100
AcDbVertex
100
AcDb2dVertex
 10
240.897222
 20
101.254
 30
4.6137
  0
VERTEX
  5
627
100
AcDbEntity
  8
PERFIL
  6
CONTINUO
 62
   254
100
AcDbVertex
100
AcDb2dVertex
 10
240.897222
 20
87.004
 30
4.6137
  0
VERTEX
  5
628
100
AcDbEntity
  8
PERFIL
  6
CONTINUO
 62
   254
100
AcDbVertex
100
AcDb2dVertex
 10
219.102778
 20
87.004
 30
4.6137
  0
SEQEND
  5
629
100
AcDbEntity
  8
PERFIL
  6
CONTINUO
 62
   254
  0
ENDBLK
  5
62A
100
AcDbEntity
  8
0
100
AcDbBlockEnd
  0
BLOCK
  5
62D
100
AcDbEntity
  8
0
100
AcDbBlockBegin
  2
26BB170
 70
     0
 10
0.0
 20
0.0
 30
0.0
  3
26BB170
  1

  0
POLYLINE
  5
62E
100
AcDbEntity
  8
PERFIL
  6
CONTINUO
 62
   254
100
AcDb2dPolyline
 66
     1
 10
0.0
 20
0.0
 30
0.0
  0
VERTEX
  5
62F
100
AcDbEntity
  8
PERFIL
  6
CONTINUO
 62
   254
100
AcDbVertex
100
AcDb2dVertex
 10
265.448902
 20
124.622477
 30
6.0616
  0
VERTEX
  5
630
100
AcDbEntity
  8
PERFIL
  6
CONTINUO
 62
   254
100
AcDbVertex
100
AcDb2dVertex
 10
283.0
 20
134.212
 30
6.0616
  0
VERTEX
  5
631
100
AcDbEntity
  8
PERFIL
  6
CONTINUO
 62
   254
100
AcDbVertex
100
AcDb2dVertex
 10
300.270923
 20
124.126603
 30
6.0616
  0
SEQEND
  5
632
100
AcDbEntity
  8
PERFIL
  6
CONTINUO
 62
   254
  0
TEXT
  5
633
100
AcDbEntity
  8
PERFIL
 62
   254
100
AcDbText
 10
272.703918
 20
129.040077
 30
0.0
 40
1.5
  1
5.46%
 50
28.651193
 41
0.765926
  7
SIMPLEX
 72
     5
 11
277.744984
 21
131.794401
 31
0.0
100
AcDbText
  0
TEXT
  5
634
100
AcDbEntity
  8
PERFIL
 62
   254
100
AcDbText
 10
289.469126
 20
132.018291
 30
0.0
 40
1.5
  1
-5.84%
 50
329.717106
 41
0.814815
  7
SIMPLEX
 72
     5
 11
295.801797
 21
128.320312
 31
0.0
100
AcDbText
  0
TEXT
  5
635
100
AcDbEntity
  8
PERFIL
 62
   254
100
AcDbText
 10
278.844444
 20
148.962
 30
6.0616
 40
1.5
  1
0+141.5
 41
0.791534
  7
SIMPLEX
 72
     5
 11
287.155556
 21
148.962
 31
6.0616
100
AcDbText
  0
TEXT
  5
636
100
AcDbEntity
  8
PERFIL
 62
   254
100
AcDbText
 10
278.844444
 20
146.712
 30
6.0616
 40
1.5
  1
Z: 6.062
 41
0.692593
  7
SIMPLEX
 72
     5
 11
287.155556
 21
146.712
 31
6.0616
100
AcDbText
  0
TEXT
  5
637
100
AcDbEntity
  8
PERFIL
 62
   254
100
AcDbText
 10
278.325
 20
144.462
 30
6.0616
 40
1.5
  1
L: 15.000
 41
0.692593
  7
SIMPLEX
 72
     5
 11
287.675
 21
144.462
 31
6.0616
100
AcDbText
  0
TEXT
  5
638
100
AcDbEntity
  8
PERFIL
 62
   254
100
AcDbText
 10
276.308333
 20
142.212
 30
6.0616
 40
1.5
  1
Rv: -132.705
 41
0.743519
  7
SIMPLEX
 72
     5
 11
289.691667
 21
142.212
 31
6.0616
100
AcDbText
  0
TEXT
  5
639
100
AcDbEntity
  8
PERFIL
 62
   254
100
AcDbText
 10
278.813889
 20
139.962
 30
6.0616
 40
1.5
  1
K: 1.327
 41
0.697685
  7
SIMPLEX
 72
     5
 11
287.186111
 21
139.962
 31
6.0616
100
AcDbText
  0
POLYLINE
  5
63A
100
AcDbEntity
  8
PERFIL
  6
CONTINUO
 62
   254
100
AcDb2dPolyline
 66
     1
 10
0.0
 20
0.0
 30
0.0
  0
VERTEX
  5
63B
100
AcDbEntity
  8
PERFIL
  6
CONTINUO
 62
   254
100
AcDbVertex
100
AcDb2dVertex
 10
283.0
 20
134.212
 30
6.0616
  0
VERTEX
  5
63C
100
AcDbEntity
  8
PERFIL
  6
CONTINUO
 62
   254
100
AcDbVertex
100
AcDb2dVertex
 10
283.0
 20
138.212
 30
6.0616
  0
SEQEND
  5
63D
100
AcDbEntity
  8
PERFIL
  6
CONTINUO
 62
   254
  0
POLYLINE
  5
63E
100
AcDbEntity
  8
PERFIL
  6
CONTINUO
 62
   254
100
AcDb2dPolyline
 66
     1
 10
0.0
 20
0.0
 30
0.0
 70
     1
  0
VERTEX
  5
63F
100
AcDbEntity
  8
PERFIL
  6
CONTINUO
 62
   254
100
AcDbVertex
100
AcDb2dVertex
 10
271.308333
 20
138.212
 30
6.0616
  0
VERTEX
  5
640
100
AcDbEntity
  8
PERFIL
  6
CONTINUO
 62
   254
100
AcDbVertex
100
AcDb2dVertex
 10
294.691667
 20
138.212
 30
6.0616
  0
VERTEX
  5
641
100
AcDbEntity
  8
PERFIL
  6
CONTINUO
 62
   254
100
AcDbVertex
100
AcDb2dVertex
 10
294.691667
 20
152.462
 30
6.0616
  0
VERTEX
  5
642
100
AcDbEntity
  8
PERFIL
  6
CONTINUO
 62
   254
100
AcDbVertex
100
AcDb2dVertex
 10
271.308333
 20
152.462
 30
6.0616
  0
SEQEND
  5
643
100
AcDbEntity
  8
PERFIL
  6
CONTINUO
 62
   254
  0
ENDBLK
  5
644
100
AcDbEntity
  8
0
100
AcDbBlockEnd
  0
BLOCK
  5
647
100
AcDbEntity
  8
0
100
AcDbBlockBegin
  2
26BC2F0
 70
     0
 10
0.0
 20
0.0
 30
0.0
  3
26BC2F0
  1

  0
POLYLINE
  5
648
100
AcDbEntity
  8
PERFIL
  6
CONTINUO
 62
   254
100
AcDb2dPolyline
 66
     1
 10
0.0
 20
0.0
 30
0.0
  0
VERTEX
  5
649
100
AcDbEntity
  8
PERFIL
  6
CONTINUO
 62
   254
100
AcDbVertex
100
AcDb2dVertex
 10
307.729077
 20
119.771397
 30
4.8353
  0
VERTEX
  5
64A
100
AcDbEntity
  8
PERFIL
  6
CONTINUO
 62
   254
100
AcDbVertex
100
AcDb2dVertex
 10
325.0
 20
109.686
 30
4.8353
  0
VERTEX
  5
64B
100
AcDbEntity
  8
PERFIL
  6
CONTINUO
 62
   254
100
AcDbVertex
100
AcDb2dVertex
 10
344.991027
 20
109.086965
 30
4.8353
  0
SEQEND
  5
64C
100
AcDbEntity
  8
PERFIL
  6
CONTINUO
 62
   254
  0
TEXT
  5
64D
100
AcDbEntity
  8
PERFIL
 62
   254
100
AcDbText
 10
313.441798
 20
114.282368
 30
0.0
 40
1.5
  1
-5.84%
 50
329.717106
 41
0.814815
  7
SIMPLEX
 72
     5
 11
319.77447
 21
110.58439
 31
0.0
100
AcDbText
  0
TEXT
  5
64E
100
AcDbEntity
  8
PERFIL
 62
   254
100
AcDbText
 10
332.285564
 20
106.996978
 30
0.0
 40
1.5
  1
-0.30%
 50
358.283633
 41
0.814815
  7
SIMPLEX
 72
     5
 11
339.615607
 21
106.777332
 31
0.0
100
AcDbText
  0
TEXT
  5
64F
100
AcDbEntity
  8
PERFIL
 62
   254
100
AcDbText
 10
319.622222
 20
103.186
 30
4.8353
 40
1.5
  1
0+162.500
 41
0.796708
  7
SIMPLEX
 72
     5
 11
330.377778
 21
103.186
 31
4.8353
100
AcDbText
  0
TEXT
  5
650
100
AcDbEntity
  8
PERFIL
 62
   254
100
AcDbText
 10
320.844444
 20
100.936
 30
4.8353
 40
1.5
  1
Z: 4.835
 41
0.692593
  7
SIMPLEX
 72
     5
 11
329.155556
 21
100.936
 31
4.8353
100
AcDbText
  0
TEXT
  5
651
100
AcDbEntity
  8
PERFIL
 62
   254
100
AcDbText
 10
320.325
 20
98.686
 30
4.8353
 40
1.5
  1
L: 15.000
 41
0.692593
  7
SIMPLEX
 72
     5
 11
329.675
 21
98.686
 31
4.8353
100
AcDbText
  0
TEXT
  5
652
100
AcDbEntity
  8
PERFIL
 62
   254
100
AcDbText
 10
319.102778
 20
96.436
 30
4.8353
 40
1.5
  1
Rv: 270.764
 41
0.714815
  7
SIMPLEX
 72
     5
 11
330.897222
 21
96.436
 31
4.8353
100
AcDbText
  0
TEXT
  5
653
100
AcDbEntity
  8
PERFIL
 62
   254
100
AcDbText
 10
320.813889
 20
94.186
 30
4.8353
 40
1.5
  1
K: 2.708
 41
0.697685
  7
SIMPLEX
 72
     5
 11
329.186111
 21
94.186
 31
4.8353
100
AcDbText
  0
POLYLINE
  5
654
100
AcDbEntity
  8
PERFIL
  6
CONTINUO
 62
   254
100
AcDb2dPolyline
 66
     1
 10
0.0
 20
0.0
 30
0.0
  0
VERTEX
  5
655
100
AcDbEntity
  8
PERFIL
  6
CONTINUO
 62
   254
100
AcDbVertex
100
AcDb2dVertex
 10
325.0
 20
109.686
 30
4.8353
  0
VERTEX
  5
656
100
AcDbEntity
  8
PERFIL
  6
CONTINUO
 62
   254
100
AcDbVertex
100
AcDb2dVertex
 10
325.0
 20
105.686
 30
4.8353
  0
SEQEND
  5
657
100
AcDbEntity
  8
PERFIL
  6
CONTINUO
 62
   254
  0
POLYLINE
  5
658
100
AcDbEntity
  8
PERFIL
  6
CONTINUO
 62
   254
100
AcDb2dPolyline
 66
     1
 10
0.0
 20
0.0
 30
0.0
 70
     1
  0
VERTEX
  5
659
100
AcDbEntity
  8
PERFIL
  6
CONTINUO
 62
   254
100
AcDbVertex
100
AcDb2dVertex
 10
314.102778
 20
105.686
 30
4.8353
  0
VERTEX
  5
65A
100
AcDbEntity
  8
PERFIL
  6
CONTINUO
 62
   254
100
AcDbVertex
100
AcDb2dVertex
 10
335.897222
 20
105.686
 30
4.8353
  0
VERTEX
  5
65B
100
AcDbEntity
  8
PERFIL
  6
CONTINUO
 62
   254
100
AcDbVertex
100
AcDb2dVertex
 10
335.897222
 20
91.436
 30
4.8353
  0
VERTEX
  5
65C
100
AcDbEntity
  8
PERFIL
  6
CONTINUO
 62
   254
100
AcDbVertex
100
AcDb2dVertex
 10
314.102778
 20
91.436
 30
4.8353
  0
SEQEND
  5
65D
100
AcDbEntity
  8
PERFIL
  6
CONTINUO
 62
   254
  0
ENDBLK
  5
65E
100
AcDbEntity
  8
0
100
AcDbBlockEnd
  0
ENDSEC
  0
SECTION
  2
ENTITIES
  0
INSERT
  5
2BD
100
AcDbEntity
  8
PERFIL
 62
   255
100
AcDbBlockReference
  2
1E35480
 10
0.0
 20
0.0
 30
0.0
  0
INSERT
  5
395
100
AcDbEntity
  8
PERFIL
 62
   255
100
AcDbBlockReference
  2
26D0B00
 10
0.0
 20
0.0
 30
0.0
  0
POLYLINE
  5
396
100
AcDbEntity
  8
PERFIL
  6
CONTINUO
 62
     7
100
AcDb2dPolyline
 66
     1
 10
0.0
 20
0.0
 30
0.0
  0
VERTEX
  5
397
100
AcDbEntity
  8
PERFIL
  6
CONTINUO
 62
     7
100
AcDbVertex
100
AcDb2dVertex
 10
-9.0
 20
91.98
 30
0.0
  0
VERTEX
  5
398
100
AcDbEntity
  8
PERFIL
  6
CONTINUO
 62
     7
100
AcDbVertex
100
AcDb2dVertex
 10
440.0
 20
91.98
 30
0.0
  0
SEQEND
  5
399
100
AcDbEntity
  8
PERFIL
  6
CONTINUO
 62
     7
  0
POLYLINE
  5
39A
100
AcDbEntity
  8
PERFIL
  6
CONTINUO
 62
     7
100
AcDb2dPolyline
 66
     1
 10
0.0
 20
0.0
 30
0.0
  0
VERTEX
  5
39B
100
AcDbEntity
  8
PERFIL
  6
CONTINUO
 62
     7
100
AcDbVertex
100
AcDb2dVertex
 10
-9.0
 20
76.98
 30
0.0
  0
VERTEX
  5
39C
100
AcDbEntity
  8
PERFIL
  6
CONTINUO
 62
     7
100
AcDbVertex
100
AcDb2dVertex
 10
440.0
 20
76.98
 30
0.0
  0
SEQEND
  5
39D
100
AcDbEntity
  8
PERFIL
  6
CONTINUO
 62
     7
  0
POLYLINE
  5
39E
100
AcDbEntity
  8
PERFIL
  6
CONTINUO
 62
     7
100
AcDb2dPolyline
 66
     1
 10
0.0
 20
0.0
 30
0.0
  0
VERTEX
  5
39F
100
AcDbEntity
  8
PERFIL
  6
CONTINUO
 62
     7
100
AcDbVertex
100
AcDb2dVertex
 10
-9.0
 20
91.98
 30
0.0
  0
VERTEX
  5
3A0
100
AcDbEntity
  8
PERFIL
  6
CONTINUO
 62
     7
100
AcDbVertex
100
AcDb2dVertex
 10
-9.0
 20
76.98
 30
0.0
  0
SEQEND
  5
3A1
100
AcDbEntity
  8
PERFIL
  6
CONTINUO
 62
     7
  0
POLYLINE
  5
3A2
100
AcDbEntity
  8
PERFIL
  6
CONTINUO
 62
     7
100
AcDb2dPolyline
 66
     1
 10
0.0
 20
0.0
 30
0.0
  0
VERTEX
  5
3A3
100
AcDbEntity
  8
PERFIL
  6
CONTINUO
 62
     7
100
AcDbVertex
100
AcDb2dVertex
 10
-3.0
 20
91.98
 30
0.0
  0
VERTEX
  5
3A4
100
AcDbEntity
  8
PERFIL
  6
CONTINUO
 62
     7
100
AcDbVertex
100
AcDb2dVertex
 10
-3.0
 20
76.98
 30
0.0
  0
SEQEND
  5
3A5
100
AcDbEntity
  8
PERFIL
  6
CONTINUO
 62
     7
  0
TEXT
  5
3A6
100
AcDbEntity
  8
PERFIL
 62
     7
100
AcDbText
 10
-3.5
 20
82.921667
 30
0.0
 40
1.5
  1
Km
 50
90.0
 41
1.038889
  7
SIMPLEX
 72
     5
 11
-3.5
 21
86.038333
 31
0.0
100
AcDbText
  0
POLYLINE
  5
3A7
100
AcDbEntity
  8
PERFIL
  6
CONTINUO
 62
     7
100
AcDb2dPolyline
 66
     1
 10
0.0
 20
0.0
 30
0.0
  0
VERTEX
  5
3A8
100
AcDbEntity
  8
PERFIL
  6
CONTINUO
 62
     7
100
AcDbVertex
100
AcDb2dVertex
 10
0.0
 20
91.98
 30
0.0
  0
VERTEX
  5
3A9
100
AcDbEntity
  8
PERFIL
  6
CONTINUO
 62
     7
100
AcDbVertex
100
AcDb2dVertex
 10
0.0
 20
76.98
 30
0.0
  0
SEQEND
  5
3AA
100
AcDbEntity
  8
PERFIL
  6
CONTINUO
 62
     7
  0
TEXT
  5
3AB
100
AcDbEntity
  8
PERFIL
 62
     7
100
AcDbText
 10
-0.5
 20
77.48
 30
0.0
 40
1.5
  1
0+000
 50
90.0
 41
0.863704
  7
SIMPLEX
 72
     5
 11
-0.5
 21
83.957778
 31
0.0
100
AcDbText
  0
POLYLINE
  5
3AC
100
AcDbEntity
  8
PERFIL
  6
CONTINUO
 62
     7
100
AcDb2dPolyline
 66
     1
 10
0.0
 20
0.0
 30
0.0
  0
VERTEX
  5
3AD
100
AcDbEntity
  8
PERFIL
  6
CONTINUO
 62
     7
100
AcDbVertex
100
AcDb2dVertex
 10
40.0
 20
91.98
 30
0.0
  0
VERTEX
  5
3AE
100
AcDbEntity
  8
PERFIL
  6
CONTINUO
 62
     7
100
AcDbVertex
100
AcDb2dVertex
 10
40.0
 20
76.98
 30
0.0
  0
SEQEND
  5
3AF
100
AcDbEntity
  8
PERFIL
  6
CONTINUO
 62
     7
  0
TEXT
  5
3B0
100
AcDbEntity
  8
PERFIL
 62
     7
100
AcDbText
 10
39.5
 20
77.48
 30
0.0
 40
1.5
  1
0+020
 50
90.0
 41
0.863704
  7
SIMPLEX
 72
     5
 11
39.5
 21
83.957778
 31
0.0
100
AcDbText
  0
POLYLINE
  5
3B1
100
AcDbEntity
  8
PERFIL
  6
CONTINUO
 62
     7
100
AcDb2dPolyline
 66
     1
 10
0.0
 20
0.0
 30
0.0
  0
VERTEX
  5
3B2
100
AcDbEntity
  8
PERFIL
  6
CONTINUO
 62
     7
100
AcDbVertex
100
AcDb2dVertex
 10
80.0
 20
91.98
 30
0.0
  0
VERTEX
  5
3B3
100
AcDbEntity
  8
PERFIL
  6
CONTINUO
 62
     7
100
AcDbVertex
100
AcDb2dVertex
 10
80.0
 20
76.98
 30
0.0
  0
SEQEND
  5
3B4
100
AcDbEntity
  8
PERFIL
  6
CONTINUO
 62
     7
  0
TEXT
  5
3B5
100
AcDbEntity
  8
PERFIL
 62
     7
100
AcDbText
 10
79.5
 20
77.48
 30
0.0
 40
1.5
  1
0+040
 50
90.0
 41
0.863704
  7
SIMPLEX
 72
     5
 11
79.5
 21
83.957778
 31
0.0
100
AcDbText
  0
POLYLINE
  5
3B6
100
AcDbEntity
  8
PERFIL
  6
CONTINUO
 62
     7
100
AcDb2dPolyline
 66
     1
 10
0.0
 20
0.0
 30
0.0
  0
VERTEX
  5
3B7
100
AcDbEntity
  8
PERFIL
  6
CONTINUO
 62
     7
100
AcDbVertex
100
AcDb2dVertex
 10
120.0
 20
91.98
 30
0.0
  0
VERTEX
  5
3B8
100
AcDbEntity
  8
PERFIL
  6
CONTINUO
 62
     7
100
AcDbVertex
100
AcDb2dVertex
 10
120.0
 20
76.98
 30
0.0
  0
SEQEND
  5
3B9
100
AcDbEntity
  8
PERFIL
  6
CONTINUO
 62
     7
  0
TEXT
  5
3BA
100
AcDbEntity
  8
PERFIL
 62
     7
100
AcDbText
 10
119.5
 20
77.48
 30
0.0
 40
1.5
  1
0+060
 50
90.0
 41
0.863704
  7
SIMPLEX
 72
     5
 11
119.5
 21
83.957778
 31
0.0
100
AcDbText
  0
POLYLINE
  5
3BB
100
AcDbEntity
  8
PERFIL
  6
CONTINUO
 62
     7
100
AcDb2dPolyline
 66
     1
 10
0.0
 20
0.0
 30
0.0
  0
VERTEX
  5
3BC
100
AcDbEntity
  8
PERFIL
  6
CONTINUO
 62
     7
100
AcDbVertex
100
AcDb2dVertex
 10
160.0
 20
91.98
 30
0.0
  0
VERTEX
  5
3BD
100
AcDbEntity
  8
PERFIL
  6
CONTINUO
 62
     7
100
AcDbVertex
100
AcDb2dVertex
 10
160.0
 20
76.98
 30
0.0
  0
SEQEND
  5
3BE
100
AcDbEntity
  8
PERFIL
  6
CONTINUO
 62
     7
  0
TEXT
  5
3BF
100
AcDbEntity
  8
PERFIL
 62
     7
100
AcDbText
 10
159.5
 20
77.48
 30
0.0
 40
1.5
  1
0+080
 50
90.0
 41
0.863704
  7
SIMPLEX
 72
     5
 11
159.5
 21
83.957778
 31
0.0
100
AcDbText
  0
POLYLINE
  5
3C0
100
AcDbEntity
  8
PERFIL
  6
CONTINUO
 62
     7
100
AcDb2dPolyline
 66
     1
 10
0.0
 20
0.0
 30
0.0
  0
VERTEX
  5
3C1
100
AcDbEntity
  8
PERFIL
  6
CONTINUO
 62
     7
100
AcDbVertex
100
AcDb2dVertex
 10
200.0
 20
91.98
 30
0.0
  0
VERTEX
  5
3C2
100
AcDbEntity
  8
PERFIL
  6
CONTINUO
 62
     7
100
AcDbVertex
100
AcDb2dVertex
 10
200.0
 20
76.98
 30
0.0
  0
SEQEND
  5
3C3
100
AcDbEntity
  8
PERFIL
  6
CONTINUO
 62
     7
  0
TEXT
  5
3C4
100
AcDbEntity
  8
PERFIL
 62
     7
100
AcDbText
 10
199.5
 20
77.48
 30
0.0
 40
1.5
  1
0+100
 50
90.0
 41
0.863704
  7
SIMPLEX
 72
     5
 11
199.5
 21
83.957778
 31
0.0
100
AcDbText
  0
POLYLINE
  5
3C5
100
AcDbEntity
  8
PERFIL
  6
CONTINUO
 62
     7
100
AcDb2dPolyline
 66
     1
 10
0.0
 20
0.0
 30
0.0
  0
VERTEX
  5
3C6
100
AcDbEntity
  8
PERFIL
  6
CONTINUO
 62
     7
100
AcDbVertex
100
AcDb2dVertex
 10
240.0
 20
91.98
 30
0.0
  0
VERTEX
  5
3C7
100
AcDbEntity
  8
PERFIL
  6
CONTINUO
 62
     7
100
AcDbVertex
100
AcDb2dVertex
 10
240.0
 20
76.98
 30
0.0
  0
SEQEND
  5
3C8
100
AcDbEntity
  8
PERFIL
  6
CONTINUO
 62
     7
  0
TEXT
  5
3C9
100
AcDbEntity
  8
PERFIL
 62
     7
100
AcDbText
 10
239.5
 20
77.48
 30
0.0
 40
1.5
  1
0+120
 50
90.0
 41
0.863704
  7
SIMPLEX
 72
     5
 11
239.5
 21
83.957778
 31
0.0
100
AcDbText
  0
POLYLINE
  5
3CA
100
AcDbEntity
  8
PERFIL
  6
CONTINUO
 62
     7
100
AcDb2dPolyline
 66
     1
 10
0.0
 20
0.0
 30
0.0
  0
VERTEX
  5
3CB
100
AcDbEntity
  8
PERFIL
  6
CONTINUO
 62
     7
100
AcDbVertex
100
AcDb2dVertex
 10
280.0
 20
91.98
 30
0.0
  0
VERTEX
  5
3CC
100
AcDbEntity
  8
PERFIL
  6
CONTINUO
 62
     7
100
AcDbVertex
100
AcDb2dVertex
 10
280.0
 20
76.98
 30
0.0
  0
SEQEND
  5
3CD
100
AcDbEntity
  8
PERFIL
  6
CONTINUO
 62
     7
  0
TEXT
  5
3CE
100
AcDbEntity
  8
PERFIL
 62
     7
100
AcDbText
 10
279.5
 20
77.48
 30
0.0
 40
1.5
  1
0+140
 50
90.0
 41
0.863704
  7
SIMPLEX
 72
     5
 11
279.5
 21
83.957778
 31
0.0
100
AcDbText
  0
POLYLINE
  5
3CF
100
AcDbEntity
  8
PERFIL
  6
CONTINUO
 62
     7
100
AcDb2dPolyline
 66
     1
 10
0.0
 20
0.0
 30
0.0
  0
VERTEX
  5
3D0
100
AcDbEntity
  8
PERFIL
  6
CONTINUO
 62
     7
100
AcDbVertex
100
AcDb2dVertex
 10
320.0
 20
91.98
 30
0.0
  0
VERTEX
  5
3D1
100
AcDbEntity
  8
PERFIL
  6
CONTINUO
 62
     7
100
AcDbVertex
100
AcDb2dVertex
 10
320.0
 20
76.98
 30
0.0
  0
SEQEND
  5
3D2
100
AcDbEntity
  8
PERFIL
  6
CONTINUO
 62
     7
  0
TEXT
  5
3D3
100
AcDbEntity
  8
PERFIL
 62
     7
100
AcDbText
 10
319.5
 20
77.48
 30
0.0
 40
1.5
  1
0+160
 50
90.0
 41
0.863704
  7
SIMPLEX
 72
     5
 11
319.5
 21
83.957778
 31
0.0
100
AcDbText
  0
POLYLINE
  5
3D4
100
AcDbEntity
  8
PERFIL
  6
CONTINUO
 62
     7
100
AcDb2dPolyline
 66
     1
 10
0.0
 20
0.0
 30
0.0
  0
VERTEX
  5
3D5
100
AcDbEntity
  8
PERFIL
  6
CONTINUO
 62
     7
100
AcDbVertex
100
AcDb2dVertex
 10
360.0
 20
91.98
 30
0.0
  0
VERTEX
  5
3D6
100
AcDbEntity
  8
PERFIL
  6
CONTINUO
 62
     7
100
AcDbVertex
100
AcDb2dVertex
 10
360.0
 20
76.98
 30
0.0
  0
SEQEND
  5
3D7
100
AcDbEntity
  8
PERFIL
  6
CONTINUO
 62
     7
  0
TEXT
  5
3D8
100
AcDbEntity
  8
PERFIL
 62
     7
100
AcDbText
 10
359.5
 20
77.48
 30
0.0
 40
1.5
  1
0+180
 50
90.0
 41
0.863704
  7
SIMPLEX
 72
     5
 11
359.5
 21
83.957778
 31
0.0
100
AcDbText
  0
POLYLINE
  5
3D9
100
AcDbEntity
  8
PERFIL
  6
CONTINUO
 62
     7
100
AcDb2dPolyline
 66
     1
 10
0.0
 20
0.0
 30
0.0
  0
VERTEX
  5
3DA
100
AcDbEntity
  8
PERFIL
  6
CONTINUO
 62
     7
100
AcDbVertex
100
AcDb2dVertex
 10
400.0
 20
91.98
 30
0.0
  0
VERTEX
  5
3DB
100
AcDbEntity
  8
PERFIL
  6
CONTINUO
 62
     7
100
AcDbVertex
100
AcDb2dVertex
 10
400.0
 20
76.98
 30
0.0
  0
SEQEND
  5
3DC
100
AcDbEntity
  8
PERFIL
  6
CONTINUO
 62
     7
  0
TEXT
  5
3DD
100
AcDbEntity
  8
PERFIL
 62
     7
100
AcDbText
 10
399.5
 20
77.48
 30
0.0
 40
1.5
  1
0+200
 50
90.0
 41
0.863704
  7
SIMPLEX
 72
     5
 11
399.5
 21
83.957778
 31
0.0
100
AcDbText
  0
POLYLINE
  5
3DE
100
AcDbEntity
  8
PERFIL
  6
CONTINUO
 62
     7
100
AcDb2dPolyline
 66
     1
 10
0.0
 20
0.0
 30
0.0
  0
VERTEX
  5
3DF
100
AcDbEntity
  8
PERFIL
  6
CONTINUO
 62
     7
100
AcDbVertex
100
AcDb2dVertex
 10
440.0
 20
91.98
 30
0.0
  0
VERTEX
  5
3E0
100
AcDbEntity
  8
PERFIL
  6
CONTINUO
 62
     7
100
AcDbVertex
100
AcDb2dVertex
 10
440.0
 20
76.98
 30
0.0
  0
SEQEND
  5
3E1
100
AcDbEntity
  8
PERFIL
  6
CONTINUO
 62
     7
  0
TEXT
  5
3E2
100
AcDbEntity
  8
PERFIL
 62
     7
100
AcDbText
 10
439.5
 20
77.48
 30
0.0
 40
1.5
  1
0+220
 50
90.0
 41
0.863704
  7
SIMPLEX
 72
     5
 11
439.5
 21
83.957778
 31
0.0
100
AcDbText
  0
POLYLINE
  5
3E3
100
AcDbEntity
  8
PERFIL
  6
CONTINUO
 62
     7
100
AcDb2dPolyline
 66
     1
 10
0.0
 20
0.0
 30
0.0
  0
VERTEX
  5
3E4
100
AcDbEntity
  8
PERFIL
  6
CONTINUO
 62
     7
100
AcDbVertex
100
AcDb2dVertex
 10
-9.0
 20
61.98
 30
0.0
  0
VERTEX
  5
3E5
100
AcDbEntity
  8
PERFIL
  6
CONTINUO
 62
     7
100
AcDbVertex
100
AcDb2dVertex
 10
440.0
 20
61.98
 30
0.0
  0
SEQEND
  5
3E6
100
AcDbEntity
  8
PERFIL
  6
CONTINUO
 62
     7
  0
POLYLINE
  5
3E7
100
AcDbEntity
  8
PERFIL
  6
CONTINUO
 62
     7
100
AcDb2dPolyline
 66
     1
 10
0.0
 20
0.0
 30
0.0
  0
VERTEX
  5
3E8
100
AcDbEntity
  8
PERFIL
  6
CONTINUO
 62
     7
100
AcDbVertex
100
AcDb2dVertex
 10
-9.0
 20
76.98
 30
0.0
  0
VERTEX
  5
3E9
100
AcDbEntity
  8
PERFIL
  6
CONTINUO
 62
     7
100
AcDbVertex
100
AcDb2dVertex
 10
-9.0
 20
61.98
 30
0.0
  0
SEQEND
  5
3EA
100
AcDbEntity
  8
PERFIL
  6
CONTINUO
 62
     7
  0
POLYLINE
  5
3EB
100
AcDbEntity
  8
PERFIL
  6
CONTINUO
 62
     7
100
AcDb2dPolyline
 66
     1
 10
0.0
 20
0.0
 30
0.0
  0
VERTEX
  5
3EC
100
AcDbEntity
  8
PERFIL
  6
CONTINUO
 62
     7
100
AcDbVertex
100
AcDb2dVertex
 10
-3.0
 20
76.98
 30
0.0
  0
VERTEX
  5
3ED
100
AcDbEntity
  8
PERFIL
  6
CONTINUO
 62
     7
100
AcDbVertex
100
AcDb2dVertex
 10
-3.0
 20
61.98
 30
0.0
  0
SEQEND
  5
3EE
100
AcDbEntity
  8
PERFIL
  6
CONTINUO
 62
     7
  0
TEXT
  5
3EF
100
AcDbEntity
  8
PERFIL
 62
     7
100
AcDbText
 10
-3.5
 20
65.171667
 30
0.0
 40
1.5
  1
Distância
 50
90.0
 41
0.638272
  7
SIMPLEX
 72
     5
 11
-3.5
 21
73.788333
 31
0.0
100
AcDbText
  0
POLYLINE
  5
3F0
100
AcDbEntity
  8
PERFIL
  6
CONTINUO
 62
     7
100
AcDb2dPolyline
 66
     1
 10
0.0
 20
0.0
 30
0.0
  0
VERTEX
  5
3F1
100
AcDbEntity
  8
PERFIL
  6
CONTINUO
 62
     7
100
AcDbVertex
100
AcDb2dVertex
 10
0.0
 20
76.98
 30
0.0
  0
VERTEX
  5
3F2
100
AcDbEntity
  8
PERFIL
  6
CONTINUO
 62
     7
100
AcDbVertex
100
AcDb2dVertex
 10
0.0
 20
61.98
 30
0.0
  0
SEQEND
  5
3F3
100
AcDbEntity
  8
PERFIL
  6
CONTINUO
 62
     7
  0
TEXT
  5
3F4
100
AcDbEntity
  8
PERFIL
 62
     7
100
AcDbText
 10
2.0
 20
62.48
 30
0.0
 40
1.5
  1
0.000
 50
90.0
 41
0.733333
  7
SIMPLEX
 72
     5
 11
2.0
 21
67.98
 31
0.0
100
AcDbText
  0
POLYLINE
  5
3F5
100
AcDbEntity
  8
PERFIL
  6
CONTINUO
 62
     7
100
AcDb2dPolyline
 66
     1
 10
0.0
 20
0.0
 30
0.0
  0
VERTEX
  5
3F6
100
AcDbEntity
  8
PERFIL
  6
CONTINUO
 62
     7
100
AcDbVertex
100
AcDb2dVertex
 10
40.0
 20
76.98
 30
0.0
  0
VERTEX
  5
3F7
100
AcDbEntity
  8
PERFIL
  6
CONTINUO
 62
     7
100
AcDbVertex
100
AcDb2dVertex
 10
40.0
 20
61.98
 30
0.0
  0
SEQEND
  5
3F8
100
AcDbEntity
  8
PERFIL
  6
CONTINUO
 62
     7
  0
TEXT
  5
3F9
100
AcDbEntity
  8
PERFIL
 62
     7
100
AcDbText
 10
42.0
 20
62.48
 30
0.0
 40
1.5
  1
20.000
 50
90.0
 41
0.746914
  7
SIMPLEX
 72
     5
 11
42.0
 21
69.202222
 31
0.0
100
AcDbText
  0
POLYLINE
  5
3FA
100
AcDbEntity
  8
PERFIL
  6
CONTINUO
 62
     7
100
AcDb2dPolyline
 66
     1
 10
0.0
 20
0.0
 30
0.0
  0
VERTEX
  5
3FB
100
AcDbEntity
  8
PERFIL
  6
CONTINUO
 62
     7
100
AcDbVertex
100
AcDb2dVertex
 10
80.0
 20
76.98
 30
0.0
  0
VERTEX
  5
3FC
100
AcDbEntity
  8
PERFIL
  6
CONTINUO
 62
     7
100
AcDbVertex
100
AcDb2dVertex
 10
80.0
 20
61.98
 30
0.0
  0
SEQEND
  5
3FD
100
AcDbEntity
  8
PERFIL
  6
CONTINUO
 62
     7
  0
TEXT
  5
3FE
100
AcDbEntity
  8
PERFIL
 62
     7
100
AcDbText
 10
82.0
 20
62.48
 30
0.0
 40
1.5
  1
40.000
 50
90.0
 41
0.746914
  7
SIMPLEX
 72
     5
 11
82.0
 21
69.202222
 31
0.0
100
AcDbText
  0
POLYLINE
  5
3FF
100
AcDbEntity
  8
PERFIL
  6
CONTINUO
 62
     7
100
AcDb2dPolyline
 66
     1
 10
0.0
 20
0.0
 30
0.0
  0
VERTEX
  5
400
100
AcDbEntity
  8
PERFIL
  6
CONTINUO
 62
     7
100
AcDbVertex
100
AcDb2dVertex
 10
120.0
 20
76.98
 30
0.0
  0
VERTEX
  5
401
100
AcDbEntity
  8
PERFIL
  6
CONTINUO
 62
     7
100
AcDbVertex
100
AcDb2dVertex
 10
120.0
 20
61.98
 30
0.0
  0
SEQEND
  5
402
100
AcDbEntity
  8
PERFIL
  6
CONTINUO
 62
     7
  0
TEXT
  5
403
100
AcDbEntity
  8
PERFIL
 62
     7
100
AcDbText
 10
122.0
 20
62.48
 30
0.0
 40
1.5
  1
60.000
 50
90.0
 41
0.746914
  7
SIMPLEX
 72
     5
 11
122.0
 21
69.202222
 31
0.0
100
AcDbText
  0
POLYLINE
  5
404
100
AcDbEntity
  8
PERFIL
  6
CONTINUO
 62
     7
100
AcDb2dPolyline
 66
     1
 10
0.0
 20
0.0
 30
0.0
  0
VERTEX
  5
405
100
AcDbEntity
  8
PERFIL
  6
CONTINUO
 62
     7
100
AcDbVertex
100
AcDb2dVertex
 10
160.0
 20
76.98
 30
0.0
  0
VERTEX
  5
406
100
AcDbEntity
  8
PERFIL
  6
CONTINUO
 62
     7
100
AcDbVertex
100
AcDb2dVertex
 10
160.0
 20
61.98
 30
0.0
  0
SEQEND
  5
407
100
AcDbEntity
  8
PERFIL
  6
CONTINUO
 62
     7
  0
TEXT
  5
408
100
AcDbEntity
  8
PERFIL
 62
     7
100
AcDbText
 10
162.0
 20
62.48
 30
0.0
 40
1.5
  1
80.000
 50
90.0
 41
0.746914
  7
SIMPLEX
 72
     5
 11
162.0
 21
69.202222
 31
0.0
100
AcDbText
  0
POLYLINE
  5
409
100
AcDbEntity
  8
PERFIL
  6
CONTINUO
 62
     7
100
AcDb2dPolyline
 66
     1
 10
0.0
 20
0.0
 30
0.0
  0
VERTEX
  5
40A
100
AcDbEntity
  8
PERFIL
  6
CONTINUO
 62
     7
100
AcDbVertex
100
AcDb2dVertex
 10
200.0
 20
76.98
 30
0.0
  0
VERTEX
  5
40B
100
AcDbEntity
  8
PERFIL
  6
CONTINUO
 62
     7
100
AcDbVertex
100
AcDb2dVertex
 10
200.0
 20
61.98
 30
0.0
  0
SEQEND
  5
40C
100
AcDbEntity
  8
PERFIL
  6
CONTINUO
 62
     7
  0
TEXT
  5
40D
100
AcDbEntity
  8
PERFIL
 62
     7
100
AcDbText
 10
202.0
 20
62.48
 30
0.0
 40
1.5
  1
100.000
 50
90.0
 41
0.756614
  7
SIMPLEX
 72
     5
 11
202.0
 21
70.424444
 31
0.0
100
AcDbText
  0
POLYLINE
  5
40E
100
AcDbEntity
  8
PERFIL
  6
CONTINUO
 62
     7
100
AcDb2dPolyline
 66
     1
 10
0.0
 20
0.0
 30
0.0
  0
VERTEX
  5
40F
100
AcDbEntity
  8
PERFIL
  6
CONTINUO
 62
     7
100
AcDbVertex
100
AcDb2dVertex
 10
240.0
 20
76.98
 30
0.0
  0
VERTEX
  5
410
100
AcDbEntity
  8
PERFIL
  6
CONTINUO
 62
     7
100
AcDbVertex
100
AcDb2dVertex
 10
240.0
 20
61.98
 30
0.0
  0
SEQEND
  5
411
100
AcDbEntity
  8
PERFIL
  6
CONTINUO
 62
     7
  0
TEXT
  5
412
100
AcDbEntity
  8
PERFIL
 62
     7
100
AcDbText
 10
242.0
 20
62.48
 30
0.0
 40
1.5
  1
120.000
 50
90.0
 41
0.756614
  7
SIMPLEX
 72
     5
 11
242.0
 21
70.424444
 31
0.0
100
AcDbText
  0
POLYLINE
  5
413
100
AcDbEntity
  8
PERFIL
  6
CONTINUO
 62
     7
100
AcDb2dPolyline
 66
     1
 10
0.0
 20
0.0
 30
0.0
  0
VERTEX
  5
414
100
AcDbEntity
  8
PERFIL
  6
CONTINUO
 62
     7
100
AcDbVertex
100
AcDb2dVertex
 10
280.0
 20
76.98
 30
0.0
  0
VERTEX
  5
415
100
AcDbEntity
  8
PERFIL
  6
CONTINUO
 62
     7
100
AcDbVertex
100
AcDb2dVertex
 10
280.0
 20
61.98
 30
0.0
  0
SEQEND
  5
416
100
AcDbEntity
  8
PERFIL
  6
CONTINUO
 62
     7
  0
TEXT
  5
417
100
AcDbEntity
  8
PERFIL
 62
     7
100
AcDbText
 10
282.0
 20
62.48
 30
0.0
 40
1.5
  1
140.000
 50
90.0
 41
0.756614
  7
SIMPLEX
 72
     5
 11
282.0
 21
70.424444
 31
0.0
100
AcDbText
  0
POLYLINE
  5
418
100
AcDbEntity
  8
PERFIL
  6
CONTINUO
 62
     7
100
AcDb2dPolyline
 66
     1
 10
0.0
 20
0.0
 30
0.0
  0
VERTEX
  5
419
100
AcDbEntity
  8
PERFIL
  6
CONTINUO
 62
     7
100
AcDbVertex
100
AcDb2dVertex
 10
320.0
 20
76.98
 30
0.0
  0
VERTEX
  5
41A
100
AcDbEntity
  8
PERFIL
  6
CONTINUO
 62
     7
100
AcDbVertex
100
AcDb2dVertex
 10
320.0
 20
61.98
 30
0.0
  0
SEQEND
  5
41B
100
AcDbEntity
  8
PERFIL
  6
CONTINUO
 62
     7
  0
TEXT
  5
41C
100
AcDbEntity
  8
PERFIL
 62
     7
100
AcDbText
 10
322.0
 20
62.48
 30
0.0
 40
1.5
  1
160.000
 50
90.0
 41
0.756614
  7
SIMPLEX
 72
     5
 11
322.0
 21
70.424444
 31
0.0
100
AcDbText
  0
POLYLINE
  5
41D
100
AcDbEntity
  8
PERFIL
  6
CONTINUO
 62
     7
100
AcDb2dPolyline
 66
     1
 10
0.0
 20
0.0
 30
0.0
  0
VERTEX
  5
41E
100
AcDbEntity
  8
PERFIL
  6
CONTINUO
 62
     7
100
AcDbVertex
100
AcDb2dVertex
 10
360.0
 20
76.98
 30
0.0
  0
VERTEX
  5
41F
100
AcDbEntity
  8
PERFIL
  6
CONTINUO
 62
     7
100
AcDbVertex
100
AcDb2dVertex
 10
360.0
 20
61.98
 30
0.0
  0
SEQEND
  5
420
100
AcDbEntity
  8
PERFIL
  6
CONTINUO
 62
     7
  0
TEXT
  5
421
100
AcDbEntity
  8
PERFIL
 62
     7
100
AcDbText
 10
362.0
 20
62.48
 30
0.0
 40
1.5
  1
180.000
 50
90.0
 41
0.756614
  7
SIMPLEX
 72
     5
 11
362.0
 21
70.424444
 31
0.0
100
AcDbText
  0
POLYLINE
  5
422
100
AcDbEntity
  8
PERFIL
  6
CONTINUO
 62
     7
100
AcDb2dPolyline
 66
     1
 10
0.0
 20
0.0
 30
0.0
  0
VERTEX
  5
423
100
AcDbEntity
  8
PERFIL
  6
CONTINUO
 62
     7
100
AcDbVertex
100
AcDb2dVertex
 10
400.0
 20
76.98
 30
0.0
  0
VERTEX
  5
424
100
AcDbEntity
  8
PERFIL
  6
CONTINUO
 62
     7
100
AcDbVertex
100
AcDb2dVertex
 10
400.0
 20
61.98
 30
0.0
  0
SEQEND
  5
425
100
AcDbEntity
  8
PERFIL
  6
CONTINUO
 62
     7
  0
TEXT
  5
426
100
AcDbEntity
  8
PERFIL
 62
     7
100
AcDbText
 10
402.0
 20
62.48
 30
0.0
 40
1.5
  1
200.000
 50
90.0
 41
0.756614
  7
SIMPLEX
 72
     5
 11
402.0
 21
70.424444
 31
0.0
100
AcDbText
  0
POLYLINE
  5
427
100
AcDbEntity
  8
PERFIL
  6
CONTINUO
 62
     7
100
AcDb2dPolyline
 66
     1
 10
0.0
 20
0.0
 30
0.0
  0
VERTEX
  5
428
100
AcDbEntity
  8
PERFIL
  6
CONTINUO
 62
     7
100
AcDbVertex
100
AcDb2dVertex
 10
440.0
 20
76.98
 30
0.0
  0
VERTEX
  5
429
100
AcDbEntity
  8
PERFIL
  6
CONTINUO
 62
     7
100
AcDbVertex
100
AcDb2dVertex
 10
440.0
 20
61.98
 30
0.0
  0
SEQEND
  5
42A
100
AcDbEntity
  8
PERFIL
  6
CONTINUO
 62
     7
  0
TEXT
  5
42B
100
AcDbEntity
  8
PERFIL
 62
     7
100
AcDbText
 10
442.0
 20
62.48
 30
0.0
 40
1.5
  1
220.000
 50
90.0
 41
0.756614
  7
SIMPLEX
 72
     5
 11
442.0
 21
70.424444
 31
0.0
100
AcDbText
  0
POLYLINE
  5
42C
100
AcDbEntity
  8
PERFIL
  6
CONTINUO
 62
     7
100
AcDb2dPolyline
 66
     1
 10
0.0
 20
0.0
 30
0.0
  0
VERTEX
  5
42D
100
AcDbEntity
  8
PERFIL
  6
CONTINUO
 62
     7
100
AcDbVertex
100
AcDb2dVertex
 10
-9.0
 20
46.98
 30
0.0
  0
VERTEX
  5
42E
100
AcDbEntity
  8
PERFIL
  6
CONTINUO
 62
     7
100
AcDbVertex
100
AcDb2dVertex
 10
440.0
 20
46.98
 30
0.0
  0
SEQEND
  5
42F
100
AcDbEntity
  8
PERFIL
  6
CONTINUO
 62
     7
  0
POLYLINE
  5
430
100
AcDbEntity
  8
PERFIL
  6
CONTINUO
 62
     7
100
AcDb2dPolyline
 66
     1
 10
0.0
 20
0.0
 30
0.0
  0
VERTEX
  5
431
100
AcDbEntity
  8
PERFIL
  6
CONTINUO
 62
     7
100
AcDbVertex
100
AcDb2dVertex
 10
-9.0
 20
61.98
 30
0.0
  0
VERTEX
  5
432
100
AcDbEntity
  8
PERFIL
  6
CONTINUO
 62
     7
100
AcDbVertex
100
AcDb2dVertex
 10
-9.0
 20
46.98
 30
0.0
  0
SEQEND
  5
433
100
AcDbEntity
  8
PERFIL
  6
CONTINUO
 62
     7
  0
POLYLINE
  5
434
100
AcDbEntity
  8
PERFIL
  6
CONTINUO
 62
     7
100
AcDb2dPolyline
 66
     1
 10
0.0
 20
0.0
 30
0.0
  0
VERTEX
  5
435
100
AcDbEntity
  8
PERFIL
  6
CONTINUO
 62
     7
100
AcDbVertex
100
AcDb2dVertex
 10
-3.0
 20
61.98
 30
0.0
  0
VERTEX
  5
436
100
AcDbEntity
  8
PERFIL
  6
CONTINUO
 62
     7
100
AcDbVertex
100
AcDb2dVertex
 10
-3.0
 20
46.98
 30
0.0
  0
SEQEND
  5
437
100
AcDbEntity
  8
PERFIL
  6
CONTINUO
 62
     7
  0
TEXT
  5
438
100
AcDbEntity
  8
PERFIL
 62
     7
100
AcDbText
 10
-6.5
 20
50.141111
 30
0.0
 40
1.5
  1
Cotas do
 50
90.0
 41
0.723148
  7
SIMPLEX
 72
     5
 11
-6.5
 21
58.818889
 31
0.0
100
AcDbText
  0
TEXT
  5
439
100
AcDbEntity
  8
PERFIL
 62
     7
100
AcDbText
 10
-3.5
 20
50.935556
 30
0.0
 40
1.5
  1
Terreno
 50
90.0
 41
0.675132
  7
SIMPLEX
 72
     5
 11
-3.5
 21
58.024444
 31
0.0
100
AcDbText
  0
POLYLINE
  5
43A
100
AcDbEntity
  8
PERFIL
  6
CONTINUO
 62
     7
100
AcDb2dPolyline
 66
     1
 10
0.0
 20
0.0
 30
0.0
  0
VERTEX
  5
43B
100
AcDbEntity
  8
PERFIL
  6
CONTINUO
 62
     7
100
AcDbVertex
100
AcDb2dVertex
 10
0.0
 20
61.98
 30
0.0
  0
VERTEX
  5
43C
100
AcDbEntity
  8
PERFIL
  6
CONTINUO
 62
     7
100
AcDbVertex
100
AcDb2dVertex
 10
0.0
 20
60.98
 30
0.0
  0
SEQEND
  5
43D
100
AcDbEntity
  8
PERFIL
  6
CONTINUO
 62
     7
  0
POLYLINE
  5
43E
100
AcDbEntity
  8
PERFIL
  6
CONTINUO
 62
     7
100
AcDb2dPolyline
 66
     1
 10
0.0
 20
0.0
 30
0.0
  0
VERTEX
  5
43F
100
AcDbEntity
  8
PERFIL
  6
CONTINUO
 62
     7
100
AcDbVertex
100
AcDb2dVertex
 10
0.0
 20
47.98
 30
0.0
  0
VERTEX
  5
440
100
AcDbEntity
  8
PERFIL
  6
CONTINUO
 62
     7
100
AcDbVertex
100
AcDb2dVertex
 10
0.0
 20
46.98
 30
0.0
  0
SEQEND
  5
441
100
AcDbEntity
  8
PERFIL
  6
CONTINUO
 62
     7
  0
TEXT
  5
442
100
AcDbEntity
  8
PERFIL
 62
     7
100
AcDbText
 10
0.75
 20
51.73
 30
0.0
 40
1.5
  1
5.149
 50
90.0
 41
0.733333
  7
SIMPLEX
 72
     5
 11
0.75
 21
57.23
 31
0.0
100
AcDbText
  0
POLYLINE
  5
443
100
AcDbEntity
  8
PERFIL
  6
CONTINUO
 62
     7
100
AcDb2dPolyline
 66
     1
 10
0.0
 20
0.0
 30
0.0
  0
VERTEX
  5
444
100
AcDbEntity
  8
PERFIL
  6
CONTINUO
 62
     7
100
AcDbVertex
100
AcDb2dVertex
 10
40.0
 20
61.98
 30
0.0
  0
VERTEX
  5
445
100
AcDbEntity
  8
PERFIL
  6
CONTINUO
 62
     7
100
AcDbVertex
100
AcDb2dVertex
 10
40.0
 20
60.98
 30
0.0
  0
SEQEND
  5
446
100
AcDbEntity
  8
PERFIL
  6
CONTINUO
 62
     7
  0
POLYLINE
  5
447
100
AcDbEntity
  8
PERFIL
  6
CONTINUO
 62
     7
100
AcDb2dPolyline
 66
     1
 10
0.0
 20
0.0
 30
0.0
  0
VERTEX
  5
448
100
AcDbEntity
  8
PERFIL
  6
CONTINUO
 62
     7
100
AcDbVertex
100
AcDb2dVertex
 10
40.0
 20
47.98
 30
0.0
  0
VERTEX
  5
449
100
AcDbEntity
  8
PERFIL
  6
CONTINUO
 62
     7
100
AcDbVertex
100
AcDb2dVertex
 10
40.0
 20
46.98
 30
0.0
  0
SEQEND
  5
44A
100
AcDbEntity
  8
PERFIL
  6
CONTINUO
 62
     7
  0
TEXT
  5
44B
100
AcDbEntity
  8
PERFIL
 62
     7
100
AcDbText
 10
40.75
 20
51.73
 30
0.0
 40
1.5
  1
4.900
 50
90.0
 41
0.733333
  7
SIMPLEX
 72
     5
 11
40.75
 21
57.23
 31
0.0
100
AcDbText
  0
POLYLINE
  5
44C
100
AcDbEntity
  8
PERFIL
  6
CONTINUO
 62
     7
100
AcDb2dPolyline
 66
     1
 10
0.0
 20
0.0
 30
0.0
  0
VERTEX
  5
44D
100
AcDbEntity
  8
PERFIL
  6
CONTINUO
 62
     7
100
AcDbVertex
100
AcDb2dVertex
 10
80.0
 20
61.98
 30
0.0
  0
VERTEX
  5
44E
100
AcDbEntity
  8
PERFIL
  6
CONTINUO
 62
     7
100
AcDbVertex
100
AcDb2dVertex
 10
80.0
 20
60.98
 30
0.0
  0
SEQEND
  5
44F
100
AcDbEntity
  8
PERFIL
  6
CONTINUO
 62
     7
  0
POLYLINE
  5
450
100
AcDbEntity
  8
PERFIL
  6
CONTINUO
 62
     7
100
AcDb2dPolyline
 66
     1
 10
0.0
 20
0.0
 30
0.0
  0
VERTEX
  5
451
100
AcDbEntity
  8
PERFIL
  6
CONTINUO
 62
     7
100
AcDbVertex
100
AcDb2dVertex
 10
80.0
 20
47.98
 30
0.0
  0
VERTEX
  5
452
100
AcDbEntity
  8
PERFIL
  6
CONTINUO
 62
     7
100
AcDbVertex
100
AcDb2dVertex
 10
80.0
 20
46.98
 30
0.0
  0
SEQEND
  5
453
100
AcDbEntity
  8
PERFIL
  6
CONTINUO
 62
     7
  0
TEXT
  5
454
100
AcDbEntity
  8
PERFIL
 62
     7
100
AcDbText
 10
80.75
 20
51.73
 30
0.0
 40
1.5
  1
4.890
 50
90.0
 41
0.733333
  7
SIMPLEX
 72
     5
 11
80.75
 21
57.23
 31
0.0
100
AcDbText
  0
POLYLINE
  5
455
100
AcDbEntity
  8
PERFIL
  6
CONTINUO
 62
     7
100
AcDb2dPolyline
 66
     1
 10
0.0
 20
0.0
 30
0.0
  0
VERTEX
  5
456
100
AcDbEntity
  8
PERFIL
  6
CONTINUO
 62
     7
100
AcDbVertex
100
AcDb2dVertex
 10
120.0
 20
61.98
 30
0.0
  0
VERTEX
  5
457
100
AcDbEntity
  8
PERFIL
  6
CONTINUO
 62
     7
100
AcDbVertex
100
AcDb2dVertex
 10
120.0
 20
60.98
 30
0.0
  0
SEQEND
  5
458
100
AcDbEntity
  8
PERFIL
  6
CONTINUO
 62
     7
  0
POLYLINE
  5
459
100
AcDbEntity
  8
PERFIL
  6
CONTINUO
 62
     7
100
AcDb2dPolyline
 66
     1
 10
0.0
 20
0.0
 30
0.0
  0
VERTEX
  5
45A
100
AcDbEntity
  8
PERFIL
  6
CONTINUO
 62
     7
100
AcDbVertex
100
AcDb2dVertex
 10
120.0
 20
47.98
 30
0.0
  0
VERTEX
  5
45B
100
AcDbEntity
  8
PERFIL
  6
CONTINUO
 62
     7
100
AcDbVertex
100
AcDb2dVertex
 10
120.0
 20
46.98
 30
0.0
  0
SEQEND
  5
45C
100
AcDbEntity
  8
PERFIL
  6
CONTINUO
 62
     7
  0
TEXT
  5
45D
100
AcDbEntity
  8
PERFIL
 62
     7
100
AcDbText
 10
120.75
 20
51.73
 30
0.0
 40
1.5
  1
4.782
 50
90.0
 41
0.733333
  7
SIMPLEX
 72
     5
 11
120.75
 21
57.23
 31
0.0
100
AcDbText
  0
POLYLINE
  5
45E
100
AcDbEntity
  8
PERFIL
  6
CONTINUO
 62
     7
100
AcDb2dPolyline
 66
     1
 10
0.0
 20
0.0
 30
0.0
  0
VERTEX
  5
45F
100
AcDbEntity
  8
PERFIL
  6
CONTINUO
 62
     7
100
AcDbVertex
100
AcDb2dVertex
 10
160.0
 20
61.98
 30
0.0
  0
VERTEX
  5
460
100
AcDbEntity
  8
PERFIL
  6
CONTINUO
 62
     7
100
AcDbVertex
100
AcDb2dVertex
 10
160.0
 20
60.98
 30
0.0
  0
SEQEND
  5
461
100
AcDbEntity
  8
PERFIL
  6
CONTINUO
 62
     7
  0
POLYLINE
  5
462
100
AcDbEntity
  8
PERFIL
  6
CONTINUO
 62
     7
100
AcDb2dPolyline
 66
     1
 10
0.0
 20
0.0
 30
0.0
  0
VERTEX
  5
463
100
AcDbEntity
  8
PERFIL
  6
CONTINUO
 62
     7
100
AcDbVertex
100
AcDb2dVertex
 10
160.0
 20
47.98
 30
0.0
  0
VERTEX
  5
464
100
AcDbEntity
  8
PERFIL
  6
CONTINUO
 62
     7
100
AcDbVertex
100
AcDb2dVertex
 10
160.0
 20
46.98
 30
0.0
  0
SEQEND
  5
465
100
AcDbEntity
  8
PERFIL
  6
CONTINUO
 62
     7
  0
TEXT
  5
466
100
AcDbEntity
  8
PERFIL
 62
     7
100
AcDbText
 10
160.75
 20
51.73
 30
0.0
 40
1.5
  1
4.725
 50
90.0
 41
0.733333
  7
SIMPLEX
 72
     5
 11
160.75
 21
57.23
 31
0.0
100
AcDbText
  0
POLYLINE
  5
467
100
AcDbEntity
  8
PERFIL
  6
CONTINUO
 62
     7
100
AcDb2dPolyline
 66
     1
 10
0.0
 20
0.0
 30
0.0
  0
VERTEX
  5
468
100
AcDbEntity
  8
PERFIL
  6
CONTINUO
 62
     7
100
AcDbVertex
100
AcDb2dVertex
 10
200.0
 20
61.98
 30
0.0
  0
VERTEX
  5
469
100
AcDbEntity
  8
PERFIL
  6
CONTINUO
 62
     7
100
AcDbVertex
100
AcDb2dVertex
 10
200.0
 20
60.98
 30
0.0
  0
SEQEND
  5
46A
100
AcDbEntity
  8
PERFIL
  6
CONTINUO
 62
     7
  0
POLYLINE
  5
46B
100
AcDbEntity
  8
PERFIL
  6
CONTINUO
 62
     7
100
AcDb2dPolyline
 66
     1
 10
0.0
 20
0.0
 30
0.0
  0
VERTEX
  5
46C
100
AcDbEntity
  8
PERFIL
  6
CONTINUO
 62
     7
100
AcDbVertex
100
AcDb2dVertex
 10
200.0
 20
47.98
 30
0.0
  0
VERTEX
  5
46D
100
AcDbEntity
  8
PERFIL
  6
CONTINUO
 62
     7
100
AcDbVertex
100
AcDb2dVertex
 10
200.0
 20
46.98
 30
0.0
  0
SEQEND
  5
46E
100
AcDbEntity
  8
PERFIL
  6
CONTINUO
 62
     7
  0
TEXT
  5
46F
100
AcDbEntity
  8
PERFIL
 62
     7
100
AcDbText
 10
200.75
 20
51.73
 30
0.0
 40
1.5
  1
4.946
 50
90.0
 41
0.733333
  7
SIMPLEX
 72
     5
 11
200.75
 21
57.23
 31
0.0
100
AcDbText
  0
POLYLINE
  5
470
100
AcDbEntity
  8
PERFIL
  6
CONTINUO
 62
     7
100
AcDb2dPolyline
 66
     1
 10
0.0
 20
0.0
 30
0.0
  0
VERTEX
  5
471
100
AcDbEntity
  8
PERFIL
  6
CONTINUO
 62
     7
100
AcDbVertex
100
AcDb2dVertex
 10
240.0
 20
61.98
 30
0.0
  0
VERTEX
  5
472
100
AcDbEntity
  8
PERFIL
  6
CONTINUO
 62
     7
100
AcDbVertex
100
AcDb2dVertex
 10
240.0
 20
60.98
 30
0.0
  0
SEQEND
  5
473
100
AcDbEntity
  8
PERFIL
  6
CONTINUO
 62
     7
  0
POLYLINE
  5
474
100
AcDbEntity
  8
PERFIL
  6
CONTINUO
 62
     7
100
AcDb2dPolyline
 66
     1
 10
0.0
 20
0.0
 30
0.0
  0
VERTEX
  5
475
100
AcDbEntity
  8
PERFIL
  6
CONTINUO
 62
     7
100
AcDbVertex
100
AcDb2dVertex
 10
240.0
 20
47.98
 30
0.0
  0
VERTEX
  5
476
100
AcDbEntity
  8
PERFIL
  6
CONTINUO
 62
     7
100
AcDbVertex
100
AcDb2dVertex
 10
240.0
 20
46.98
 30
0.0
  0
SEQEND
  5
477
100
AcDbEntity
  8
PERFIL
  6
CONTINUO
 62
     7
  0
TEXT
  5
478
100
AcDbEntity
  8
PERFIL
 62
     7
100
AcDbText
 10
240.75
 20
51.73
 30
0.0
 40
1.5
  1
4.735
 50
90.0
 41
0.733333
  7
SIMPLEX
 72
     5
 11
240.75
 21
57.23
 31
0.0
100
AcDbText
  0
POLYLINE
  5
479
100
AcDbEntity
  8
PERFIL
  6
CONTINUO
 62
     7
100
AcDb2dPolyline
 66
     1
 10
0.0
 20
0.0
 30
0.0
  0
VERTEX
  5
47A
100
AcDbEntity
  8
PERFIL
  6
CONTINUO
 62
     7
100
AcDbVertex
100
AcDb2dVertex
 10
280.0
 20
61.98
 30
0.0
  0
VERTEX
  5
47B
100
AcDbEntity
  8
PERFIL
  6
CONTINUO
 62
     7
100
AcDbVertex
100
AcDb2dVertex
 10
280.0
 20
60.98
 30
0.0
  0
SEQEND
  5
47C
100
AcDbEntity
  8
PERFIL
  6
CONTINUO
 62
     7
  0
POLYLINE
  5
47D
100
AcDbEntity
  8
PERFIL
  6
CONTINUO
 62
     7
100
AcDb2dPolyline
 66
     1
 10
0.0
 20
0.0
 30
0.0
  0
VERTEX
  5
47E
100
AcDbEntity
  8
PERFIL
  6
CONTINUO
 62
     7
100
AcDbVertex
100
AcDb2dVertex
 10
280.0
 20
47.98
 30
0.0
  0
VERTEX
  5
47F
100
AcDbEntity
  8
PERFIL
  6
CONTINUO
 62
     7
100
AcDbVertex
100
AcDb2dVertex
 10
280.0
 20
46.98
 30
0.0
  0
SEQEND
  5
480
100
AcDbEntity
  8
PERFIL
  6
CONTINUO
 62
     7
  0
TEXT
  5
481
100
AcDbEntity
  8
PERFIL
 62
     7
100
AcDbText
 10
280.75
 20
51.73
 30
0.0
 40
1.5
  1
4.675
 50
90.0
 41
0.733333
  7
SIMPLEX
 72
     5
 11
280.75
 21
57.23
 31
0.0
100
AcDbText
  0
POLYLINE
  5
482
100
AcDbEntity
  8
PERFIL
  6
CONTINUO
 62
     7
100
AcDb2dPolyline
 66
     1
 10
0.0
 20
0.0
 30
0.0
  0
VERTEX
  5
483
100
AcDbEntity
  8
PERFIL
  6
CONTINUO
 62
     7
100
AcDbVertex
100
AcDb2dVertex
 10
320.0
 20
61.98
 30
0.0
  0
VERTEX
  5
484
100
AcDbEntity
  8
PERFIL
  6
CONTINUO
 62
     7
100
AcDbVertex
100
AcDb2dVertex
 10
320.0
 20
60.98
 30
0.0
  0
SEQEND
  5
485
100
AcDbEntity
  8
PERFIL
  6
CONTINUO
 62
     7
  0
POLYLINE
  5
486
100
AcDbEntity
  8
PERFIL
  6
CONTINUO
 62
     7
100
AcDb2dPolyline
 66
     1
 10
0.0
 20
0.0
 30
0.0
  0
VERTEX
  5
487
100
AcDbEntity
  8
PERFIL
  6
CONTINUO
 62
     7
100
AcDbVertex
100
AcDb2dVertex
 10
320.0
 20
47.98
 30
0.0
  0
VERTEX
  5
488
100
AcDbEntity
  8
PERFIL
  6
CONTINUO
 62
     7
100
AcDbVertex
100
AcDb2dVertex
 10
320.0
 20
46.98
 30
0.0
  0
SEQEND
  5
489
100
AcDbEntity
  8
PERFIL
  6
CONTINUO
 62
     7
  0
TEXT
  5
48A
100
AcDbEntity
  8
PERFIL
 62
     7
100
AcDbText
 10
320.75
 20
51.73
 30
0.0
 40
1.5
  1
4.788
 50
90.0
 41
0.733333
  7
SIMPLEX
 72
     5
 11
320.75
 21
57.23
 31
0.0
100
AcDbText
  0
POLYLINE
  5
48B
100
AcDbEntity
  8
PERFIL
  6
CONTINUO
 62
     7
100
AcDb2dPolyline
 66
     1
 10
0.0
 20
0.0
 30
0.0
  0
VERTEX
  5
48C
100
AcDbEntity
  8
PERFIL
  6
CONTINUO
 62
     7
100
AcDbVertex
100
AcDb2dVertex
 10
360.0
 20
61.98
 30
0.0
  0
VERTEX
  5
48D
100
AcDbEntity
  8
PERFIL
  6
CONTINUO
 62
     7
100
AcDbVertex
100
AcDb2dVertex
 10
360.0
 20
60.98
 30
0.0
  0
SEQEND
  5
48E
100
AcDbEntity
  8
PERFIL
  6
CONTINUO
 62
     7
  0
POLYLINE
  5
48F
100
AcDbEntity
  8
PERFIL
  6
CONTINUO
 62
     7
100
AcDb2dPolyline
 66
     1
 10
0.0
 20
0.0
 30
0.0
  0
VERTEX
  5
490
100
AcDbEntity
  8
PERFIL
  6
CONTINUO
 62
     7
100
AcDbVertex
100
AcDb2dVertex
 10
360.0
 20
47.98
 30
0.0
  0
VERTEX
  5
491
100
AcDbEntity
  8
PERFIL
  6
CONTINUO
 62
     7
100
AcDbVertex
100
AcDb2dVertex
 10
360.0
 20
46.98
 30
0.0
  0
SEQEND
  5
492
100
AcDbEntity
  8
PERFIL
  6
CONTINUO
 62
     7
  0
TEXT
  5
493
100
AcDbEntity
  8
PERFIL
 62
     7
100
AcDbText
 10
360.75
 20
51.73
 30
0.0
 40
1.5
  1
4.823
 50
90.0
 41
0.733333
  7
SIMPLEX
 72
     5
 11
360.75
 21
57.23
 31
0.0
100
AcDbText
  0
POLYLINE
  5
494
100
AcDbEntity
  8
PERFIL
  6
CONTINUO
 62
     7
100
AcDb2dPolyline
 66
     1
 10
0.0
 20
0.0
 30
0.0
  0
VERTEX
  5
495
100
AcDbEntity
  8
PERFIL
  6
CONTINUO
 62
     7
100
AcDbVertex
100
AcDb2dVertex
 10
400.0
 20
61.98
 30
0.0
  0
VERTEX
  5
496
100
AcDbEntity
  8
PERFIL
  6
CONTINUO
 62
     7
100
AcDbVertex
100
AcDb2dVertex
 10
400.0
 20
60.98
 30
0.0
  0
SEQEND
  5
497
100
AcDbEntity
  8
PERFIL
  6
CONTINUO
 62
     7
  0
POLYLINE
  5
498
100
AcDbEntity
  8
PERFIL
  6
CONTINUO
 62
     7
100
AcDb2dPolyline
 66
     1
 10
0.0
 20
0.0
 30
0.0
  0
VERTEX
  5
499
100
AcDbEntity
  8
PERFIL
  6
CONTINUO
 62
     7
100
AcDbVertex
100
AcDb2dVertex
 10
400.0
 20
47.98
 30
0.0
  0
VERTEX
  5
49A
100
AcDbEntity
  8
PERFIL
  6
CONTINUO
 62
     7
100
AcDbVertex
100
AcDb2dVertex
 10
400.0
 20
46.98
 30
0.0
  0
SEQEND
  5
49B
100
AcDbEntity
  8
PERFIL
  6
CONTINUO
 62
     7
  0
TEXT
  5
49C
100
AcDbEntity
  8
PERFIL
 62
     7
100
AcDbText
 10
400.75
 20
51.73
 30
0.0
 40
1.5
  1
4.649
 50
90.0
 41
0.733333
  7
SIMPLEX
 72
     5
 11
400.75
 21
57.23
 31
0.0
100
AcDbText
  0
POLYLINE
  5
49D
100
AcDbEntity
  8
PERFIL
  6
CONTINUO
 62
     7
100
AcDb2dPolyline
 66
     1
 10
0.0
 20
0.0
 30
0.0
  0
VERTEX
  5
49E
100
AcDbEntity
  8
PERFIL
  6
CONTINUO
 62
     7
100
AcDbVertex
100
AcDb2dVertex
 10
440.0
 20
61.98
 30
0.0
  0
VERTEX
  5
49F
100
AcDbEntity
  8
PERFIL
  6
CONTINUO
 62
     7
100
AcDbVertex
100
AcDb2dVertex
 10
440.0
 20
60.98
 30
0.0
  0
SEQEND
  5
4A0
100
AcDbEntity
  8
PERFIL
  6
CONTINUO
 62
     7
  0
POLYLINE
  5
4A1
100
AcDbEntity
  8
PERFIL
  6
CONTINUO
 62
     7
100
AcDb2dPolyline
 66
     1
 10
0.0
 20
0.0
 30
0.0
  0
VERTEX
  5
4A2
100
AcDbEntity
  8
PERFIL
  6
CONTINUO
 62
     7
100
AcDbVertex
100
AcDb2dVertex
 10
440.0
 20
47.98
 30
0.0
  0
VERTEX
  5
4A3
100
AcDbEntity
  8
PERFIL
  6
CONTINUO
 62
     7
100
AcDbVertex
100
AcDb2dVertex
 10
440.0
 20
46.98
 30
0.0
  0
SEQEND
  5
4A4
100
AcDbEntity
  8
PERFIL
  6
CONTINUO
 62
     7
  0
TEXT
  5
4A5
100
AcDbEntity
  8
PERFIL
 62
     7
100
AcDbText
 10
440.75
 20
51.73
 30
0.0
 40
1.5
  1
4.867
 50
90.0
 41
0.733333
  7
SIMPLEX
 72
     5
 11
440.75
 21
57.23
 31
0.0
100
AcDbText
  0
POLYLINE
  5
4A6
100
AcDbEntity
  8
PERFIL
  6
CONTINUO
 62
     7
100
AcDb2dPolyline
 66
     1
 10
0.0
 20
0.0
 30
0.0
  0
VERTEX
  5
4A7
100
AcDbEntity
  8
PERFIL
  6
CONTINUO
 62
     7
100
AcDbVertex
100
AcDb2dVertex
 10
-9.0
 20
31.98
 30
0.0
  0
VERTEX
  5
4A8
100
AcDbEntity
  8
PERFIL
  6
CONTINUO
 62
     7
100
AcDbVertex
100
AcDb2dVertex
 10
440.0
 20
31.98
 30
0.0
  0
SEQEND
  5
4A9
100
AcDbEntity
  8
PERFIL
  6
CONTINUO
 62
     7
  0
POLYLINE
  5
4AA
100
AcDbEntity
  8
PERFIL
  6
CONTINUO
 62
     7
100
AcDb2dPolyline
 66
     1
 10
0.0
 20
0.0
 30
0.0
  0
VERTEX
  5
4AB
100
AcDbEntity
  8
PERFIL
  6
CONTINUO
 62
     7
100
AcDbVertex
100
AcDb2dVertex
 10
-9.0
 20
46.98
 30
0.0
  0
VERTEX
  5
4AC
100
AcDbEntity
  8
PERFIL
  6
CONTINUO
 62
     7
100
AcDbVertex
100
AcDb2dVertex
 10
-9.0
 20
31.98
 30
0.0
  0
SEQEND
  5
4AD
100
AcDbEntity
  8
PERFIL
  6
CONTINUO
 62
     7
  0
POLYLINE
  5
4AE
100
AcDbEntity
  8
PERFIL
  6
CONTINUO
 62
     7
100
AcDb2dPolyline
 66
     1
 10
0.0
 20
0.0
 30
0.0
  0
VERTEX
  5
4AF
100
AcDbEntity
  8
PERFIL
  6
CONTINUO
 62
     7
100
AcDbVertex
100
AcDb2dVertex
 10
-3.0
 20
46.98
 30
0.0
  0
VERTEX
  5
4B0
100
AcDbEntity
  8
PERFIL
  6
CONTINUO
 62
     7
100
AcDbVertex
100
AcDb2dVertex
 10
-3.0
 20
31.98
 30
0.0
  0
SEQEND
  5
4B1
100
AcDbEntity
  8
PERFIL
  6
CONTINUO
 62
     7
  0
TEXT
  5
4B2
100
AcDbEntity
  8
PERFIL
 62
     7
100
AcDbText
 10
-6.5
 20
35.141111
 30
0.0
 40
1.5
  1
Cotas do
 50
90.0
 41
0.723148
  7
SIMPLEX
 72
     5
 11
-6.5
 21
43.818889
 31
0.0
100
AcDbText
  0
TEXT
  5
4B3
100
AcDbEntity
  8
PERFIL
 62
     7
100
AcDbText
 10
-3.5
 20
36.057778
 30
0.0
 40
1.5
  1
Projeto
 50
90.0
 41
0.651852
  7
SIMPLEX
 72
     5
 11
-3.5
 21
42.902222
 31
0.0
100
AcDbText
  0
POLYLINE
  5
4B4
100
AcDbEntity
  8
PERFIL
  6
CONTINUO
 62
     7
100
AcDb2dPolyline
 66
     1
 10
0.0
 20
0.0
 30
0.0
  0
VERTEX
  5
4B5
100
AcDbEntity
  8
PERFIL
  6
CONTINUO
 62
     7
100
AcDbVertex
100
AcDb2dVertex
 10
0.0
 20
46.98
 30
0.0
  0
VERTEX
  5
4B6
100
AcDbEntity
  8
PERFIL
  6
CONTINUO
 62
     7
100
AcDbVertex
100
AcDb2dVertex
 10
0.0
 20
45.98
 30
0.0
  0
SEQEND
  5
4B7
100
AcDbEntity
  8
PERFIL
  6
CONTINUO
 62
     7
  0
POLYLINE
  5
4B8
100
AcDbEntity
  8
PERFIL
  6
CONTINUO
 62
     7
100
AcDb2dPolyline
 66
     1
 10
0.0
 20
0.0
 30
0.0
  0
VERTEX
  5
4B9
100
AcDbEntity
  8
PERFIL
  6
CONTINUO
 62
     7
100
AcDbVertex
100
AcDb2dVertex
 10
0.0
 20
32.98
 30
0.0
  0
VERTEX
  5
4BA
100
AcDbEntity
  8
PERFIL
  6
CONTINUO
 62
     7
100
AcDbVertex
100
AcDb2dVertex
 10
0.0
 20
31.98
 30
0.0
  0
SEQEND
  5
4BB
100
AcDbEntity
  8
PERFIL
  6
CONTINUO
 62
     7
  0
TEXT
  5
4BC
100
AcDbEntity
  8
PERFIL
 62
     7
100
AcDbText
 10
0.75
 20
36.73
 30
0.0
 40
1.5
  1
5.149
 50
90.0
 41
0.733333
  7
SIMPLEX
 72
     5
 11
0.75
 21
42.23
 31
0.0
100
AcDbText
  0
POLYLINE
  5
4BD
100
AcDbEntity
  8
PERFIL
  6
CONTINUO
 62
     7
100
AcDb2dPolyline
 66
     1
 10
0.0
 20
0.0
 30
0.0
  0
VERTEX
  5
4BE
100
AcDbEntity
  8
PERFIL
  6
CONTINUO
 62
     7
100
AcDbVertex
100
AcDb2dVertex
 10
7.0
 20
46.98
 30
0.0
  0
VERTEX
  5
4BF
100
AcDbEntity
  8
PERFIL
  6
CONTINUO
 62
     7
100
AcDbVertex
100
AcDb2dVertex
 10
7.0
 20
45.98
 30
0.0
  0
SEQEND
  5
4C0
100
AcDbEntity
  8
PERFIL
  6
CONTINUO
 62
     7
  0
POLYLINE
  5
4C1
100
AcDbEntity
  8
PERFIL
  6
CONTINUO
 62
     7
100
AcDb2dPolyline
 66
     1
 10
0.0
 20
0.0
 30
0.0
  0
VERTEX
  5
4C2
100
AcDbEntity
  8
PERFIL
  6
CONTINUO
 62
     7
100
AcDbVertex
100
AcDb2dVertex
 10
7.0
 20
32.98
 30
0.0
  0
VERTEX
  5
4C3
100
AcDbEntity
  8
PERFIL
  6
CONTINUO
 62
     7
100
AcDbVertex
100
AcDb2dVertex
 10
7.0
 20
31.98
 30
0.0
  0
SEQEND
  5
4C4
100
AcDbEntity
  8
PERFIL
  6
CONTINUO
 62
     7
  0
TEXT
  5
4C5
100
AcDbEntity
  8
PERFIL
 62
     7
100
AcDbText
 10
7.75
 20
36.73
 30
0.0
 40
1.5
  1
5.036
 50
90.0
 41
0.733333
  7
SIMPLEX
 72
     5
 11
7.75
 21
42.23
 31
0.0
100
AcDbText
  0
POLYLINE
  5
4C6
100
AcDbEntity
  8
PERFIL
  6
CONTINUO
 62
     7
100
AcDb2dPolyline
 66
     1
 10
0.0
 20
0.0
 30
0.0
  0
VERTEX
  5
4C7
100
AcDbEntity
  8
PERFIL
  6
CONTINUO
 62
     7
100
AcDbVertex
100
AcDb2dVertex
 10
19.0
 20
46.98
 30
0.0
  0
VERTEX
  5
4C8
100
AcDbEntity
  8
PERFIL
  6
CONTINUO
 62
     7
100
AcDbVertex
100
AcDb2dVertex
 10
19.0
 20
45.98
 30
0.0
  0
SEQEND
  5
4C9
100
AcDbEntity
  8
PERFIL
  6
CONTINUO
 62
     7
  0
POLYLINE
  5
4CA
100
AcDbEntity
  8
PERFIL
  6
CONTINUO
 62
     7
100
AcDb2dPolyline
 66
     1
 10
0.0
 20
0.0
 30
0.0
  0
VERTEX
  5
4CB
100
AcDbEntity
  8
PERFIL
  6
CONTINUO
 62
     7
100
AcDbVertex
100
AcDb2dVertex
 10
19.0
 20
32.98
 30
0.0
  0
VERTEX
  5
4CC
100
AcDbEntity
  8
PERFIL
  6
CONTINUO
 62
     7
100
AcDbVertex
100
AcDb2dVertex
 10
19.0
 20
31.98
 30
0.0
  0
SEQEND
  5
4CD
100
AcDbEntity
  8
PERFIL
  6
CONTINUO
 62
     7
  0
TEXT
  5
4CE
100
AcDbEntity
  8
PERFIL
 62
     7
100
AcDbText
 10
19.75
 20
36.73
 30
0.0
 40
1.5
  1
4.930
 50
90.0
 41
0.733333
  7
SIMPLEX
 72
     5
 11
19.75
 21
42.23
 31
0.0
100
AcDbText
  0
POLYLINE
  5
4CF
100
AcDbEntity
  8
PERFIL
  6
CONTINUO
 62
     7
100
AcDb2dPolyline
 66
     1
 10
0.0
 20
0.0
 30
0.0
  0
VERTEX
  5
4D0
100
AcDbEntity
  8
PERFIL
  6
CONTINUO
 62
     7
100
AcDbVertex
100
AcDb2dVertex
 10
40.0
 20
46.98
 30
0.0
  0
VERTEX
  5
4D1
100
AcDbEntity
  8
PERFIL
  6
CONTINUO
 62
     7
100
AcDbVertex
100
AcDb2dVertex
 10
40.0
 20
45.98
 30
0.0
  0
SEQEND
  5
4D2
100
AcDbEntity
  8
PERFIL
  6
CONTINUO
 62
     7
  0
POLYLINE
  5
4D3
100
AcDbEntity
  8
PERFIL
  6
CONTINUO
 62
     7
100
AcDb2dPolyline
 66
     1
 10
0.0
 20
0.0
 30
0.0
  0
VERTEX
  5
4D4
100
AcDbEntity
  8
PERFIL
  6
CONTINUO
 62
     7
100
AcDbVertex
100
AcDb2dVertex
 10
40.0
 20
32.98
 30
0.0
  0
VERTEX
  5
4D5
100
AcDbEntity
  8
PERFIL
  6
CONTINUO
 62
     7
100
AcDbVertex
100
AcDb2dVertex
 10
40.0
 20
31.98
 30
0.0
  0
SEQEND
  5
4D6
100
AcDbEntity
  8
PERFIL
  6
CONTINUO
 62
     7
  0
TEXT
  5
4D7
100
AcDbEntity
  8
PERFIL
 62
     7
100
AcDbText
 10
40.75
 20
36.73
 30
0.0
 40
1.5
  1
4.899
 50
90.0
 41
0.733333
  7
SIMPLEX
 72
     5
 11
40.75
 21
42.23
 31
0.0
100
AcDbText
  0
POLYLINE
  5
4D8
100
AcDbEntity
  8
PERFIL
  6
CONTINUO
 62
     7
100
AcDb2dPolyline
 66
     1
 10
0.0
 20
0.0
 30
0.0
  0
VERTEX
  5
4D9
100
AcDbEntity
  8
PERFIL
  6
CONTINUO
 62
     7
100
AcDbVertex
100
AcDb2dVertex
 10
80.0
 20
46.98
 30
0.0
  0
VERTEX
  5
4DA
100
AcDbEntity
  8
PERFIL
  6
CONTINUO
 62
     7
100
AcDbVertex
100
AcDb2dVertex
 10
80.0
 20
45.98
 30
0.0
  0
SEQEND
  5
4DB
100
AcDbEntity
  8
PERFIL
  6
CONTINUO
 62
     7
  0
POLYLINE
  5
4DC
100
AcDbEntity
  8
PERFIL
  6
CONTINUO
 62
     7
100
AcDb2dPolyline
 66
     1
 10
0.0
 20
0.0
 30
0.0
  0
VERTEX
  5
4DD
100
AcDbEntity
  8
PERFIL
  6
CONTINUO
 62
     7
100
AcDbVertex
100
AcDb2dVertex
 10
80.0
 20
32.98
 30
0.0
  0
VERTEX
  5
4DE
100
AcDbEntity
  8
PERFIL
  6
CONTINUO
 62
     7
100
AcDbVertex
100
AcDb2dVertex
 10
80.0
 20
31.98
 30
0.0
  0
SEQEND
  5
4DF
100
AcDbEntity
  8
PERFIL
  6
CONTINUO
 62
     7
  0
TEXT
  5
4E0
100
AcDbEntity
  8
PERFIL
 62
     7
100
AcDbText
 10
80.75
 20
36.73
 30
0.0
 40
1.5
  1
4.839
 50
90.0
 41
0.733333
  7
SIMPLEX
 72
     5
 11
80.75
 21
42.23
 31
0.0
100
AcDbText
  0
POLYLINE
  5
4E1
100
AcDbEntity
  8
PERFIL
  6
CONTINUO
 62
     7
100
AcDb2dPolyline
 66
     1
 10
0.0
 20
0.0
 30
0.0
  0
VERTEX
  5
4E2
100
AcDbEntity
  8
PERFIL
  6
CONTINUO
 62
     7
100
AcDbVertex
100
AcDb2dVertex
 10
120.0
 20
46.98
 30
0.0
  0
VERTEX
  5
4E3
100
AcDbEntity
  8
PERFIL
  6
CONTINUO
 62
     7
100
AcDbVertex
100
AcDb2dVertex
 10
120.0
 20
45.98
 30
0.0
  0
SEQEND
  5
4E4
100
AcDbEntity
  8
PERFIL
  6
CONTINUO
 62
     7
  0
POLYLINE
  5
4E5
100
AcDbEntity
  8
PERFIL
  6
CONTINUO
 62
     7
100
AcDb2dPolyline
 66
     1
 10
0.0
 20
0.0
 30
0.0
  0
VERTEX
  5
4E6
100
AcDbEntity
  8
PERFIL
  6
CONTINUO
 62
     7
100
AcDbVertex
100
AcDb2dVertex
 10
120.0
 20
32.98
 30
0.0
  0
VERTEX
  5
4E7
100
AcDbEntity
  8
PERFIL
  6
CONTINUO
 62
     7
100
AcDbVertex
100
AcDb2dVertex
 10
120.0
 20
31.98
 30
0.0
  0
SEQEND
  5
4E8
100
AcDbEntity
  8
PERFIL
  6
CONTINUO
 62
     7
  0
TEXT
  5
4E9
100
AcDbEntity
  8
PERFIL
 62
     7
100
AcDbText
 10
120.75
 20
36.73
 30
0.0
 40
1.5
  1
4.779
 50
90.0
 41
0.733333
  7
SIMPLEX
 72
     5
 11
120.75
 21
42.23
 31
0.0
100
AcDbText
  0
POLYLINE
  5
4EA
100
AcDbEntity
  8
PERFIL
  6
CONTINUO
 62
     7
100
AcDb2dPolyline
 66
     1
 10
0.0
 20
0.0
 30
0.0
  0
VERTEX
  5
4EB
100
AcDbEntity
  8
PERFIL
  6
CONTINUO
 62
     7
100
AcDbVertex
100
AcDb2dVertex
 10
160.0
 20
46.98
 30
0.0
  0
VERTEX
  5
4EC
100
AcDbEntity
  8
PERFIL
  6
CONTINUO
 62
     7
100
AcDbVertex
100
AcDb2dVertex
 10
160.0
 20
45.98
 30
0.0
  0
SEQEND
  5
4ED
100
AcDbEntity
  8
PERFIL
  6
CONTINUO
 62
     7
  0
POLYLINE
  5
4EE
100
AcDbEntity
  8
PERFIL
  6
CONTINUO
 62
     7
100
AcDb2dPolyline
 66
     1
 10
0.0
 20
0.0
 30
0.0
  0
VERTEX
  5
4EF
100
AcDbEntity
  8
PERFIL
  6
CONTINUO
 62
     7
100
AcDbVertex
100
AcDb2dVertex
 10
160.0
 20
32.98
 30
0.0
  0
VERTEX
  5
4F0
100
AcDbEntity
  8
PERFIL
  6
CONTINUO
 62
     7
100
AcDbVertex
100
AcDb2dVertex
 10
160.0
 20
31.98
 30
0.0
  0
SEQEND
  5
4F1
100
AcDbEntity
  8
PERFIL
  6
CONTINUO
 62
     7
  0
TEXT
  5
4F2
100
AcDbEntity
  8
PERFIL
 62
     7
100
AcDbText
 10
160.75
 20
36.73
 30
0.0
 40
1.5
  1
4.719
 50
90.0
 41
0.733333
  7
SIMPLEX
 72
     5
 11
160.75
 21
42.23
 31
0.0
100
AcDbText
  0
POLYLINE
  5
4F3
100
AcDbEntity
  8
PERFIL
  6
CONTINUO
 62
     7
100
AcDb2dPolyline
 66
     1
 10
0.0
 20
0.0
 30
0.0
  0
VERTEX
  5
4F4
100
AcDbEntity
  8
PERFIL
  6
CONTINUO
 62
     7
100
AcDbVertex
100
AcDb2dVertex
 10
200.0
 20
46.98
 30
0.0
  0
VERTEX
  5
4F5
100
AcDbEntity
  8
PERFIL
  6
CONTINUO
 62
     7
100
AcDbVertex
100
AcDb2dVertex
 10
200.0
 20
45.98
 30
0.0
  0
SEQEND
  5
4F6
100
AcDbEntity
  8
PERFIL
  6
CONTINUO
 62
     7
  0
POLYLINE
  5
4F7
100
AcDbEntity
  8
PERFIL
  6
CONTINUO
 62
     7
100
AcDb2dPolyline
 66
     1
 10
0.0
 20
0.0
 30
0.0
  0
VERTEX
  5
4F8
100
AcDbEntity
  8
PERFIL
  6
CONTINUO
 62
     7
100
AcDbVertex
100
AcDb2dVertex
 10
200.0
 20
32.98
 30
0.0
  0
VERTEX
  5
4F9
100
AcDbEntity
  8
PERFIL
  6
CONTINUO
 62
     7
100
AcDbVertex
100
AcDb2dVertex
 10
200.0
 20
31.98
 30
0.0
  0
SEQEND
  5
4FA
100
AcDbEntity
  8
PERFIL
  6
CONTINUO
 62
     7
  0
TEXT
  5
4FB
100
AcDbEntity
  8
PERFIL
 62
     7
100
AcDbText
 10
200.75
 20
36.73
 30
0.0
 40
1.5
  1
4.659
 50
90.0
 41
0.733333
  7
SIMPLEX
 72
     5
 11
200.75
 21
42.23
 31
0.0
100
AcDbText
  0
POLYLINE
  5
4FC
100
AcDbEntity
  8
PERFIL
  6
CONTINUO
 62
     7
100
AcDb2dPolyline
 66
     1
 10
0.0
 20
0.0
 30
0.0
  0
VERTEX
  5
4FD
100
AcDbEntity
  8
PERFIL
  6
CONTINUO
 62
     7
100
AcDbVertex
100
AcDb2dVertex
 10
215.0
 20
46.98
 30
0.0
  0
VERTEX
  5
4FE
100
AcDbEntity
  8
PERFIL
  6
CONTINUO
 62
     7
100
AcDbVertex
100
AcDb2dVertex
 10
215.0
 20
45.98
 30
0.0
  0
SEQEND
  5
4FF
100
AcDbEntity
  8
PERFIL
  6
CONTINUO
 62
     7
  0
POLYLINE
  5
500
100
AcDbEntity
  8
PERFIL
  6
CONTINUO
 62
     7
100
AcDb2dPolyline
 66
     1
 10
0.0
 20
0.0
 30
0.0
  0
VERTEX
  5
501
100
AcDbEntity
  8
PERFIL
  6
CONTINUO
 62
     7
100
AcDbVertex
100
AcDb2dVertex
 10
215.0
 20
32.98
 30
0.0
  0
VERTEX
  5
502
100
AcDbEntity
  8
PERFIL
  6
CONTINUO
 62
     7
100
AcDbVertex
100
AcDb2dVertex
 10
215.0
 20
31.98
 30
0.0
  0
SEQEND
  5
503
100
AcDbEntity
  8
PERFIL
  6
CONTINUO
 62
     7
  0
TEXT
  5
504
100
AcDbEntity
  8
PERFIL
 62
     7
100
AcDbText
 10
215.75
 20
36.73
 30
0.0
 40
1.5
  1
4.636
 50
90.0
 41
0.733333
  7
SIMPLEX
 72
     5
 11
215.75
 21
42.23
 31
0.0
100
AcDbText
  0
POLYLINE
  5
505
100
AcDbEntity
  8
PERFIL
  6
CONTINUO
 62
     7
100
AcDb2dPolyline
 66
     1
 10
0.0
 20
0.0
 30
0.0
  0
VERTEX
  5
506
100
AcDbEntity
  8
PERFIL
  6
CONTINUO
 62
     7
100
AcDbVertex
100
AcDb2dVertex
 10
240.0
 20
46.98
 30
0.0
  0
VERTEX
  5
507
100
AcDbEntity
  8
PERFIL
  6
CONTINUO
 62
     7
100
AcDbVertex
100
AcDb2dVertex
 10
240.0
 20
45.98
 30
0.0
  0
SEQEND
  5
508
100
AcDbEntity
  8
PERFIL
  6
CONTINUO
 62
     7
  0
POLYLINE
  5
509
100
AcDbEntity
  8
PERFIL
  6
CONTINUO
 62
     7
100
AcDb2dPolyline
 66
     1
 10
0.0
 20
0.0
 30
0.0
  0
VERTEX
  5
50A
100
AcDbEntity
  8
PERFIL
  6
CONTINUO
 62
     7
100
AcDbVertex
100
AcDb2dVertex
 10
240.0
 20
32.98
 30
0.0
  0
VERTEX
  5
50B
100
AcDbEntity
  8
PERFIL
  6
CONTINUO
 62
     7
100
AcDbVertex
100
AcDb2dVertex
 10
240.0
 20
31.98
 30
0.0
  0
SEQEND
  5
50C
100
AcDbEntity
  8
PERFIL
  6
CONTINUO
 62
     7
  0
TEXT
  5
50D
100
AcDbEntity
  8
PERFIL
 62
     7
100
AcDbText
 10
240.75
 20
36.73
 30
0.0
 40
1.5
  1
4.899
 50
90.0
 41
0.733333
  7
SIMPLEX
 72
     5
 11
240.75
 21
42.23
 31
0.0
100
AcDbText
  0
POLYLINE
  5
50E
100
AcDbEntity
  8
PERFIL
  6
CONTINUO
 62
     7
100
AcDb2dPolyline
 66
     1
 10
0.0
 20
0.0
 30
0.0
  0
VERTEX
  5
50F
100
AcDbEntity
  8
PERFIL
  6
CONTINUO
 62
     7
100
AcDbVertex
100
AcDb2dVertex
 10
245.0
 20
46.98
 30
0.0
  0
VERTEX
  5
510
100
AcDbEntity
  8
PERFIL
  6
CONTINUO
 62
     7
100
AcDbVertex
100
AcDb2dVertex
 10
245.0
 20
45.98
 30
0.0
  0
SEQEND
  5
511
100
AcDbEntity
  8
PERFIL
  6
CONTINUO
 62
     7
  0
POLYLINE
  5
512
100
AcDbEntity
  8
PERFIL
  6
CONTINUO
 62
     7
100
AcDb2dPolyline
 66
     1
 10
0.0
 20
0.0
 30
0.0
  0
VERTEX
  5
513
100
AcDbEntity
  8
PERFIL
  6
CONTINUO
 62
     7
100
AcDbVertex
100
AcDb2dVertex
 10
245.0
 20
32.98
 30
0.0
  0
VERTEX
  5
514
100
AcDbEntity
  8
PERFIL
  6
CONTINUO
 62
     7
100
AcDbVertex
100
AcDb2dVertex
 10
245.0
 20
31.98
 30
0.0
  0
SEQEND
  5
515
100
AcDbEntity
  8
PERFIL
  6
CONTINUO
 62
     7
  0
TEXT
  5
516
100
AcDbEntity
  8
PERFIL
 62
     7
100
AcDbText
 10
245.75
 20
36.73
 30
0.0
 40
1.5
  1
5.023
 50
90.0
 41
0.733333
  7
SIMPLEX
 72
     5
 11
245.75
 21
42.23
 31
0.0
100
AcDbText
  0
POLYLINE
  5
517
100
AcDbEntity
  8
PERFIL
  6
CONTINUO
 62
     7
100
AcDb2dPolyline
 66
     1
 10
0.0
 20
0.0
 30
0.0
  0
VERTEX
  5
518
100
AcDbEntity
  8
PERFIL
  6
CONTINUO
 62
     7
100
AcDbVertex
100
AcDb2dVertex
 10
268.0
 20
46.98
 30
0.0
  0
VERTEX
  5
519
100
AcDbEntity
  8
PERFIL
  6
CONTINUO
 62
     7
100
AcDbVertex
100
AcDb2dVertex
 10
268.0
 20
45.98
 30
0.0
  0
SEQEND
  5
51A
100
AcDbEntity
  8
PERFIL
  6
CONTINUO
 62
     7
  0
POLYLINE
  5
51B
100
AcDbEntity
  8
PERFIL
  6
CONTINUO
 62
     7
100
AcDb2dPolyline
 66
     1
 10
0.0
 20
0.0
 30
0.0
  0
VERTEX
  5
51C
100
AcDbEntity
  8
PERFIL
  6
CONTINUO
 62
     7
100
AcDbVertex
100
AcDb2dVertex
 10
268.0
 20
32.98
 30
0.0
  0
VERTEX
  5
51D
100
AcDbEntity
  8
PERFIL
  6
CONTINUO
 62
     7
100
AcDbVertex
100
AcDb2dVertex
 10
268.0
 20
31.98
 30
0.0
  0
SEQEND
  5
51E
100
AcDbEntity
  8
PERFIL
  6
CONTINUO
 62
     7
  0
TEXT
  5
51F
100
AcDbEntity
  8
PERFIL
 62
     7
100
AcDbText
 10
268.75
 20
36.73
 30
0.0
 40
1.5
  1
5.652
 50
90.0
 41
0.733333
  7
SIMPLEX
 72
     5
 11
268.75
 21
42.23
 31
0.0
100
AcDbText
  0
POLYLINE
  5
520
100
AcDbEntity
  8
PERFIL
  6
CONTINUO
 62
     7
100
AcDb2dPolyline
 66
     1
 10
0.0
 20
0.0
 30
0.0
  0
VERTEX
  5
521
100
AcDbEntity
  8
PERFIL
  6
CONTINUO
 62
     7
100
AcDbVertex
100
AcDb2dVertex
 10
280.0
 20
46.98
 30
0.0
  0
VERTEX
  5
522
100
AcDbEntity
  8
PERFIL
  6
CONTINUO
 62
     7
100
AcDbVertex
100
AcDb2dVertex
 10
280.0
 20
45.98
 30
0.0
  0
SEQEND
  5
523
100
AcDbEntity
  8
PERFIL
  6
CONTINUO
 62
     7
  0
POLYLINE
  5
524
100
AcDbEntity
  8
PERFIL
  6
CONTINUO
 62
     7
100
AcDb2dPolyline
 66
     1
 10
0.0
 20
0.0
 30
0.0
  0
VERTEX
  5
525
100
AcDbEntity
  8
PERFIL
  6
CONTINUO
 62
     7
100
AcDbVertex
100
AcDb2dVertex
 10
280.0
 20
32.98
 30
0.0
  0
VERTEX
  5
526
100
AcDbEntity
  8
PERFIL
  6
CONTINUO
 62
     7
100
AcDbVertex
100
AcDb2dVertex
 10
280.0
 20
31.98
 30
0.0
  0
SEQEND
  5
527
100
AcDbEntity
  8
PERFIL
  6
CONTINUO
 62
     7
  0
TEXT
  5
528
100
AcDbEntity
  8
PERFIL
 62
     7
100
AcDbText
 10
280.75
 20
36.73
 30
0.0
 40
1.5
  1
5.844
 50
90.0
 41
0.733333
  7
SIMPLEX
 72
     5
 11
280.75
 21
42.23
 31
0.0
100
AcDbText
  0
POLYLINE
  5
529
100
AcDbEntity
  8
PERFIL
  6
CONTINUO
 62
     7
100
AcDb2dPolyline
 66
     1
 10
0.0
 20
0.0
 30
0.0
  0
VERTEX
  5
52A
100
AcDbEntity
  8
PERFIL
  6
CONTINUO
 62
     7
100
AcDbVertex
100
AcDb2dVertex
 10
298.0
 20
46.98
 30
0.0
  0
VERTEX
  5
52B
100
AcDbEntity
  8
PERFIL
  6
CONTINUO
 62
     7
100
AcDbVertex
100
AcDb2dVertex
 10
298.0
 20
45.98
 30
0.0
  0
SEQEND
  5
52C
100
AcDbEntity
  8
PERFIL
  6
CONTINUO
 62
     7
  0
POLYLINE
  5
52D
100
AcDbEntity
  8
PERFIL
  6
CONTINUO
 62
     7
100
AcDb2dPolyline
 66
     1
 10
0.0
 20
0.0
 30
0.0
  0
VERTEX
  5
52E
100
AcDbEntity
  8
PERFIL
  6
CONTINUO
 62
     7
100
AcDbVertex
100
AcDb2dVertex
 10
298.0
 20
32.98
 30
0.0
  0
VERTEX
  5
52F
100
AcDbEntity
  8
PERFIL
  6
CONTINUO
 62
     7
100
AcDbVertex
100
AcDb2dVertex
 10
298.0
 20
31.98
 30
0.0
  0
SEQEND
  5
530
100
AcDbEntity
  8
PERFIL
  6
CONTINUO
 62
     7
  0
TEXT
  5
531
100
AcDbEntity
  8
PERFIL
 62
     7
100
AcDbText
 10
298.75
 20
36.73
 30
0.0
 40
1.5
  1
5.624
 50
90.0
 41
0.733333
  7
SIMPLEX
 72
     5
 11
298.75
 21
42.23
 31
0.0
100
AcDbText
  0
POLYLINE
  5
532
100
AcDbEntity
  8
PERFIL
  6
CONTINUO
 62
     7
100
AcDb2dPolyline
 66
     1
 10
0.0
 20
0.0
 30
0.0
  0
VERTEX
  5
533
100
AcDbEntity
  8
PERFIL
  6
CONTINUO
 62
     7
100
AcDbVertex
100
AcDb2dVertex
 10
310.0
 20
46.98
 30
0.0
  0
VERTEX
  5
534
100
AcDbEntity
  8
PERFIL
  6
CONTINUO
 62
     7
100
AcDbVertex
100
AcDb2dVertex
 10
310.0
 20
45.98
 30
0.0
  0
SEQEND
  5
535
100
AcDbEntity
  8
PERFIL
  6
CONTINUO
 62
     7
  0
POLYLINE
  5
536
100
AcDbEntity
  8
PERFIL
  6
CONTINUO
 62
     7
100
AcDb2dPolyline
 66
     1
 10
0.0
 20
0.0
 30
0.0
  0
VERTEX
  5
537
100
AcDbEntity
  8
PERFIL
  6
CONTINUO
 62
     7
100
AcDbVertex
100
AcDb2dVertex
 10
310.0
 20
32.98
 30
0.0
  0
VERTEX
  5
538
100
AcDbEntity
  8
PERFIL
  6
CONTINUO
 62
     7
100
AcDbVertex
100
AcDb2dVertex
 10
310.0
 20
31.98
 30
0.0
  0
SEQEND
  5
539
100
AcDbEntity
  8
PERFIL
  6
CONTINUO
 62
     7
  0
TEXT
  5
53A
100
AcDbEntity
  8
PERFIL
 62
     7
100
AcDbText
 10
310.75
 20
36.73
 30
0.0
 40
1.5
  1
5.273
 50
90.0
 41
0.733333
  7
SIMPLEX
 72
     5
 11
310.75
 21
42.23
 31
0.0
100
AcDbText
  0
POLYLINE
  5
53B
100
AcDbEntity
  8
PERFIL
  6
CONTINUO
 62
     7
100
AcDb2dPolyline
 66
     1
 10
0.0
 20
0.0
 30
0.0
  0
VERTEX
  5
53C
100
AcDbEntity
  8
PERFIL
  6
CONTINUO
 62
     7
100
AcDbVertex
100
AcDb2dVertex
 10
320.0
 20
46.98
 30
0.0
  0
VERTEX
  5
53D
100
AcDbEntity
  8
PERFIL
  6
CONTINUO
 62
     7
100
AcDbVertex
100
AcDb2dVertex
 10
320.0
 20
45.98
 30
0.0
  0
SEQEND
  5
53E
100
AcDbEntity
  8
PERFIL
  6
CONTINUO
 62
     7
  0
POLYLINE
  5
53F
100
AcDbEntity
  8
PERFIL
  6
CONTINUO
 62
     7
100
AcDb2dPolyline
 66
     1
 10
0.0
 20
0.0
 30
0.0
  0
VERTEX
  5
540
100
AcDbEntity
  8
PERFIL
  6
CONTINUO
 62
     7
100
AcDbVertex
100
AcDb2dVertex
 10
320.0
 20
32.98
 30
0.0
  0
VERTEX
  5
541
100
AcDbEntity
  8
PERFIL
  6
CONTINUO
 62
     7
100
AcDbVertex
100
AcDb2dVertex
 10
320.0
 20
31.98
 30
0.0
  0
SEQEND
  5
542
100
AcDbEntity
  8
PERFIL
  6
CONTINUO
 62
     7
  0
TEXT
  5
543
100
AcDbEntity
  8
PERFIL
 62
     7
100
AcDbText
 10
320.75
 20
36.73
 30
0.0
 40
1.5
  1
5.027
 50
90.0
 41
0.733333
  7
SIMPLEX
 72
     5
 11
320.75
 21
42.23
 31
0.0
100
AcDbText
  0
POLYLINE
  5
544
100
AcDbEntity
  8
PERFIL
  6
CONTINUO
 62
     7
100
AcDb2dPolyline
 66
     1
 10
0.0
 20
0.0
 30
0.0
  0
VERTEX
  5
545
100
AcDbEntity
  8
PERFIL
  6
CONTINUO
 62
     7
100
AcDbVertex
100
AcDb2dVertex
 10
340.0
 20
46.98
 30
0.0
  0
VERTEX
  5
546
100
AcDbEntity
  8
PERFIL
  6
CONTINUO
 62
     7
100
AcDbVertex
100
AcDb2dVertex
 10
340.0
 20
45.98
 30
0.0
  0
SEQEND
  5
547
100
AcDbEntity
  8
PERFIL
  6
CONTINUO
 62
     7
  0
POLYLINE
  5
548
100
AcDbEntity
  8
PERFIL
  6
CONTINUO
 62
     7
100
AcDb2dPolyline
 66
     1
 10
0.0
 20
0.0
 30
0.0
  0
VERTEX
  5
549
100
AcDbEntity
  8
PERFIL
  6
CONTINUO
 62
     7
100
AcDbVertex
100
AcDb2dVertex
 10
340.0
 20
32.98
 30
0.0
  0
VERTEX
  5
54A
100
AcDbEntity
  8
PERFIL
  6
CONTINUO
 62
     7
100
AcDbVertex
100
AcDb2dVertex
 10
340.0
 20
31.98
 30
0.0
  0
SEQEND
  5
54B
100
AcDbEntity
  8
PERFIL
  6
CONTINUO
 62
     7
  0
TEXT
  5
54C
100
AcDbEntity
  8
PERFIL
 62
     7
100
AcDbText
 10
340.75
 20
36.73
 30
0.0
 40
1.5
  1
4.813
 50
90.0
 41
0.733333
  7
SIMPLEX
 72
     5
 11
340.75
 21
42.23
 31
0.0
100
AcDbText
  0
POLYLINE
  5
54D
100
AcDbEntity
  8
PERFIL
  6
CONTINUO
 62
     7
100
AcDb2dPolyline
 66
     1
 10
0.0
 20
0.0
 30
0.0
  0
VERTEX
  5
54E
100
AcDbEntity
  8
PERFIL
  6
CONTINUO
 62
     7
100
AcDbVertex
100
AcDb2dVertex
 10
360.0
 20
46.98
 30
0.0
  0
VERTEX
  5
54F
100
AcDbEntity
  8
PERFIL
  6
CONTINUO
 62
     7
100
AcDbVertex
100
AcDb2dVertex
 10
360.0
 20
45.98
 30
0.0
  0
SEQEND
  5
550
100
AcDbEntity
  8
PERFIL
  6
CONTINUO
 62
     7
  0
POLYLINE
  5
551
100
AcDbEntity
  8
PERFIL
  6
CONTINUO
 62
     7
100
AcDb2dPolyline
 66
     1
 10
0.0
 20
0.0
 30
0.0
  0
VERTEX
  5
552
100
AcDbEntity
  8
PERFIL
  6
CONTINUO
 62
     7
100
AcDbVertex
100
AcDb2dVertex
 10
360.0
 20
32.98
 30
0.0
  0
VERTEX
  5
553
100
AcDbEntity
  8
PERFIL
  6
CONTINUO
 62
     7
100
AcDbVertex
100
AcDb2dVertex
 10
360.0
 20
31.98
 30
0.0
  0
SEQEND
  5
554
100
AcDbEntity
  8
PERFIL
  6
CONTINUO
 62
     7
  0
TEXT
  5
555
100
AcDbEntity
  8
PERFIL
 62
     7
100
AcDbText
 10
360.75
 20
36.73
 30
0.0
 40
1.5
  1
4.783
 50
90.0
 41
0.733333
  7
SIMPLEX
 72
     5
 11
360.75
 21
42.23
 31
0.0
100
AcDbText
  0
POLYLINE
  5
556
100
AcDbEntity
  8
PERFIL
  6
CONTINUO
 62
     7
100
AcDb2dPolyline
 66
     1
 10
0.0
 20
0.0
 30
0.0
  0
VERTEX
  5
557
100
AcDbEntity
  8
PERFIL
  6
CONTINUO
 62
     7
100
AcDbVertex
100
AcDb2dVertex
 10
400.0
 20
46.98
 30
0.0
  0
VERTEX
  5
558
100
AcDbEntity
  8
PERFIL
  6
CONTINUO
 62
     7
100
AcDbVertex
100
AcDb2dVertex
 10
400.0
 20
45.98
 30
0.0
  0
SEQEND
  5
559
100
AcDbEntity
  8
PERFIL
  6
CONTINUO
 62
     7
  0
POLYLINE
  5
55A
100
AcDbEntity
  8
PERFIL
  6
CONTINUO
 62
     7
100
AcDb2dPolyline
 66
     1
 10
0.0
 20
0.0
 30
0.0
  0
VERTEX
  5
55B
100
AcDbEntity
  8
PERFIL
  6
CONTINUO
 62
     7
100
AcDbVertex
100
AcDb2dVertex
 10
400.0
 20
32.98
 30
0.0
  0
VERTEX
  5
55C
100
AcDbEntity
  8
PERFIL
  6
CONTINUO
 62
     7
100
AcDbVertex
100
AcDb2dVertex
 10
400.0
 20
31.98
 30
0.0
  0
SEQEND
  5
55D
100
AcDbEntity
  8
PERFIL
  6
CONTINUO
 62
     7
  0
TEXT
  5
55E
100
AcDbEntity
  8
PERFIL
 62
     7
100
AcDbText
 10
400.75
 20
36.73
 30
0.0
 40
1.5
  1
4.723
 50
90.0
 41
0.733333
  7
SIMPLEX
 72
     5
 11
400.75
 21
42.23
 31
0.0
100
AcDbText
  0
POLYLINE
  5
55F
100
AcDbEntity
  8
PERFIL
  6
CONTINUO
 62
     7
100
AcDb2dPolyline
 66
     1
 10
0.0
 20
0.0
 30
0.0
  0
VERTEX
  5
560
100
AcDbEntity
  8
PERFIL
  6
CONTINUO
 62
     7
100
AcDbVertex
100
AcDb2dVertex
 10
440.0
 20
46.98
 30
0.0
  0
VERTEX
  5
561
100
AcDbEntity
  8
PERFIL
  6
CONTINUO
 62
     7
100
AcDbVertex
100
AcDb2dVertex
 10
440.0
 20
45.98
 30
0.0
  0
SEQEND
  5
562
100
AcDbEntity
  8
PERFIL
  6
CONTINUO
 62
     7
  0
POLYLINE
  5
563
100
AcDbEntity
  8
PERFIL
  6
CONTINUO
 62
     7
100
AcDb2dPolyline
 66
     1
 10
0.0
 20
0.0
 30
0.0
  0
VERTEX
  5
564
100
AcDbEntity
  8
PERFIL
  6
CONTINUO
 62
     7
100
AcDbVertex
100
AcDb2dVertex
 10
440.0
 20
32.98
 30
0.0
  0
VERTEX
  5
565
100
AcDbEntity
  8
PERFIL
  6
CONTINUO
 62
     7
100
AcDbVertex
100
AcDb2dVertex
 10
440.0
 20
31.98
 30
0.0
  0
SEQEND
  5
566
100
AcDbEntity
  8
PERFIL
  6
CONTINUO
 62
     7
  0
TEXT
  5
567
100
AcDbEntity
  8
PERFIL
 62
     7
100
AcDbText
 10
440.75
 20
36.73
 30
0.0
 40
1.5
  1
4.663
 50
90.0
 41
0.733333
  7
SIMPLEX
 72
     5
 11
440.75
 21
42.23
 31
0.0
100
AcDbText
  0
POLYLINE
  5
568
100
AcDbEntity
  8
PERFIL
  6
CONTINUO
 62
     7
100
AcDb2dPolyline
 66
     1
 10
0.0
 20
0.0
 30
0.0
  0
VERTEX
  5
569
100
AcDbEntity
  8
PERFIL
  6
CONTINUO
 62
     7
100
AcDbVertex
100
AcDb2dVertex
 10
-9.0
 20
16.98
 30
0.0
  0
VERTEX
  5
56A
100
AcDbEntity
  8
PERFIL
  6
CONTINUO
 62
     7
100
AcDbVertex
100
AcDb2dVertex
 10
440.0
 20
16.98
 30
0.0
  0
SEQEND
  5
56B
100
AcDbEntity
  8
PERFIL
  6
CONTINUO
 62
     7
  0
POLYLINE
  5
56C
100
AcDbEntity
  8
PERFIL
  6
CONTINUO
 62
     7
100
AcDb2dPolyline
 66
     1
 10
0.0
 20
0.0
 30
0.0
  0
VERTEX
  5
56D
100
AcDbEntity
  8
PERFIL
  6
CONTINUO
 62
     7
100
AcDbVertex
100
AcDb2dVertex
 10
-9.0
 20
31.98
 30
0.0
  0
VERTEX
  5
56E
100
AcDbEntity
  8
PERFIL
  6
CONTINUO
 62
     7
100
AcDbVertex
100
AcDb2dVertex
 10
-9.0
 20
16.98
 30
0.0
  0
SEQEND
  5
56F
100
AcDbEntity
  8
PERFIL
  6
CONTINUO
 62
     7
  0
POLYLINE
  5
570
100
AcDbEntity
  8
PERFIL
  6
CONTINUO
 62
     7
100
AcDb2dPolyline
 66
     1
 10
0.0
 20
0.0
 30
0.0
  0
VERTEX
  5
571
100
AcDbEntity
  8
PERFIL
  6
CONTINUO
 62
     7
100
AcDbVertex
100
AcDb2dVertex
 10
-3.0
 20
31.98
 30
0.0
  0
VERTEX
  5
572
100
AcDbEntity
  8
PERFIL
  6
CONTINUO
 62
     7
100
AcDbVertex
100
AcDb2dVertex
 10
-3.0
 20
16.98
 30
0.0
  0
SEQEND
  5
573
100
AcDbEntity
  8
PERFIL
  6
CONTINUO
 62
     7
  0
TEXT
  5
574
100
AcDbEntity
  8
PERFIL
 62
     7
100
AcDbText
 10
-6.5
 20
19.591111
 30
0.0
 40
1.5
  1
Elementos
 50
90.0
 41
0.72428
  7
SIMPLEX
 72
     5
 11
-6.5
 21
29.368889
 31
0.0
100
AcDbText
  0
TEXT
  5
575
100
AcDbEntity
  8
PERFIL
 62
     7
100
AcDbText
 10
-3.5
 20
19.193889
 30
0.0
 40
1.5
  1
Horizontais
 50
90.0
 41
0.640741
  7
SIMPLEX
 72
     5
 11
-3.5
 21
29.766111
 31
0.0
100
AcDbText
  0
TEXT
  5
576
100
AcDbEntity
  8
PERFIL
 62
     7
100
AcDbText
 10
220.0
 20
17.98
 30
0.0
 40
1.5
  1
L = 367.194
 41
0.759259
  7
SIMPLEX
 72
     5
 11
232.527778
 21
17.98
 31
0.0
100
AcDbText
  0
POLYLINE
  5
577
100
AcDbEntity
  8
PERFIL
  6
CONTINUO
 62
     7
100
AcDb2dPolyline
 66
     1
 10
0.0
 20
0.0
 30
0.0
  0
VERTEX
  5
578
100
AcDbEntity
  8
PERFIL
  6
CONTINUO
 62
     7
100
AcDbVertex
100
AcDb2dVertex
 10
0.0
 20
24.48
 30
0.0
  0
VERTEX
  5
579
100
AcDbEntity
  8
PERFIL
  6
CONTINUO
 62
     7
100
AcDbVertex
100
AcDb2dVertex
 10
440.0
 20
24.48
 30
0.0
  0
SEQEND
  5
57A
100
AcDbEntity
  8
PERFIL
  6
CONTINUO
 62
     7
  0
POLYLINE
  5
57B
100
AcDbEntity
  8
PERFIL
  6
CONTINUO
 62
     7
100
AcDb2dPolyline
 66
     1
 10
0.0
 20
0.0
 30
0.0
  0
VERTEX
  5
57C
100
AcDbEntity
  8
PERFIL
  6
CONTINUO
 62
     7
100
AcDbVertex
100
AcDb2dVertex
 10
-9.0
 20
1.98
 30
0.0
  0
VERTEX
  5
57D
100
AcDbEntity
  8
PERFIL
  6
CONTINUO
 62
     7
100
AcDbVertex
100
AcDb2dVertex
 10
440.0
 20
1.98
 30
0.0
  0
SEQEND
  5
57E
100
AcDbEntity
  8
PERFIL
  6
CONTINUO
 62
     7
  0
POLYLINE
  5
57F
100
AcDbEntity
  8
PERFIL
  6
CONTINUO
 62
     7
100
AcDb2dPolyline
 66
     1
 10
0.0
 20
0.0
 30
0.0
  0
VERTEX
  5
580
100
AcDbEntity
  8
PERFIL
  6
CONTINUO
 62
     7
100
AcDbVertex
100
AcDb2dVertex
 10
-9.0
 20
16.98
 30
0.0
  0
VERTEX
  5
581
100
AcDbEntity
  8
PERFIL
  6
CONTINUO
 62
     7
100
AcDbVertex
100
AcDb2dVertex
 10
-9.0
 20
1.98
 30
0.0
  0
SEQEND
  5
582
100
AcDbEntity
  8
PERFIL
  6
CONTINUO
 62
     7
  0
POLYLINE
  5
583
100
AcDbEntity
  8
PERFIL
  6
CONTINUO
 62
     7
100
AcDb2dPolyline
 66
     1
 10
0.0
 20
0.0
 30
0.0
  0
VERTEX
  5
584
100
AcDbEntity
  8
PERFIL
  6
CONTINUO
 62
     7
100
AcDbVertex
100
AcDb2dVertex
 10
-3.0
 20
16.98
 30
0.0
  0
VERTEX
  5
585
100
AcDbEntity
  8
PERFIL
  6
CONTINUO
 62
     7
100
AcDbVertex
100
AcDb2dVertex
 10
-3.0
 20
1.98
 30
0.0
  0
SEQEND
  5
586
100
AcDbEntity
  8
PERFIL
  6
CONTINUO
 62
     7
  0
POLYLINE
  5
587
100
AcDbEntity
  8
PERFIL
  6
CONTINUO
 62
     7
100
AcDb2dPolyline
 66
     1
 10
0.0
 20
0.0
 30
0.0
  0
VERTEX
  5
588
100
AcDbEntity
  8
PERFIL
  6
CONTINUO
 62
     7
100
AcDbVertex
100
AcDb2dVertex
 10
-6.0
 20
16.98
 30
0.0
  0
VERTEX
  5
589
100
AcDbEntity
  8
PERFIL
  6
CONTINUO
 62
     7
100
AcDbVertex
100
AcDb2dVertex
 10
-6.0
 20
1.98
 30
0.0
  0
SEQEND
  5
58A
100
AcDbEntity
  8
PERFIL
  6
CONTINUO
 62
     7
  0
TEXT
  5
58B
100
AcDbEntity
  8
PERFIL
 62
     7
100
AcDbText
 10
-6.5
 20
7.921667
 30
0.0
 40
1.5
  1
Km
 50
90.0
 41
1.038889
  7
SIMPLEX
 72
     5
 11
-6.5
 21
11.038333
 31
0.0
100
AcDbText
  0
TEXT
  5
58C
100
AcDbEntity
  8
PERFIL
 62
     7
100
AcDbText
 10
-3.5
 20
5.171667
 30
0.0
 40
1.5
  1
Distância
 50
90.0
 41
0.638272
  7
SIMPLEX
 72
     5
 11
-3.5
 21
13.788333
 31
0.0
100
AcDbText
  0
POLYLINE
  5
58D
100
AcDbEntity
  8
PERFIL
  6
CONTINUO
 62
     7
100
AcDb2dPolyline
 66
     1
 10
0.0
 20
0.0
 30
0.0
  0
VERTEX
  5
58E
100
AcDbEntity
  8
PERFIL
  6
CONTINUO
 62
     7
100
AcDbVertex
100
AcDb2dVertex
 10
0.0
 20
16.98
 30
0.0
  0
VERTEX
  5
58F
100
AcDbEntity
  8
PERFIL
  6
CONTINUO
 62
     7
100
AcDbVertex
100
AcDb2dVertex
 10
0.0
 20
1.98
 30
0.0
  0
SEQEND
  5
590
100
AcDbEntity
  8
PERFIL
  6
CONTINUO
 62
     7
  0
TEXT
  5
591
100
AcDbEntity
  8
PERFIL
 62
     7
100
AcDbText
 10
-0.5
 20
2.48
 30
0.0
 40
1.5
  1
+0.000
 50
90.0
 41
0.787654
  7
SIMPLEX
 72
     5
 11
-0.5
 21
9.568889
 31
0.0
100
AcDbText
  0
TEXT
  5
592
100
AcDbEntity
  8
PERFIL
 62
     7
100
AcDbText
 10
2.0
 20
2.48
 30
0.0
 40
1.5
  1
0.000
 50
90.0
 41
0.733333
  7
SIMPLEX
 72
     5
 11
2.0
 21
7.98
 31
0.0
100
AcDbText
  0
POLYLINE
  5
593
100
AcDbEntity
  8
PERFIL
  6
CONTINUO
 62
     7
100
AcDb2dPolyline
 66
     1
 10
0.0
 20
0.0
 30
0.0
  0
VERTEX
  5
594
100
AcDbEntity
  8
PERFIL
  6
CONTINUO
 62
     7
100
AcDbVertex
100
AcDb2dVertex
 10
-9.0
 20
-13.02
 30
0.0
  0
VERTEX
  5
595
100
AcDbEntity
  8
PERFIL
  6
CONTINUO
 62
     7
100
AcDbVertex
100
AcDb2dVertex
 10
440.0
 20
-13.02
 30
0.0
  0
SEQEND
  5
596
100
AcDbEntity
  8
PERFIL
  6
CONTINUO
 62
     7
  0
POLYLINE
  5
597
100
AcDbEntity
  8
PERFIL
  6
CONTINUO
 62
     7
100
AcDb2dPolyline
 66
     1
 10
0.0
 20
0.0
 30
0.0
  0
VERTEX
  5
598
100
AcDbEntity
  8
PERFIL
  6
CONTINUO
 62
     7
100
AcDbVertex
100
AcDb2dVertex
 10
-9.0
 20
1.98
 30
0.0
  0
VERTEX
  5
599
100
AcDbEntity
  8
PERFIL
  6
CONTINUO
 62
     7
100
AcDbVertex
100
AcDb2dVertex
 10
-9.0
 20
-13.02
 30
0.0
  0
SEQEND
  5
59A
100
AcDbEntity
  8
PERFIL
  6
CONTINUO
 62
     7
  0
POLYLINE
  5
59B
100
AcDbEntity
  8
PERFIL
  6
CONTINUO
 62
     7
100
AcDb2dPolyline
 66
     1
 10
0.0
 20
0.0
 30
0.0
  0
VERTEX
  5
59C
100
AcDbEntity
  8
PERFIL
  6
CONTINUO
 62
     7
100
AcDbVertex
100
AcDb2dVertex
 10
-3.0
 20
1.98
 30
0.0
  0
VERTEX
  5
59D
100
AcDbEntity
  8
PERFIL
  6
CONTINUO
 62
     7
100
AcDbVertex
100
AcDb2dVertex
 10
-3.0
 20
-13.02
 30
0.0
  0
SEQEND
  5
59E
100
AcDbEntity
  8
PERFIL
  6
CONTINUO
 62
     7
  0
TEXT
  5
59F
100
AcDbEntity
  8
PERFIL
 62
     7
100
AcDbText
 10
-6.5
 20
-10.408889
 30
0.0
 40
1.5
  1
Elementos
 50
90.0
 41
0.72428
  7
SIMPLEX
 72
     5
 11
-6.5
 21
-0.631111
 31
0.0
100
AcDbText
  0
TEXT
  5
5A0
100
AcDbEntity
  8
PERFIL
 62
     7
100
AcDbText
 10
-3.5
 20
-9.522778
 30
0.0
 40
1.5
  1
Verticais
 50
90.0
 41
0.593004
  7
SIMPLEX
 72
     5
 11
-3.5
 21
-1.517222
 31
0.0
100
AcDbText
  0
POLYLINE
  5
5A1
100
AcDbEntity
  8
PERFIL
  6
CONTINUO
 62
     7
100
AcDb2dPolyline
 66
     1
 10
0.0
 20
0.0
 30
0.0
  0
VERTEX
  5
5A2
100
AcDbEntity
  8
PERFIL
  6
CONTINUO
 62
     7
100
AcDbVertex
100
AcDb2dVertex
 10
0.0
 20
1.98
 30
0.0
  0
VERTEX
  5
5A3
100
AcDbEntity
  8
PERFIL
  6
CONTINUO
 62
     7
100
AcDbVertex
100
AcDb2dVertex
 10
0.0
 20
-13.02
 30
0.0
  0
SEQEND
  5
5A4
100
AcDbEntity
  8
PERFIL
  6
CONTINUO
 62
     7
  0
TEXT
  5
5A5
100
AcDbEntity
  8
PERFIL
 62
     7
100
AcDbText
 10
-0.5
 20
-12.52
 30
0.0
 40
1.5
  1
+0.000
 50
90.0
 41
0.787654
  7
SIMPLEX
 72
     5
 11
-0.5
 21
-5.431111
 31
0.0
100
AcDbText
  0
TEXT
  5
5A6
100
AcDbEntity
  8
PERFIL
 62
     7
100
AcDbText
 10
2.0
 20
-12.52
 30
0.0
 40
1.5
  1
0.000
 50
90.0
 41
0.733333
  7
SIMPLEX
 72
     5
 11
2.0
 21
-7.02
 31
0.0
100
AcDbText
  0
TEXT
  5
5A7
100
AcDbEntity
  8
PERFIL
 62
     7
100
AcDbText
 10
-4.75
 20
-5.52
 30
0.0
 40
1.5
  1
-3.23% em 3.50
 41
0.785714
  7
SIMPLEX
 72
     5
 11
11.75
 21
-5.52
 31
0.0
100
AcDbText
  0
POLYLINE
  5
5A8
100
AcDbEntity
  8
PERFIL
  6
CONTINUO
 62
     7
100
AcDb2dPolyline
 66
     1
 10
0.0
 20
0.0
 30
0.0
  0
VERTEX
  5
5A9
100
AcDbEntity
  8
PERFIL
  6
CONTINUO
 62
     7
100
AcDbVertex
100
AcDb2dVertex
 10
7.0
 20
1.98
 30
0.0
  0
VERTEX
  5
5AA
100
AcDbEntity
  8
PERFIL
  6
CONTINUO
 62
     7
100
AcDbVertex
100
AcDb2dVertex
 10
7.0
 20
-13.02
 30
0.0
  0
SEQEND
  5
5AB
100
AcDbEntity
  8
PERFIL
  6
CONTINUO
 62
     7
  0
TEXT
  5
5AC
100
AcDbEntity
  8
PERFIL
 62
     7
100
AcDbText
 10
6.5
 20
-12.52
 30
0.0
 40
1.5
  1
+3.500
 50
90.0
 41
0.787654
  7
SIMPLEX
 72
     5
 11
6.5
 21
-5.431111
 31
0.0
100
AcDbText
  0
TEXT
  5
5AD
100
AcDbEntity
  8
PERFIL
 62
     7
100
AcDbText
 10
9.0
 20
-12.52
 30
0.0
 40
1.5
  1
3.500
 50
90.0
 41
0.733333
  7
SIMPLEX
 72
     5
 11
9.0
 21
-7.02
 31
0.0
100
AcDbText
  0
TEXT
  5
5AE
100
AcDbEntity
  8
PERFIL
 62
     7
100
AcDbText
 10
6.644444
 20
-5.52
 30
0.0
 40
1.5
  1
CCV = 6.000
 41
0.77037
  7
SIMPLEX
 72
     5
 11
19.355556
 21
-5.52
 31
0.0
100
AcDbText
  0
POLYLINE
  5
5AF
100
AcDbEntity
  8
PERFIL
  6
CONTINUO
 62
     7
100
AcDb2dPolyline
 66
     1
 10
0.0
 20
0.0
 30
0.0
  0
VERTEX
  5
5B0
100
AcDbEntity
  8
PERFIL
  6
CONTINUO
 62
     7
100
AcDbVertex
100
AcDb2dVertex
 10
19.0
 20
1.98
 30
0.0
  0
VERTEX
  5
5B1
100
AcDbEntity
  8
PERFIL
  6
CONTINUO
 62
     7
100
AcDbVertex
100
AcDb2dVertex
 10
19.0
 20
-13.02
 30
0.0
  0
SEQEND
  5
5B2
100
AcDbEntity
  8
PERFIL
  6
CONTINUO
 62
     7
  0
TEXT
  5
5B3
100
AcDbEntity
  8
PERFIL
 62
     7
100
AcDbText
 10
18.5
 20
-12.52
 30
0.0
 40
1.5
  1
+9.500
 50
90.0
 41
0.787654
  7
SIMPLEX
 72
     5
 11
18.5
 21
-5.431111
 31
0.0
100
AcDbText
  0
TEXT
  5
5B4
100
AcDbEntity
  8
PERFIL
 62
     7
100
AcDbText
 10
21.0
 20
-12.52
 30
0.0
 40
1.5
  1
9.500
 50
90.0
 41
0.733333
  7
SIMPLEX
 72
     5
 11
21.0
 21
-7.02
 31
0.0
100
AcDbText
  0
TEXT
  5
5B5
100
AcDbEntity
  8
PERFIL
 62
     7
100
AcDbText
 10
108.138889
 20
-5.52
 30
0.0
 40
1.5
  1
-0.30% em 98.00
 41
0.787654
  7
SIMPLEX
 72
     5
 11
125.861111
 21
-5.52
 31
0.0
100
AcDbText
  0
POLYLINE
  5
5B6
100
AcDbEntity
  8
PERFIL
  6
CONTINUO
 62
     7
100
AcDb2dPolyline
 66
     1
 10
0.0
 20
0.0
 30
0.0
  0
VERTEX
  5
5B7
100
AcDbEntity
  8
PERFIL
  6
CONTINUO
 62
     7
100
AcDbVertex
100
AcDb2dVertex
 10
215.0
 20
1.98
 30
0.0
  0
VERTEX
  5
5B8
100
AcDbEntity
  8
PERFIL
  6
CONTINUO
 62
     7
100
AcDbVertex
100
AcDb2dVertex
 10
215.0
 20
-13.02
 30
0.0
  0
SEQEND
  5
5B9
100
AcDbEntity
  8
PERFIL
  6
CONTINUO
 62
     7
  0
TEXT
  5
5BA
100
AcDbEntity
  8
PERFIL
 62
     7
100
AcDbText
 10
214.5
 20
-12.52
 30
0.0
 40
1.5
  1
+107.500
 50
90.0
 41
0.794444
  7
SIMPLEX
 72
     5
 11
214.5
 21
-2.986667
 31
0.0
100
AcDbText
  0
TEXT
  5
5BB
100
AcDbEntity
  8
PERFIL
 62
     7
100
AcDbText
 10
217.0
 20
-12.52
 30
0.0
 40
1.5
  1
107.500
 50
90.0
 41
0.756614
  7
SIMPLEX
 72
     5
 11
217.0
 21
-4.575556
 31
0.0
100
AcDbText
  0
TEXT
  5
5BC
100
AcDbEntity
  8
PERFIL
 62
     7
100
AcDbText
 10
223.033333
 20
-5.52
 30
0.0
 40
1.5
  1
CCV = 15.000
 41
0.774074
  7
SIMPLEX
 72
     5
 11
236.966667
 21
-5.52
 31
0.0
100
AcDbText
  0
POLYLINE
  5
5BD
100
AcDbEntity
  8
PERFIL
  6
CONTINUO
 62
     7
100
AcDb2dPolyline
 66
     1
 10
0.0
 20
0.0
 30
0.0
  0
VERTEX
  5
5BE
100
AcDbEntity
  8
PERFIL
  6
CONTINUO
 62
     7
100
AcDbVertex
100
AcDb2dVertex
 10
245.0
 20
1.98
 30
0.0
  0
VERTEX
  5
5BF
100
AcDbEntity
  8
PERFIL
  6
CONTINUO
 62
     7
100
AcDbVertex
100
AcDb2dVertex
 10
245.0
 20
-13.02
 30
0.0
  0
SEQEND
  5
5C0
100
AcDbEntity
  8
PERFIL
  6
CONTINUO
 62
     7
  0
TEXT
  5
5C1
100
AcDbEntity
  8
PERFIL
 62
     7
100
AcDbText
 10
244.5
 20
-12.52
 30
0.0
 40
1.5
  1
+122.500
 50
90.0
 41
0.794444
  7
SIMPLEX
 72
     5
 11
244.5
 21
-2.986667
 31
0.0
100
AcDbText
  0
TEXT
  5
5C2
100
AcDbEntity
  8
PERFIL
 62
     7
100
AcDbText
 10
247.0
 20
-12.52
 30
0.0
 40
1.5
  1
122.500
 50
90.0
 41
0.756614
  7
SIMPLEX
 72
     5
 11
247.0
 21
-4.575556
 31
0.0
100
AcDbText
  0
TEXT
  5
5C3
100
AcDbEntity
  8
PERFIL
 62
     7
100
AcDbText
 10
248.433333
 20
-5.52
 30
0.0
 40
1.5
  1
5.46% em 11.50
 41
0.768254
  7
SIMPLEX
 72
     5
 11
264.566667
 21
-5.52
 31
0.0
100
AcDbText
  0
POLYLINE
  5
5C4
100
AcDbEntity
  8
PERFIL
  6
CONTINUO
 62
     7
100
AcDb2dPolyline
 66
     1
 10
0.0
 20
0.0
 30
0.0
  0
VERTEX
  5
5C5
100
AcDbEntity
  8
PERFIL
  6
CONTINUO
 62
     7
100
AcDbVertex
100
AcDb2dVertex
 10
268.0
 20
1.98
 30
0.0
  0
VERTEX
  5
5C6
100
AcDbEntity
  8
PERFIL
  6
CONTINUO
 62
     7
100
AcDbVertex
100
AcDb2dVertex
 10
268.0
 20
-13.02
 30
0.0
  0
SEQEND
  5
5C7
100
AcDbEntity
  8
PERFIL
  6
CONTINUO
 62
     7
  0
TEXT
  5
5C8
100
AcDbEntity
  8
PERFIL
 62
     7
100
AcDbText
 10
267.5
 20
-12.52
 30
0.0
 40
1.5
  1
+134.000
 50
90.0
 41
0.794444
  7
SIMPLEX
 72
     5
 11
267.5
 21
-2.986667
 31
0.0
100
AcDbText
  0
TEXT
  5
5C9
100
AcDbEntity
  8
PERFIL
 62
     7
100
AcDbText
 10
270.0
 20
-12.52
 30
0.0
 40
1.5
  1
134.000
 50
90.0
 41
0.756614
  7
SIMPLEX
 72
     5
 11
270.0
 21
-4.575556
 31
0.0
100
AcDbText
  0
TEXT
  5
5CA
100
AcDbEntity
  8
PERFIL
 62
     7
100
AcDbText
 10
276.033333
 20
-5.52
 30
0.0
 40
1.5
  1
CCV = 15.000
 41
0.774074
  7
SIMPLEX
 72
     5
 11
289.966667
 21
-5.52
 31
0.0
100
AcDbText
  0
POLYLINE
  5
5CB
100
AcDbEntity
  8
PERFIL
  6
CONTINUO
 62
     7
100
AcDb2dPolyline
 66
     1
 10
0.0
 20
0.0
 30
0.0
  0
VERTEX
  5
5CC
100
AcDbEntity
  8
PERFIL
  6
CONTINUO
 62
     7
100
AcDbVertex
100
AcDb2dVertex
 10
298.0
 20
1.98
 30
0.0
  0
VERTEX
  5
5CD
100
AcDbEntity
  8
PERFIL
  6
CONTINUO
 62
     7
100
AcDbVertex
100
AcDb2dVertex
 10
298.0
 20
-13.02
 30
0.0
  0
SEQEND
  5
5CE
100
AcDbEntity
  8
PERFIL
  6
CONTINUO
 62
     7
  0
TEXT
  5
5CF
100
AcDbEntity
  8
PERFIL
 62
     7
100
AcDbText
 10
297.5
 20
-12.52
 30
0.0
 40
1.5
  1
+149.000
 50
90.0
 41
0.794444
  7
SIMPLEX
 72
     5
 11
297.5
 21
-2.986667
 31
0.0
100
AcDbText
  0
TEXT
  5
5D0
100
AcDbEntity
  8
PERFIL
 62
     7
100
AcDbText
 10
300.0
 20
-12.52
 30
0.0
 40
1.5
  1
149.000
 50
90.0
 41
0.756614
  7
SIMPLEX
 72
     5
 11
300.0
 21
-4.575556
 31
0.0
100
AcDbText
  0
TEXT
  5
5D1
100
AcDbEntity
  8
PERFIL
 62
     7
100
AcDbText
 10
295.75
 20
-5.52
 30
0.0
 40
1.5
  1
-5.84% em 6.00
 41
0.785714
  7
SIMPLEX
 72
     5
 11
312.25
 21
-5.52
 31
0.0
100
AcDbText
  0
POLYLINE
  5
5D2
100
AcDbEntity
  8
PERFIL
  6
CONTINUO
 62
     7
100
AcDb2dPolyline
 66
     1
 10
0.0
 20
0.0
 30
0.0
  0
VERTEX
  5
5D3
100
AcDbEntity
  8
PERFIL
  6
CONTINUO
 62
     7
100
AcDbVertex
100
AcDb2dVertex
 10
310.0
 20
1.98
 30
0.0
  0
VERTEX
  5
5D4
100
AcDbEntity
  8
PERFIL
  6
CONTINUO
 62
     7
100
AcDbVertex
100
AcDb2dVertex
 10
310.0
 20
-13.02
 30
0.0
  0
SEQEND
  5
5D5
100
AcDbEntity
  8
PERFIL
  6
CONTINUO
 62
     7
  0
TEXT
  5
5D6
100
AcDbEntity
  8
PERFIL
 62
     7
100
AcDbText
 10
309.5
 20
-12.52
 30
0.0
 40
1.5
  1
+155.000
 50
90.0
 41
0.794444
  7
SIMPLEX
 72
     5
 11
309.5
 21
-2.986667
 31
0.0
100
AcDbText
  0
TEXT
  5
5D7
100
AcDbEntity
  8
PERFIL
 62
     7
100
AcDbText
 10
312.0
 20
-12.52
 30
0.0
 40
1.5
  1
155.000
 50
90.0
 41
0.756614
  7
SIMPLEX
 72
     5
 11
312.0
 21
-4.575556
 31
0.0
100
AcDbText
  0
TEXT
  5
5D8
100
AcDbEntity
  8
PERFIL
 62
     7
100
AcDbText
 10
318.033333
 20
-5.52
 30
0.0
 40
1.5
  1
CCV = 15.000
 41
0.774074
  7
SIMPLEX
 72
     5
 11
331.966667
 21
-5.52
 31
0.0
100
AcDbText
  0
POLYLINE
  5
5D9
100
AcDbEntity
  8
PERFIL
  6
CONTINUO
 62
     7
100
AcDb2dPolyline
 66
     1
 10
0.0
 20
0.0
 30
0.0
  0
VERTEX
  5
5DA
100
AcDbEntity
  8
PERFIL
  6
CONTINUO
 62
     7
100
AcDbVertex
100
AcDb2dVertex
 10
340.0
 20
1.98
 30
0.0
  0
VERTEX
  5
5DB
100
AcDbEntity
  8
PERFIL
  6
CONTINUO
 62
     7
100
AcDbVertex
100
AcDb2dVertex
 10
340.0
 20
-13.02
 30
0.0
  0
SEQEND
  5
5DC
100
AcDbEntity
  8
PERFIL
  6
CONTINUO
 62
     7
  0
TEXT
  5
5DD
100
AcDbEntity
  8
PERFIL
 62
     7
100
AcDbText
 10
339.5
 20
-12.52
 30
0.0
 40
1.5
  1
+170.000
 50
90.0
 41
0.794444
  7
SIMPLEX
 72
     5
 11
339.5
 21
-2.986667
 31
0.0
100
AcDbText
  0
TEXT
  5
5DE
100
AcDbEntity
  8
PERFIL
 62
     7
100
AcDbText
 10
342.0
 20
-12.52
 30
0.0
 40
1.5
  1
170.000
 50
90.0
 41
0.756614
  7
SIMPLEX
 72
     5
 11
342.0
 21
-4.575556
 31
0.0
100
AcDbText
  0
TEXT
  5
5DF
100
AcDbEntity
  8
PERFIL
 62
     7
100
AcDbText
 10
381.138889
 20
-5.52
 30
0.0
 40
1.5
  1
-0.30% em 50.00
 41
0.787654
  7
SIMPLEX
 72
     5
 11
398.861111
 21
-5.52
 31
0.0
100
AcDbText
  0
POLYLINE
  5
5E0
100
AcDbEntity
  8
PERFIL
  6
CONTINUO
 62
     7
100
AcDb2dPolyline
 66
     1
 10
0.0
 20
0.0
 30
0.0
  0
VERTEX
  5
5E1
100
AcDbEntity
  8
PERFIL
  6
CONTINUO
 62
     7
100
AcDbVertex
100
AcDb2dVertex
 10
440.0
 20
1.98
 30
0.0
  0
VERTEX
  5
5E2
100
AcDbEntity
  8
PERFIL
  6
CONTINUO
 62
     7
100
AcDbVertex
100
AcDb2dVertex
 10
440.0
 20
-13.02
 30
0.0
  0
SEQEND
  5
5E3
100
AcDbEntity
  8
PERFIL
  6
CONTINUO
 62
     7
  0
TEXT
  5
5E4
100
AcDbEntity
  8
PERFIL
 62
     7
100
AcDbText
 10
439.5
 20
-12.52
 30
0.0
 40
1.5
  1
+220.000
 50
90.0
 41
0.794444
  7
SIMPLEX
 72
     5
 11
439.5
 21
-2.986667
 31
0.0
100
AcDbText
  0
TEXT
  5
5E5
100
AcDbEntity
  8
PERFIL
 62
     7
100
AcDbText
 10
442.0
 20
-12.52
 30
0.0
 40
1.5
  1
220.000
 50
90.0
 41
0.756614
  7
SIMPLEX
 72
     5
 11
442.0
 21
-4.575556
 31
0.0
100
AcDbText
  0
POLYLINE
  5
5E6
100
AcDbEntity
  8
PERFIL
  6
CONTINUO
 62
     7
100
AcDb2dPolyline
 66
     1
 10
0.0
 20
0.0
 30
0.0
  0
VERTEX
  5
5E7
100
AcDbEntity
  8
PERFIL
  6
CONTINUO
 62
     7
100
AcDbVertex
100
AcDb2dVertex
 10
-9.0
 20
-28.02
 30
0.0
  0
VERTEX
  5
5E8
100
AcDbEntity
  8
PERFIL
  6
CONTINUO
 62
     7
100
AcDbVertex
100
AcDb2dVertex
 10
440.0
 20
-28.02
 30
0.0
  0
SEQEND
  5
5E9
100
AcDbEntity
  8
PERFIL
  6
CONTINUO
 62
     7
  0
POLYLINE
  5
5EA
100
AcDbEntity
  8
PERFIL
  6
CONTINUO
 62
     7
100
AcDb2dPolyline
 66
     1
 10
0.0
 20
0.0
 30
0.0
  0
VERTEX
  5
5EB
100
AcDbEntity
  8
PERFIL
  6
CONTINUO
 62
     7
100
AcDbVertex
100
AcDb2dVertex
 10
-9.0
 20
-13.02
 30
0.0
  0
VERTEX
  5
5EC
100
AcDbEntity
  8
PERFIL
  6
CONTINUO
 62
     7
100
AcDbVertex
100
AcDb2dVertex
 10
-9.0
 20
-28.02
 30
0.0
  0
SEQEND
  5
5ED
100
AcDbEntity
  8
PERFIL
  6
CONTINUO
 62
     7
  0
POLYLINE
  5
5EE
100
AcDbEntity
  8
PERFIL
  6
CONTINUO
 62
     7
100
AcDb2dPolyline
 66
     1
 10
0.0
 20
0.0
 30
0.0
  0
VERTEX
  5
5EF
100
AcDbEntity
  8
PERFIL
  6
CONTINUO
 62
     7
100
AcDbVertex
100
AcDb2dVertex
 10
-3.0
 20
-13.02
 30
0.0
  0
VERTEX
  5
5F0
100
AcDbEntity
  8
PERFIL
  6
CONTINUO
 62
     7
100
AcDbVertex
100
AcDb2dVertex
 10
-3.0
 20
-28.02
 30
0.0
  0
SEQEND
  5
5F1
100
AcDbEntity
  8
PERFIL
  6
CONTINUO
 62
     7
  0
TEXT
  5
5F2
100
AcDbEntity
  8
PERFIL
 62
     7
100
AcDbText
 10
-6.5
 20
-24.033889
 30
0.0
 40
1.5
  1
Super-
 50
90.0
 41
0.780864
  7
SIMPLEX
 72
     5
 11
-6.5
 21
-17.006111
 31
0.0
100
AcDbText
  0
TEXT
  5
5F3
100
AcDbEntity
  8
PERFIL
 62
     7
100
AcDbText
 10
-3.5
 20
-24.675556
 30
0.0
 40
1.5
  1
Elevação
 50
90.0
 41
0.692593
  7
SIMPLEX
 72
     5
 11
-3.5
 21
-16.364444
 31
0.0
100
AcDbText
  0
POLYLINE
  5
5F4
100
AcDbEntity
  8
PERFIL
  6
CONTINUO
 62
     2
100
AcDb2dPolyline
 66
     1
 10
0.0
 20
0.0
 30
0.0
  0
VERTEX
  5
5F5
100
AcDbEntity
  8
PERFIL
  6
CONTINUO
 62
     2
100
AcDbVertex
100
AcDb2dVertex
 10
0.0
 20
-20.52
 30
0.0
  0
VERTEX
  5
5F6
100
AcDbEntity
  8
PERFIL
  6
CONTINUO
 62
     2
100
AcDbVertex
100
AcDb2dVertex
 10
440.0
 20
-20.52
 30
0.0
  0
SEQEND
  5
5F7
100
AcDbEntity
  8
PERFIL
  6
CONTINUO
 62
     2
  0
INSERT
  5
611
100
AcDbEntity
  8
PERFIL
 62
   255
100
AcDbBlockReference
  2
26B8EF0
 10
0.0
 20
0.0
 30
0.0
  0
INSERT
  5
62B
100
AcDbEntity
  8
PERFIL
 62
   255
100
AcDbBlockReference
  2
26BBEF0
 10
0.0
 20
0.0
 30
0.0
  0
INSERT
  5
645
100
AcDbEntity
  8
PERFIL
 62
   255
100
AcDbBlockReference
  2
26BB170
 10
0.0
 20
0.0
 30
0.0
  0
INSERT
  5
65F
100
AcDbEntity
  8
PERFIL
 62
   255
100
AcDbBlockReference
  2
26BC2F0
 10
0.0
 20
0.0
 30
0.0
  0
ENDSEC
  0
SECTION
  2
OBJECTS
  0
DICTIONARY
  5
19
100
AcDbDictionary
  3
ACAD_GROUP
350
1A
  3
ACAD_MLINESTYLE
350
1B
  0
DICTIONARY
  5
1A
102
{ACAD_REACTORS
330
19
102
}
100
AcDbDictionary
  0
DICTIONARY
  5
1B
102
{ACAD_REACTORS
330
19
102
}
100
AcDbDictionary
  3
STANDARD
350
1C
  0
MLINESTYLE
  5
1C
102
{ACAD_REACTORS
330
1B
102
}
100
AcDbMlineStyle
  2
STANDARD
 70
     0
  3

 62
     0
 51
90.0
 52
90.0
 71
     2
 49
0.5
 62
   256
  6
BYLAYER
 49
-0.5
 62
   256
  6
BYLAYER
  0
ENDSEC
  0
EOF
