  0
SECTION
  2
HEADER
  9
$ACADVER
  1
AC1014
  9
$ACADMAINTVER
 70
     0
  9
$DWGCODEPAGE
  3
ANSI_1252
  9
$INSBASE
 10
0.0
 20
0.0
 30
0.0
  9
$EXTMIN
 10
-2.550603
 20
-138.988717
 30
0.0
  9
$EXTMAX
 10
613.845047
 20
273.358717
 30
0.0
  9
$LIMMIN
 10
0.0
 20
0.0
  9
$LIMMAX
 10
0.0
 20
0.0
  9
$ORTHOMODE
 70
     0
  9
$REGENMODE
 70
     1
  9
$FILLMODE
 70
     1
  9
$QTEXTMODE
 70
     0
  9
$MIRRTEXT
 70
     1
  9
$DRAGMODE
 70
     2
  9
$LTSCALE
 40
1.0
  9
$OSMODE
 70
     0
  9
$ATTMODE
 70
     1
  9
$TEXTSIZE
 40
0.2
  9
$TRACEWID
 40
0.05
  9
$TEXTSTYLE
  7
STANDARD
  9
$CLAYER
  8
0
  9
$CELTYPE
  6
CONTINUOUS
  9
$CECOLOR
 62
   256
  9
$CELTSCALE
 40
1.0
  9
$DELOBJ
 70
     1
  9
$DISPSILH
 70
     0
  9
$DIMSCALE
 40
1.0
  9
$DIMASZ
 40
0.18
  9
$DIMEXO
 40
0.0625
  9
$DIMDLI
 40
0.38
  9
$DIMRND
 40
0.0
  9
$DIMDLE
 40
0.0
  9
$DIMEXE
 40
0.18
  9
$DIMTP
 40
0.0
  9
$DIMTM
 40
0.0
  9
$DIMTXT
 40
0.18
  9
$DIMCEN
 40
0.09
  9
$DIMTSZ
 40
0.0
  9
$DIMTOL
 70
     0
  9
$DIMLIM
 70
     0
  9
$DIMTIH
 70
     1
  9
$DIMTOH
 70
     1
  9
$DIMSE1
 70
     0
  9
$DIMSE2
 70
     0
  9
$DIMTAD
 70
     0
  9
$DIMZIN
 70
     0
  9
$DIMBLK
  1

  9
$DIMASO
 70
     1
  9
$DIMSHO
 70
     1
  9
$DIMPOST
  1

  9
$DIMAPOST
  1

  9
$DIMALT
 70
     0
  9
$DIMALTD
 70
     2
  9
$DIMALTF
 40
25.4
  9
$DIMLFAC
 40
1.0
  9
$DIMTOFL
 70
     0
  9
$DIMTVP
 40
0.0
  9
$DIMTIX
 70
     0
  9
$DIMSOXD
 70
     0
  9
$DIMSAH
 70
     0
  9
$DIMBLK1
  1

  9
$DIMBLK2
  1

  9
$DIMSTYLE
  2
STANDARD
  9
$DIMCLRD
 70
     0
  9
$DIMCLRE
 70
     0
  9
$DIMCLRT
 70
     0
  9
$DIMTFAC
 40
1.0
  9
$DIMGAP
 40
0.09
  9
$DIMJUST
 70
     0
  9
$DIMSD1
 70
     0
  9
$DIMSD2
 70
     0
  9
$DIMTOLJ
 70
     1
  9
$DIMTZIN
 70
     0
  9
$DIMALTZ
 70
     0
  9
$DIMALTTZ
 70
     0
  9
$DIMFIT
 70
     3
  9
$DIMUPT
 70
     0
  9
$DIMUNIT
 70
     2
  9
$DIMDEC
 70
     4
  9
$DIMTDEC
 70
     4
  9
$DIMALTU
 70
     2
  9
$DIMALTTD
 70
     2
  9
$DIMTXSTY
  7
STANDARD
  9
$DIMAUNIT
 70
     0
  9
$LUNITS
 70
     2
  9
$LUPREC
 70
     4
  9
$SKETCHINC
 40
0.1
  9
$FILLETRAD
 40
0.0
  9
$AUNITS
 70
     0
  9
$AUPREC
 70
     0
  9
$MENU
  1
acad
  9
$ELEVATION
 40
0.0
  9
$PELEVATION
 40
0.0
  9
$THICKNESS
 40
0.0
  9
$LIMCHECK
 70
     0
  9
$BLIPMODE
 70
     1
  9
$CHAMFERA
 40
0.0
  9
$CHAMFERB
 40
0.0
  9
$CHAMFERC
 40
0.0
  9
$CHAMFERD
 40
0.0
  9
$SKPOLY
 70
     0
  9
$TDCREATE
 40
0.000000000
  9
$TDUPDATE
 40
0.000000000
  9
$TDINDWG
 40
0.0000000000
  9
$TDUSRTIMER
 40
0.0000000000
  9
$USRTIMER
 70
     1
  9
$ANGBASE
 50
0.0
  9
$ANGDIR
 70
     0
  9
$PDMODE
 70
     0
  9
$PDSIZE
 40
0.0
  9
$PLINEWID
 40
0.0
  9
$COORDS
 70
     0
  9
$SPLFRAME
 70
     0
  9
$SPLINETYPE
 70
     6
  9
$SPLINESEGS
 70
     8
  9
$ATTDIA
 70
     0
  9
$ATTREQ
 70
     1
  9
$HANDLING
 70
     1
  9
$HANDSEED
  5
5BA
  9
$SURFTAB1
 70
     6
  9
$SURFTAB2
 70
     6
  9
$SURFTYPE
 70
     6
  9
$SURFU
 70
     6
  9
$SURFV
 70
     6
  9
$UCSNAME
  2

  9
$UCSORG
 10
0.0
 20
0.0
 30
0.0
  9
$UCSXDIR
 10
1.0
 20
0.0
 30
0.0
  9
$UCSYDIR
 10
0.0
 20
1.0
 30
0.0
  9
$PUCSNAME
  2

  9
$PUCSORG
 10
0.0
 20
0.0
 30
0.0
  9
$PUCSXDIR
 10
1.0
 20
0.0
 30
0.0
  9
$PUCSYDIR
 10
0.0
 20
1.0
 30
0.0
  9
$USERI1
 70
     0
  9
$USERI2
 70
     0
  9
$USERI3
 70
     0
  9
$USERI4
 70
     0
  9
$USERI5
 70
     0
  9
$USERR1
 40
0.0
  9
$USERR2
 40
0.0
  9
$USERR3
 40
0.0
  9
$USERR4
 40
0.0
  9
$USERR5
 40
0.0
  9
$WORLDVIEW
 70
     1
  9
$SHADEDGE
 70
     3
  9
$SHADEDIF
 70
    70
  9
$TILEMODE
 70
     1
  9
$MAXACTVP
 70
    16
  9
$PINSBASE
 10
0.0
 20
0.0
 30
0.0
  9
$PLIMCHECK
 70
     0
  9
$PEXTMIN
 10
1.000000E+20
 20
1.000000E+20
 30
1.000000E+20
  9
$PEXTMAX
 10
-1.000000E+20
 20
-1.000000E+20
 30
-1.000000E+20
  9
$PLIMMIN
 10
0.0
 20
0.0
  9
$PLIMMAX
 10
12.0
 20
9.0
  9
$UNITMODE
 70
     0
  9
$VISRETAIN
 70
     0
  9
$PLINEGEN
 70
     1
  9
$PSLTSCALE
 70
     0
  9
$TREEDEPTH
 70
  3020
  9
$PICKSTYLE
 70
     1
  9
$CMLSTYLE
  2
STANDARD
  9
$CMLJUST
 70
     0
  9
$CMLSCALE
 40
1.0
  9
$PROXYGRAPHICS
 70
     0
  9
$MEASUREMENT
 70
     0
  0
ENDSEC
  0
SECTION
  2
CLASSES
  0
CLASS
  1
LWPOLYLINE
  2
AcDbPolyline
  3
"AutoCAD"
 90
        0
280
     0
281
     1
  0
CLASS
  1
IMAGE
  2
AcDbRasterImage
  3
ISM
 90
      127
280
     0
281
     1
  0
CLASS
  1
OLE2FRAME
  2
AcDbOle2Frame
  3
""
 90
        0
280
     0
281
     1
  0
CLASS
  1
HATCH
  2
AcDbHatch
  3
"ACAD_SEDONA"
 90
        0
280
     0
281
     1
  0
CLASS
  1
DICTIONARYVAR
  2
AcDbDictionaryVar
  3
"AutoCAD"
 90
        0
280
     0
281
     0
  0
CLASS
  1
RASTERVARIABLES
  2
AcDbRasterVariables
  3
ISM
 90
        0
280
     0
281
     0
  0
CLASS
  1
IMAGEDEF
  2
AcDbRasterImageDef
  3
ISM
 90
        0
280
     0
281
     0
  0
CLASS
  1
IMAGEDEF_REACTOR
  2
AcDbRasterImageDefReactor
  3
ISM
 90
        1
280
     0
281
     0
  0
CLASS
  1
IDBUFFER
  2
AcDbIdBuffer
  3
"Acad"
 90
        0
280
     0
281
     0
  0
CLASS
  1
SPATIAL_FILTER
  2
AcDbSpatialFilter
  3
"Acad"
 90
        0
280
     0
281
     0
  0
CLASS
  1
XRECORD
  2
AcDbXrecord
  3
"<Built In>"
 90
        0
280
     0
281
     0
  0
CLASS
  1
SORTENTSTABLE
  2
AcDbSortentsTable
  3
"AutoCAD"
 90
        0
280
     0
281
     0
  0
CLASS
  1
LAYER_INDEX
  2
AcDbLayerIndex
  3
"Acad"
 90
        0
280
     0
281
     0
  0
CLASS
  1
SPATIAL_INDEX
  2
AcDbSpatialIndex
  3
"Acad"
 90
        0
280
     0
281
     0
  0
CLASS
  1
OBJECT_PTR
  2
CAseDLPNTableRecord
  3
"ASE-LPNTableRecord"
 90
        1
280
     0
281
     0
  0
ENDSEC
  0
SECTION
  2
TABLES
  0
TABLE
  2
VPORT
  5
7
100
AcDbSymbolTable
 70
     1
  0
VPORT
  5
15
100
AcDbSymbolTableRecord
100
AcDbViewportTableRecord
  2
*ACTIVE
 70
     0
 10
0.0
 20
0.0
 11
1.0
 21
1.0
 12
6.591288
 22
4.579184
 13
0.0
 23
0.0
 14
1.0
 24
1.0
 15
0.0
 25
0.0
 16
0.0
 26
0.0
 36
1.0
 17
0.0
 27
0.0
 37
0.0
 40
9.158369
 41
0.688564
 42
50.0
 43
0.0
 44
0.0
 50
0.0
 51
0.0
 71
     0
 72
   100
 73
     1
 74
     1
 75
     0
 76
     0
 77
     0
 78
     0
  0
ENDTAB
  0
TABLE
  2
LTYPE
  5
4
100
AcDbSymbolTable
 70
    10
  0
LTYPE
  5
11
100
AcDbSymbolTableRecord
100
AcDbLinetypeTableRecord
  2
BYBLOCK
 70
     0
  3

 72
    65
 73
     0
 40
0.0
  0
LTYPE
  5
12
100
AcDbSymbolTableRecord
100
AcDbLinetypeTableRecord
  2
BYLAYER
 70
     0
  3

 72
    65
 73
     0
 40
0.0
  0
LTYPE
  5
13
100
AcDbSymbolTableRecord
100
AcDbLinetypeTableRecord
  2
CONTINUOUS
 70
     0
  3
Solid line
 72
    65
 73
     0
 40
0.0
  0
LTYPE
  5
1D
100
AcDbSymbolTableRecord
100
AcDbLinetypeTableRecord
  2
TRACEJADO
 70
     0
  3
topoGRAPH
 72
    65
 73
     2
 40
4.35
 49
4.0
 74
     0
 49
-0.35
 74
     0
  0
LTYPE
  5
1E
100
AcDbSymbolTableRecord
100
AcDbLinetypeTableRecord
  2
TRACO-PONTO
 70
     0
  3
topoGRAPH
 72
    65
 73
     4
 40
4.7
 49
4.0
 74
     0
 49
-0.35
 74
     0
 49
0.0
 74
     0
 49
-0.35
 74
     0
  0
LTYPE
  5
1F
100
AcDbSymbolTableRecord
100
AcDbLinetypeTableRecord
  2
CERCA
 70
     0
  3
topoGRAPH
 72
    65
 73
     4
 40
4.7
 49
4.0
 74
     0
 49
-0.35
 74
     0
 49
0.0
 74
     0
 49
-0.35
 74
     0
  0
LTYPE
  5
20
100
AcDbSymbolTableRecord
100
AcDbLinetypeTableRecord
  2
PONTILHADO
 70
     0
  3
topoGRAPH
 72
    65
 73
     2
 40
0.5
 49
0.0
 74
     0
 49
-0.5
 74
     0
  0
LTYPE
  5
21
100
AcDbSymbolTableRecord
100
AcDbLinetypeTableRecord
  2
CERCA_VIVA
 70
     0
  3
topoGRAPH
 72
    65
 73
     4
 40
4.7
 49
4.0
 74
     0
 49
-0.35
 74
     0
 49
0.0
 74
     0
 49
-0.35
 74
     0
  0
LTYPE
  5
22
100
AcDbSymbolTableRecord
100
AcDbLinetypeTableRecord
  2
TAPUME
 70
     0
  3
topoGRAPH
 72
    65
 73
     4
 40
4.7
 49
4.0
 74
     0
 49
-0.35
 74
     0
 49
0.0
 74
     0
 49
-0.35
 74
     0
  0
LTYPE
  5
23
100
AcDbSymbolTableRecord
100
AcDbLinetypeTableRecord
  2
CONTINUO
 70
     0
  3
topoGRAPH
 72
    65
 73
     0
 40
0.0
  0
ENDTAB
  0
TABLE
  2
LAYER
  5
2
100
AcDbSymbolTable
 70
     2
  0
LAYER
  5
14
100
AcDbSymbolTableRecord
100
AcDbLayerTableRecord
  2
0
 70
     0
 62
     7
  6
CONTINUOUS
  0
LAYER
  5
2C
100
AcDbSymbolTableRecord
100
AcDbLayerTableRecord
  2
TG
 70
     0
 62
     7
  6
CONTINUO
  0
ENDTAB
  0
TABLE
  2
STYLE
  5
3
100
AcDbSymbolTable
 70
     9
  0
STYLE
  5
17
100
AcDbSymbolTableRecord
100
AcDbTextStyleTableRecord
  2
STANDARD
 70
     0
 40
0.0
 41
1.0
 50
0.0
 71
     0
 42
0.0
  3
txt
  4

  0
STYLE
  5
24
100
AcDbSymbolTableRecord
100
AcDbTextStyleTableRecord
  2
SIMPLEX
 70
     0
 40
0.2
 41
1.0
 50
0.0
 71
     0
 42
0.2
  3
simplex
  4

  0
STYLE
  5
25
100
AcDbSymbolTableRecord
100
AcDbTextStyleTableRecord
  2
COMPLEX
 70
     0
 40
0.2
 41
1.0
 50
0.0
 71
     0
 42
0.2
  3
complex
  4

  0
STYLE
  5
26
100
AcDbSymbolTableRecord
100
AcDbTextStyleTableRecord
  2
ROMANS
 70
     0
 40
0.2
 41
1.0
 50
0.0
 71
     0
 42
0.2
  3
romans
  4

  0
STYLE
  5
27
100
AcDbSymbolTableRecord
100
AcDbTextStyleTableRecord
  2
ROMAND
 70
     0
 40
0.2
 41
1.0
 50
0.0
 71
     0
 42
0.2
  3
romand
  4

  0
STYLE
  5
28
100
AcDbSymbolTableRecord
100
AcDbTextStyleTableRecord
  2
ROMANC
 70
     0
 40
0.2
 41
1.0
 50
0.0
 71
     0
 42
0.2
  3
romanc
  4

  0
STYLE
  5
29
100
AcDbSymbolTableRecord
100
AcDbTextStyleTableRecord
  2
ROMANT
 70
     0
 40
0.2
 41
1.0
 50
0.0
 71
     0
 42
0.2
  3
romant
  4

  0
STYLE
  5
2A
100
AcDbSymbolTableRecord
100
AcDbTextStyleTableRecord
  2
ITALICC
 70
     0
 40
0.2
 41
1.0
 50
0.0
 71
     0
 42
0.2
  3
italicc
  4

  0
STYLE
  5
2B
100
AcDbSymbolTableRecord
100
AcDbTextStyleTableRecord
  2
ITALICT
 70
     0
 40
0.2
 41
1.0
 50
0.0
 71
     0
 42
0.2
  3
italict
  4

  0
ENDTAB
  0
TABLE
  2
VIEW
  5
5
100
AcDbSymbolTable
 70
     0
  0
ENDTAB
  0
TABLE
  2
UCS
  5
6
100
AcDbSymbolTable
 70
     0
  0
ENDTAB
  0
TABLE
  2
APPID
  5
8
100
AcDbSymbolTable
 70
     1
  0
APPID
  5
16
100
AcDbSymbolTableRecord
100
AcDbRegAppTableRecord
  2
ACAD
 70
     0
  0
ENDTAB
  0
TABLE
  2
DIMSTYLE
  5
9
100
AcDbSymbolTable
 70
     1
  0
DIMSTYLE
105
18
100
AcDbSymbolTableRecord
100
AcDbDimStyleTableRecord
  2
STANDARD
 70
     0
  3

  4

  5

  6

  7

 40
1.0
 41
0.18
 42
0.0625
 43
0.38
 44
0.18
 45
0.0
 46
0.0
 47
0.0
 48
0.0
140
0.18
141
0.09
142
0.0
143
25.4
144
1.0
145
0.0
146
1.0
147
0.09
 71
     0
 72
     0
 73
     1
 74
     1
 75
     0
 76
     0
 77
     0
 78
     0
170
     0
171
     2
172
     0
173
     0
174
     0
175
     0
176
     0
177
     0
178
     0
270
     2
271
     4
272
     4
273
     2
274
     2
340
17
275
     0
280
     0
281
     0
282
     0
283
     1
284
     0
285
     0
286
     0
287
     0
288
     0
  0
ENDTAB
  0
TABLE
  2
BLOCK_RECORD
  5
1
100
AcDbSymbolTable
 70
    22
  0
BLOCK_RECORD
  5
A
100
AcDbSymbolTableRecord
100
AcDbBlockTableRecord
  2
*MODEL_SPACE
  0
BLOCK_RECORD
  5
B
100
AcDbSymbolTableRecord
100
AcDbBlockTableRecord
  2
*PAPER_SPACE
  0
BLOCK_RECORD
  5
2D
100
AcDbSymbolTableRecord
100
AcDbBlockTableRecord
  2
SIMB_XIS
  0
BLOCK_RECORD
  5
3B
100
AcDbSymbolTableRecord
100
AcDbBlockTableRecord
  2
SIMB_CIRCULO
  0
BLOCK_RECORD
  5
85
100
AcDbSymbolTableRecord
100
AcDbBlockTableRecord
  2
SIMB_ARVORE
  0
BLOCK_RECORD
  5
161
100
AcDbSymbolTableRecord
100
AcDbBlockTableRecord
  2
SIMB_QUADRADO
  0
BLOCK_RECORD
  5
16E
100
AcDbSymbolTableRecord
100
AcDbBlockTableRecord
  2
SIMB_BOLINHA
  0
BLOCK_RECORD
  5
1B8
100
AcDbSymbolTableRecord
100
AcDbBlockTableRecord
  2
SIMB_CRUZETA
  0
BLOCK_RECORD
  5
1C6
100
AcDbSymbolTableRecord
100
AcDbBlockTableRecord
  2
SIMB_BARRAS
  0
BLOCK_RECORD
  5
1D5
100
AcDbSymbolTableRecord
100
AcDbBlockTableRecord
  2
SIMB_PONTO
  0
BLOCK_RECORD
  5
1DC
100
AcDbSymbolTableRecord
100
AcDbBlockTableRecord
  2
SIMB_TRIANGULO
  0
BLOCK_RECORD
  5
1E8
100
AcDbSymbolTableRecord
100
AcDbBlockTableRecord
  2
SIMB_POSTE
  0
BLOCK_RECORD
  5
1FA
100
AcDbSymbolTableRecord
100
AcDbBlockTableRecord
  2
1E465F0
  0
BLOCK_RECORD
  5
275
100
AcDbSymbolTableRecord
100
AcDbBlockTableRecord
  2
1E4BAF0
  0
BLOCK_RECORD
  5
2BB
100
AcDbSymbolTableRecord
100
AcDbBlockTableRecord
  2
1E48B50
  0
BLOCK_RECORD
  5
301
100
AcDbSymbolTableRecord
100
AcDbBlockTableRecord
  2
1DB4B20
  0
BLOCK_RECORD
  5
34C
100
AcDbSymbolTableRecord
100
AcDbBlockTableRecord
  2
1E53D70
  0
BLOCK_RECORD
  5
39B
100
AcDbSymbolTableRecord
100
AcDbBlockTableRecord
  2
1E50940
  0
BLOCK_RECORD
  5
3E1
100
AcDbSymbolTableRecord
100
AcDbBlockTableRecord
  2
26A6D90
  0
BLOCK_RECORD
  5
42A
100
AcDbSymbolTableRecord
100
AcDbBlockTableRecord
  2
26A4930
  0
BLOCK_RECORD
  5
489
100
AcDbSymbolTableRecord
100
AcDbBlockTableRecord
  2
26D2EF0
  0
BLOCK_RECORD
  5
4CB
100
AcDbSymbolTableRecord
100
AcDbBlockTableRecord
  2
26D4B50
  0
BLOCK_RECORD
  5
50D
100
AcDbSymbolTableRecord
100
AcDbBlockTableRecord
  2
1E29CE0
  0
BLOCK_RECORD
  5
553
100
AcDbSymbolTableRecord
100
AcDbBlockTableRecord
  2
1E29EF0
  0
ENDTAB
  0
ENDSEC
  0
SECTION
  2
BLOCKS
  0
BLOCK
  5
D
100
AcDbEntity
  8
0
100
AcDbBlockBegin
  2
*MODEL_SPACE
 70
     0
 10
0.0
 20
0.0
 30
0.0
  3
*MODEL_SPACE
  1

  0
ENDBLK
  5
E
100
AcDbEntity
  8
0
100
AcDbBlockEnd
  0
BLOCK
  5
F
100
AcDbEntity
 67
     1
  8
0
100
AcDbBlockBegin
  2
*PAPER_SPACE
 70
     0
 10
0.0
 20
0.0
 30
0.0
  3
*PAPER_SPACE
  1

  0
ENDBLK
  5
10
100
AcDbEntity
 67
     1
  8
0
100
AcDbBlockEnd
  0
BLOCK
  5
2E
100
AcDbEntity
  8
0
100
AcDbBlockBegin
  2
SIMB_XIS
 70
     0
 10
0.0
 20
0.0
 30
0.0
  3
SIMB_XIS
  1

  0
POLYLINE
  5
2F
100
AcDbEntity
  8
0
 62
     0
100
AcDb2dPolyline
 66
     1
 10
0.0
 20
0.0
 30
0.0
  0
VERTEX
  5
30
100
AcDbEntity
  8
0
 62
     0
100
AcDbVertex
100
AcDb2dVertex
 10
-0.875
 20
-1.25
 30
0.0
  0
VERTEX
  5
31
100
AcDbEntity
  8
0
 62
     0
100
AcDbVertex
100
AcDb2dVertex
 10
0.875
 20
1.25
 30
0.0
  0
SEQEND
  5
32
100
AcDbEntity
  8
0
 62
     0
  0
POLYLINE
  5
33
100
AcDbEntity
  8
0
 62
     0
100
AcDb2dPolyline
 66
     1
 10
0.0
 20
0.0
 30
0.0
  0
VERTEX
  5
34
100
AcDbEntity
  8
0
 62
     0
100
AcDbVertex
100
AcDb2dVertex
 10
0.875
 20
-1.25
 30
0.0
  0
VERTEX
  5
35
100
AcDbEntity
  8
0
 62
     0
100
AcDbVertex
100
AcDb2dVertex
 10
-0.875
 20
1.25
 30
0.0
  0
SEQEND
  5
36
100
AcDbEntity
  8
0
 62
     0
  0
ATTDEF
  5
37
100
AcDbEntity
  8
0
100
AcDbText
 10
0.0
 20
0.0
 30
0.0
 40
1.0
  1

100
AcDbAttributeDefinition
  3
pto:
  2
PONTO
 70
     0
  0
ATTDEF
  5
38
100
AcDbEntity
  8
0
100
AcDbText
 10
0.0
 20
0.0
 30
0.0
 40
1.0
  1

100
AcDbAttributeDefinition
  3
desc:
  2
DESC
 70
     0
  0
ATTDEF
  5
39
100
AcDbEntity
  8
0
100
AcDbText
 10
0.0
 20
0.0
 30
0.0
 40
1.0
  1

100
AcDbAttributeDefinition
  3
ct:
  2
COTA
 70
     0
  0
ENDBLK
  5
3A
100
AcDbEntity
  8
0
100
AcDbBlockEnd
  0
BLOCK
  5
3C
100
AcDbEntity
  8
0
100
AcDbBlockBegin
  2
SIMB_CIRCULO
 70
     0
 10
0.0
 20
0.0
 30
0.0
  3
SIMB_CIRCULO
  1

  0
POLYLINE
  5
3E
100
AcDbEntity
  8
0
 62
     0
100
AcDb2dPolyline
 66
     1
 10
0.0
 20
0.0
 30
0.0
  0
VERTEX
  5
3F
100
AcDbEntity
  8
0
 62
     0
100
AcDbVertex
100
AcDb2dVertex
 10
1.25
 20
0.0
 30
0.0
  0
VERTEX
  5
40
100
AcDbEntity
  8
0
 62
     0
100
AcDbVertex
100
AcDb2dVertex
 10
1.244
 20
0.125
 30
0.0
  0
VERTEX
  5
41
100
AcDbEntity
  8
0
 62
     0
100
AcDbVertex
100
AcDb2dVertex
 10
1.225
 20
0.2485
 30
0.0
  0
VERTEX
  5
42
100
AcDbEntity
  8
0
 62
     0
100
AcDbVertex
100
AcDb2dVertex
 10
1.194
 20
0.3695
 30
0.0
  0
VERTEX
  5
43
100
AcDbEntity
  8
0
 62
     0
100
AcDbVertex
100
AcDb2dVertex
 10
1.1515
 20
0.487
 30
0.0
  0
VERTEX
  5
44
100
AcDbEntity
  8
0
 62
     0
100
AcDbVertex
100
AcDb2dVertex
 10
1.097
 20
0.5995
 30
0.0
  0
VERTEX
  5
45
100
AcDbEntity
  8
0
 62
     0
100
AcDbVertex
100
AcDb2dVertex
 10
1.0315
 20
0.706
 30
0.0
  0
VERTEX
  5
46
100
AcDbEntity
  8
0
 62
     0
100
AcDbVertex
100
AcDb2dVertex
 10
0.956
 20
0.8055
 30
0.0
  0
VERTEX
  5
47
100
AcDbEntity
  8
0
 62
     0
100
AcDbVertex
100
AcDb2dVertex
 10
0.871
 20
0.8965
 30
0.0
  0
VERTEX
  5
48
100
AcDbEntity
  8
0
 62
     0
100
AcDbVertex
100
AcDb2dVertex
 10
0.777
 20
0.979
 30
0.0
  0
VERTEX
  5
49
100
AcDbEntity
  8
0
 62
     0
100
AcDbVertex
100
AcDb2dVertex
 10
0.6755
 20
1.052
 30
0.0
  0
VERTEX
  5
4A
100
AcDbEntity
  8
0
 62
     0
100
AcDbVertex
100
AcDb2dVertex
 10
0.567
 20
1.114
 30
0.0
  0
VERTEX
  5
4B
100
AcDbEntity
  8
0
 62
     0
100
AcDbVertex
100
AcDb2dVertex
 10
0.453
 20
1.165
 30
0.0
  0
VERTEX
  5
4C
100
AcDbEntity
  8
0
 62
     0
100
AcDbVertex
100
AcDb2dVertex
 10
0.3345
 20
1.2045
 30
0.0
  0
VERTEX
  5
4D
100
AcDbEntity
  8
0
 62
     0
100
AcDbVertex
100
AcDb2dVertex
 10
0.2125
 20
1.232
 30
0.0
  0
VERTEX
  5
4E
100
AcDbEntity
  8
0
 62
     0
100
AcDbVertex
100
AcDb2dVertex
 10
0.0885
 20
1.247
 30
0.0
  0
VERTEX
  5
4F
100
AcDbEntity
  8
0
 62
     0
100
AcDbVertex
100
AcDb2dVertex
 10
-0.0365
 20
1.2495
 30
0.0
  0
VERTEX
  5
50
100
AcDbEntity
  8
0
 62
     0
100
AcDbVertex
100
AcDb2dVertex
 10
-0.161
 20
1.2395
 30
0.0
  0
VERTEX
  5
51
100
AcDbEntity
  8
0
 62
     0
100
AcDbVertex
100
AcDb2dVertex
 10
-0.284
 20
1.2175
 30
0.0
  0
VERTEX
  5
52
100
AcDbEntity
  8
0
 62
     0
100
AcDbVertex
100
AcDb2dVertex
 10
-0.404
 20
1.183
 30
0.0
  0
VERTEX
  5
53
100
AcDbEntity
  8
0
 62
     0
100
AcDbVertex
100
AcDb2dVertex
 10
-0.52
 20
1.1365
 30
0.0
  0
VERTEX
  5
54
100
AcDbEntity
  8
0
 62
     0
100
AcDbVertex
100
AcDb2dVertex
 10
-0.631
 20
1.079
 30
0.0
  0
VERTEX
  5
55
100
AcDbEntity
  8
0
 62
     0
100
AcDbVertex
100
AcDb2dVertex
 10
-0.7355
 20
1.0105
 30
0.0
  0
VERTEX
  5
56
100
AcDbEntity
  8
0
 62
     0
100
AcDbVertex
100
AcDb2dVertex
 10
-0.833
 20
0.932
 30
0.0
  0
VERTEX
  5
57
100
AcDbEntity
  8
0
 62
     0
100
AcDbVertex
100
AcDb2dVertex
 10
-0.9215
 20
0.8445
 30
0.0
  0
VERTEX
  5
58
100
AcDbEntity
  8
0
 62
     0
100
AcDbVertex
100
AcDb2dVertex
 10
-1.0015
 20
0.748
 30
0.0
  0
VERTEX
  5
59
100
AcDbEntity
  8
0
 62
     0
100
AcDbVertex
100
AcDb2dVertex
 10
-1.071
 20
0.6445
 30
0.0
  0
VERTEX
  5
5A
100
AcDbEntity
  8
0
 62
     0
100
AcDbVertex
100
AcDb2dVertex
 10
-1.13
 20
0.534
 30
0.0
  0
VERTEX
  5
5B
100
AcDbEntity
  8
0
 62
     0
100
AcDbVertex
100
AcDb2dVertex
 10
-1.178
 20
0.4185
 30
0.0
  0
VERTEX
  5
5C
100
AcDbEntity
  8
0
 62
     0
100
AcDbVertex
100
AcDb2dVertex
 10
-1.2135
 20
0.299
 30
0.0
  0
VERTEX
  5
5D
100
AcDbEntity
  8
0
 62
     0
100
AcDbVertex
100
AcDb2dVertex
 10
-1.2375
 20
0.1765
 30
0.0
  0
VERTEX
  5
5E
100
AcDbEntity
  8
0
 62
     0
100
AcDbVertex
100
AcDb2dVertex
 10
-1.249
 20
0.052
 30
0.0
  0
VERTEX
  5
5F
100
AcDbEntity
  8
0
 62
     0
100
AcDbVertex
100
AcDb2dVertex
 10
-1.248
 20
-0.073
 30
0.0
  0
VERTEX
  5
60
100
AcDbEntity
  8
0
 62
     0
100
AcDbVertex
100
AcDb2dVertex
 10
-1.2345
 20
-0.197
 30
0.0
  0
VERTEX
  5
61
100
AcDbEntity
  8
0
 62
     0
100
AcDbVertex
100
AcDb2dVertex
 10
-1.2085
 20
-0.3195
 30
0.0
  0
VERTEX
  5
62
100
AcDbEntity
  8
0
 62
     0
100
AcDbVertex
100
AcDb2dVertex
 10
-1.1705
 20
-0.4385
 30
0.0
  0
VERTEX
  5
63
100
AcDbEntity
  8
0
 62
     0
100
AcDbVertex
100
AcDb2dVertex
 10
-1.121
 20
-0.553
 30
0.0
  0
VERTEX
  5
64
100
AcDbEntity
  8
0
 62
     0
100
AcDbVertex
100
AcDb2dVertex
 10
-1.06
 20
-0.6625
 30
0.0
  0
VERTEX
  5
65
100
AcDbEntity
  8
0
 62
     0
100
AcDbVertex
100
AcDb2dVertex
 10
-0.9885
 20
-0.765
 30
0.0
  0
VERTEX
  5
66
100
AcDbEntity
  8
0
 62
     0
100
AcDbVertex
100
AcDb2dVertex
 10
-0.9075
 20
-0.8595
 30
0.0
  0
VERTEX
  5
67
100
AcDbEntity
  8
0
 62
     0
100
AcDbVertex
100
AcDb2dVertex
 10
-0.817
 20
-0.946
 30
0.0
  0
VERTEX
  5
68
100
AcDbEntity
  8
0
 62
     0
100
AcDbVertex
100
AcDb2dVertex
 10
-0.7185
 20
-1.023
 30
0.0
  0
VERTEX
  5
69
100
AcDbEntity
  8
0
 62
     0
100
AcDbVertex
100
AcDb2dVertex
 10
-0.613
 20
-1.0895
 30
0.0
  0
VERTEX
  5
6A
100
AcDbEntity
  8
0
 62
     0
100
AcDbVertex
100
AcDb2dVertex
 10
-0.501
 20
-1.145
 30
0.0
  0
VERTEX
  5
6B
100
AcDbEntity
  8
0
 62
     0
100
AcDbVertex
100
AcDb2dVertex
 10
-0.384
 20
-1.1895
 30
0.0
  0
VERTEX
  5
6C
100
AcDbEntity
  8
0
 62
     0
100
AcDbVertex
100
AcDb2dVertex
 10
-0.2635
 20
-1.222
 30
0.0
  0
VERTEX
  5
6D
100
AcDbEntity
  8
0
 62
     0
100
AcDbVertex
100
AcDb2dVertex
 10
-0.14
 20
-1.242
 30
0.0
  0
VERTEX
  5
6E
100
AcDbEntity
  8
0
 62
     0
100
AcDbVertex
100
AcDb2dVertex
 10
-0.0155
 20
-1.25
 30
0.0
  0
VERTEX
  5
6F
100
AcDbEntity
  8
0
 62
     0
100
AcDbVertex
100
AcDb2dVertex
 10
0.1095
 20
-1.245
 30
0.0
  0
VERTEX
  5
70
100
AcDbEntity
  8
0
 62
     0
100
AcDbVertex
100
AcDb2dVertex
 10
0.233
 20
-1.228
 30
0.0
  0
VERTEX
  5
71
100
AcDbEntity
  8
0
 62
     0
100
AcDbVertex
100
AcDb2dVertex
 10
0.3545
 20
-1.1985
 30
0.0
  0
VERTEX
  5
72
100
AcDbEntity
  8
0
 62
     0
100
AcDbVertex
100
AcDb2dVertex
 10
0.4725
 20
-1.1575
 30
0.0
  0
VERTEX
  5
73
100
AcDbEntity
  8
0
 62
     0
100
AcDbVertex
100
AcDb2dVertex
 10
0.5855
 20
-1.1045
 30
0.0
  0
VERTEX
  5
74
100
AcDbEntity
  8
0
 62
     0
100
AcDbVertex
100
AcDb2dVertex
 10
0.693
 20
-1.0405
 30
0.0
  0
VERTEX
  5
75
100
AcDbEntity
  8
0
 62
     0
100
AcDbVertex
100
AcDb2dVertex
 10
0.7935
 20
-0.966
 30
0.0
  0
VERTEX
  5
76
100
AcDbEntity
  8
0
 62
     0
100
AcDbVertex
100
AcDb2dVertex
 10
0.886
 20
-0.882
 30
0.0
  0
VERTEX
  5
77
100
AcDbEntity
  8
0
 62
     0
100
AcDbVertex
100
AcDb2dVertex
 10
0.9695
 20
-0.789
 30
0.0
  0
VERTEX
  5
78
100
AcDbEntity
  8
0
 62
     0
100
AcDbVertex
100
AcDb2dVertex
 10
1.0435
 20
-0.6885
 30
0.0
  0
VERTEX
  5
79
100
AcDbEntity
  8
0
 62
     0
100
AcDbVertex
100
AcDb2dVertex
 10
1.107
 20
-0.581
 30
0.0
  0
VERTEX
  5
7A
100
AcDbEntity
  8
0
 62
     0
100
AcDbVertex
100
AcDb2dVertex
 10
1.1595
 20
-0.4675
 30
0.0
  0
VERTEX
  5
7B
100
AcDbEntity
  8
0
 62
     0
100
AcDbVertex
100
AcDb2dVertex
 10
1.2
 20
-0.3495
 30
0.0
  0
VERTEX
  5
7C
100
AcDbEntity
  8
0
 62
     0
100
AcDbVertex
100
AcDb2dVertex
 10
1.229
 20
-0.2275
 30
0.0
  0
VERTEX
  5
7D
100
AcDbEntity
  8
0
 62
     0
100
AcDbVertex
100
AcDb2dVertex
 10
1.2455
 20
-0.104
 30
0.0
  0
VERTEX
  5
7E
100
AcDbEntity
  8
0
 62
     0
100
AcDbVertex
100
AcDb2dVertex
 10
1.25
 20
0.0
 30
0.0
  0
SEQEND
  5
7F
100
AcDbEntity
  8
0
 62
     0
  0
POINT
  5
80
100
AcDbEntity
  8
0
 62
     0
100
AcDbPoint
 10
0.0
 20
0.0
 30
0.0
  0
ATTDEF
  5
81
100
AcDbEntity
  8
0
100
AcDbText
 10
0.0
 20
0.0
 30
0.0
 40
1.0
  1

100
AcDbAttributeDefinition
  3
pto:
  2
PONTO
 70
     0
  0
ATTDEF
  5
82
100
AcDbEntity
  8
0
100
AcDbText
 10
0.0
 20
0.0
 30
0.0
 40
1.0
  1

100
AcDbAttributeDefinition
  3
desc:
  2
DESC
 70
     0
  0
ATTDEF
  5
83
100
AcDbEntity
  8
0
100
AcDbText
 10
0.0
 20
0.0
 30
0.0
 40
1.0
  1

100
AcDbAttributeDefinition
  3
ct:
  2
COTA
 70
     0
  0
ENDBLK
  5
84
100
AcDbEntity
  8
0
100
AcDbBlockEnd
  0
BLOCK
  5
86
100
AcDbEntity
  8
0
100
AcDbBlockBegin
  2
SIMB_ARVORE
 70
     0
 10
0.0
 20
0.0
 30
0.0
  3
SIMB_ARVORE
  1

  0
POLYLINE
  5
88
100
AcDbEntity
  8
0
 62
     0
100
AcDb2dPolyline
 66
     1
 10
0.0
 20
0.0
 30
0.0
  0
VERTEX
  5
89
100
AcDbEntity
  8
0
 62
     0
100
AcDbVertex
100
AcDb2dVertex
 10
-0.0025
 20
4.674
 30
0.0
  0
VERTEX
  5
8A
100
AcDbEntity
  8
0
 62
     0
100
AcDbVertex
100
AcDb2dVertex
 10
-0.1085
 20
4.9415
 30
0.0
  0
VERTEX
  5
8B
100
AcDbEntity
  8
0
 62
     0
100
AcDbVertex
100
AcDb2dVertex
 10
-0.2405
 20
5.1965
 30
0.0
  0
VERTEX
  5
8C
100
AcDbEntity
  8
0
 62
     0
100
AcDbVertex
100
AcDb2dVertex
 10
-0.3975
 20
5.4375
 30
0.0
  0
VERTEX
  5
8D
100
AcDbEntity
  8
0
 62
     0
100
AcDbVertex
100
AcDb2dVertex
 10
-0.5775
 20
5.6615
 30
0.0
  0
VERTEX
  5
8E
100
AcDbEntity
  8
0
 62
     0
100
AcDbVertex
100
AcDb2dVertex
 10
-0.779
 20
5.866
 30
0.0
  0
VERTEX
  5
8F
100
AcDbEntity
  8
0
 62
     0
100
AcDbVertex
100
AcDb2dVertex
 10
-1.0
 20
6.05
 30
0.0
  0
VERTEX
  5
90
100
AcDbEntity
  8
0
 62
     0
100
AcDbVertex
100
AcDb2dVertex
 10
-1.238
 20
6.2105
 30
0.0
  0
VERTEX
  5
91
100
AcDbEntity
  8
0
 62
     0
100
AcDbVertex
100
AcDb2dVertex
 10
-1.491
 20
6.347
 30
0.0
  0
VERTEX
  5
92
100
AcDbEntity
  8
0
 62
     0
100
AcDbVertex
100
AcDb2dVertex
 10
-1.7565
 20
6.457
 30
0.0
  0
VERTEX
  5
93
100
AcDbEntity
  8
0
 62
     0
100
AcDbVertex
100
AcDb2dVertex
 10
-2.0315
 20
6.54
 30
0.0
  0
VERTEX
  5
94
100
AcDbEntity
  8
0
 62
     0
100
AcDbVertex
100
AcDb2dVertex
 10
-2.3135
 20
6.5955
 30
0.0
  0
VERTEX
  5
95
100
AcDbEntity
  8
0
 62
     0
100
AcDbVertex
100
AcDb2dVertex
 10
-2.6
 20
6.6225
 30
0.0
  0
VERTEX
  5
96
100
AcDbEntity
  8
0
 62
     0
100
AcDbVertex
100
AcDb2dVertex
 10
-2.887
 20
6.6205
 30
0.0
  0
VERTEX
  5
97
100
AcDbEntity
  8
0
 62
     0
100
AcDbVertex
100
AcDb2dVertex
 10
-3.173
 20
6.59
 30
0.0
  0
VERTEX
  5
98
100
AcDbEntity
  8
0
 62
     0
100
AcDbVertex
100
AcDb2dVertex
 10
-3.454
 20
6.531
 30
0.0
  0
VERTEX
  5
99
100
AcDbEntity
  8
0
 62
     0
100
AcDbVertex
100
AcDb2dVertex
 10
-3.728
 20
6.4445
 30
0.0
  0
VERTEX
  5
9A
100
AcDbEntity
  8
0
 62
     0
100
AcDbVertex
100
AcDb2dVertex
 10
-3.992
 20
6.3305
 30
0.0
  0
VERTEX
  5
9B
100
AcDbEntity
  8
0
 62
     0
100
AcDbVertex
100
AcDb2dVertex
 10
-4.2435
 20
6.1915
 30
0.0
  0
VERTEX
  5
9C
100
AcDbEntity
  8
0
 62
     0
100
AcDbVertex
100
AcDb2dVertex
 10
-4.4795
 20
6.0275
 30
0.0
  0
VERTEX
  5
9D
100
AcDbEntity
  8
0
 62
     0
100
AcDbVertex
100
AcDb2dVertex
 10
-4.698
 20
5.841
 30
0.0
  0
VERTEX
  5
9E
100
AcDbEntity
  8
0
 62
     0
100
AcDbVertex
100
AcDb2dVertex
 10
-4.897
 20
5.6335
 30
0.0
  0
VERTEX
  5
9F
100
AcDbEntity
  8
0
 62
     0
100
AcDbVertex
100
AcDb2dVertex
 10
-5.0745
 20
5.407
 30
0.0
  0
VERTEX
  5
A0
100
AcDbEntity
  8
0
 62
     0
100
AcDbVertex
100
AcDb2dVertex
 10
-5.228
 20
5.1645
 30
0.0
  0
VERTEX
  5
A1
100
AcDbEntity
  8
0
 62
     0
100
AcDbVertex
100
AcDb2dVertex
 10
-5.3565
 20
4.9075
 30
0.0
  0
VERTEX
  5
A2
100
AcDbEntity
  8
0
 62
     0
100
AcDbVertex
100
AcDb2dVertex
 10
-5.459
 20
4.639
 30
0.0
  0
VERTEX
  5
A3
100
AcDbEntity
  8
0
 62
     0
100
AcDbVertex
100
AcDb2dVertex
 10
-5.534
 20
4.3615
 30
0.0
  0
VERTEX
  5
A4
100
AcDbEntity
  8
0
 62
     0
100
AcDbVertex
100
AcDb2dVertex
 10
-5.581
 20
4.078
 30
0.0
  0
VERTEX
  5
A5
100
AcDbEntity
  8
0
 62
     0
100
AcDbVertex
100
AcDb2dVertex
 10
-5.5995
 20
3.791
 30
0.0
  0
VERTEX
  5
A6
100
AcDbEntity
  8
0
 62
     0
100
AcDbVertex
100
AcDb2dVertex
 10
-5.5895
 20
3.504
 30
0.0
  0
VERTEX
  5
A7
100
AcDbEntity
  8
0
 62
     0
100
AcDbVertex
100
AcDb2dVertex
 10
-5.5505
 20
3.2195
 30
0.0
  0
VERTEX
  5
A8
100
AcDbEntity
  8
0
 62
     0
100
AcDbVertex
100
AcDb2dVertex
 10
-5.4835
 20
2.94
 30
0.0
  0
VERTEX
  5
A9
100
AcDbEntity
  8
0
 62
     0
100
AcDbVertex
100
AcDb2dVertex
 10
-5.389
 20
2.6685
 30
0.0
  0
VERTEX
  5
AA
100
AcDbEntity
  8
0
 62
     0
100
AcDbVertex
100
AcDb2dVertex
 10
-5.2675
 20
2.408
 30
0.0
  0
VERTEX
  5
AB
100
AcDbEntity
  8
0
 62
     0
100
AcDbVertex
100
AcDb2dVertex
 10
-5.121
 20
2.161
 30
0.0
  0
VERTEX
  5
AC
100
AcDbEntity
  8
0
 62
     0
100
AcDbVertex
100
AcDb2dVertex
 10
-4.9505
 20
1.9295
 30
0.0
  0
VERTEX
  5
AD
100
AcDbEntity
  8
0
 62
     0
100
AcDbVertex
100
AcDb2dVertex
 10
-4.7575
 20
1.7165
 30
0.0
  0
VERTEX
  5
AE
100
AcDbEntity
  8
0
 62
     0
100
AcDbVertex
100
AcDb2dVertex
 10
-4.5445
 20
1.524
 30
0.0
  0
VERTEX
  5
AF
100
AcDbEntity
  8
0
 62
     0
100
AcDbVertex
100
AcDb2dVertex
 10
-4.45
 20
1.45
 30
0.0
  0
SEQEND
  5
B0
100
AcDbEntity
  8
0
 62
     0
  0
POLYLINE
  5
B2
100
AcDbEntity
  8
0
 62
     0
100
AcDb2dPolyline
 66
     1
 10
0.0
 20
0.0
 30
0.0
  0
VERTEX
  5
B3
100
AcDbEntity
  8
0
 62
     0
100
AcDbVertex
100
AcDb2dVertex
 10
-4.25
 20
1.446
 30
0.0
  0
VERTEX
  5
B4
100
AcDbEntity
  8
0
 62
     0
100
AcDbVertex
100
AcDb2dVertex
 10
-4.5375
 20
1.4465
 30
0.0
  0
VERTEX
  5
B5
100
AcDbEntity
  8
0
 62
     0
100
AcDbVertex
100
AcDb2dVertex
 10
-4.8235
 20
1.4185
 30
0.0
  0
VERTEX
  5
B6
100
AcDbEntity
  8
0
 62
     0
100
AcDbVertex
100
AcDb2dVertex
 10
-5.1055
 20
1.362
 30
0.0
  0
VERTEX
  5
B7
100
AcDbEntity
  8
0
 62
     0
100
AcDbVertex
100
AcDb2dVertex
 10
-5.38
 20
1.278
 30
0.0
  0
VERTEX
  5
B8
100
AcDbEntity
  8
0
 62
     0
100
AcDbVertex
100
AcDb2dVertex
 10
-5.645
 20
1.1665
 30
0.0
  0
VERTEX
  5
B9
100
AcDbEntity
  8
0
 62
     0
100
AcDbVertex
100
AcDb2dVertex
 10
-5.8975
 20
1.029
 30
0.0
  0
VERTEX
  5
BA
100
AcDbEntity
  8
0
 62
     0
100
AcDbVertex
100
AcDb2dVertex
 10
-6.135
 20
0.8675
 30
0.0
  0
VERTEX
  5
BB
100
AcDbEntity
  8
0
 62
     0
100
AcDbVertex
100
AcDb2dVertex
 10
-6.355
 20
0.683
 30
0.0
  0
VERTEX
  5
BC
100
AcDbEntity
  8
0
 62
     0
100
AcDbVertex
100
AcDb2dVertex
 10
-6.556
 20
0.477
 30
0.0
  0
VERTEX
  5
BD
100
AcDbEntity
  8
0
 62
     0
100
AcDbVertex
100
AcDb2dVertex
 10
-6.735
 20
0.2525
 30
0.0
  0
VERTEX
  5
BE
100
AcDbEntity
  8
0
 62
     0
100
AcDbVertex
100
AcDb2dVertex
 10
-6.891
 20
0.011
 30
0.0
  0
VERTEX
  5
BF
100
AcDbEntity
  8
0
 62
     0
100
AcDbVertex
100
AcDb2dVertex
 10
-7.0215
 20
-0.245
 30
0.0
  0
VERTEX
  5
C0
100
AcDbEntity
  8
0
 62
     0
100
AcDbVertex
100
AcDb2dVertex
 10
-7.1265
 20
-0.5125
 30
0.0
  0
VERTEX
  5
C1
100
AcDbEntity
  8
0
 62
     0
100
AcDbVertex
100
AcDb2dVertex
 10
-7.204
 20
-0.7895
 30
0.0
  0
VERTEX
  5
C2
100
AcDbEntity
  8
0
 62
     0
100
AcDbVertex
100
AcDb2dVertex
 10
-7.2535
 20
-1.0725
 30
0.0
  0
VERTEX
  5
C3
100
AcDbEntity
  8
0
 62
     0
100
AcDbVertex
100
AcDb2dVertex
 10
-7.274
 20
-1.359
 30
0.0
  0
VERTEX
  5
C4
100
AcDbEntity
  8
0
 62
     0
100
AcDbVertex
100
AcDb2dVertex
 10
-7.2665
 20
-1.6465
 30
0.0
  0
VERTEX
  5
C5
100
AcDbEntity
  8
0
 62
     0
100
AcDbVertex
100
AcDb2dVertex
 10
-7.23
 20
-1.9315
 30
0.0
  0
VERTEX
  5
C6
100
AcDbEntity
  8
0
 62
     0
100
AcDbVertex
100
AcDb2dVertex
 10
-7.1655
 20
-2.2115
 30
0.0
  0
VERTEX
  5
C7
100
AcDbEntity
  8
0
 62
     0
100
AcDbVertex
100
AcDb2dVertex
 10
-7.073
 20
-2.4835
 30
0.0
  0
VERTEX
  5
C8
100
AcDbEntity
  8
0
 62
     0
100
AcDbVertex
100
AcDb2dVertex
 10
-6.954
 20
-2.745
 30
0.0
  0
VERTEX
  5
C9
100
AcDbEntity
  8
0
 62
     0
100
AcDbVertex
100
AcDb2dVertex
 10
-6.8095
 20
-2.9935
 30
0.0
  0
VERTEX
  5
CA
100
AcDbEntity
  8
0
 62
     0
100
AcDbVertex
100
AcDb2dVertex
 10
-6.641
 20
-3.226
 30
0.0
  0
VERTEX
  5
CB
100
AcDbEntity
  8
0
 62
     0
100
AcDbVertex
100
AcDb2dVertex
 10
-6.45
 20
-3.441
 30
0.0
  0
VERTEX
  5
CC
100
AcDbEntity
  8
0
 62
     0
100
AcDbVertex
100
AcDb2dVertex
 10
-6.2385
 20
-3.6355
 30
0.0
  0
VERTEX
  5
CD
100
AcDbEntity
  8
0
 62
     0
100
AcDbVertex
100
AcDb2dVertex
 10
-6.0085
 20
-3.808
 30
0.0
  0
VERTEX
  5
CE
100
AcDbEntity
  8
0
 62
     0
100
AcDbVertex
100
AcDb2dVertex
 10
-5.7625
 20
-3.9565
 30
0.0
  0
VERTEX
  5
CF
100
AcDbEntity
  8
0
 62
     0
100
AcDbVertex
100
AcDb2dVertex
 10
-5.503
 20
-4.08
 30
0.0
  0
VERTEX
  5
D0
100
AcDbEntity
  8
0
 62
     0
100
AcDbVertex
100
AcDb2dVertex
 10
-5.2325
 20
-4.177
 30
0.0
  0
VERTEX
  5
D1
100
AcDbEntity
  8
0
 62
     0
100
AcDbVertex
100
AcDb2dVertex
 10
-4.9535
 20
-4.246
 30
0.0
  0
VERTEX
  5
D2
100
AcDbEntity
  8
0
 62
     0
100
AcDbVertex
100
AcDb2dVertex
 10
-4.669
 20
-4.2875
 30
0.0
  0
VERTEX
  5
D3
100
AcDbEntity
  8
0
 62
     0
100
AcDbVertex
100
AcDb2dVertex
 10
-4.382
 20
-4.3
 30
0.0
  0
VERTEX
  5
D4
100
AcDbEntity
  8
0
 62
     0
100
AcDbVertex
100
AcDb2dVertex
 10
-4.095
 20
-4.284
 30
0.0
  0
VERTEX
  5
D5
100
AcDbEntity
  8
0
 62
     0
100
AcDbVertex
100
AcDb2dVertex
 10
-3.811
 20
-4.239
 30
0.0
  0
VERTEX
  5
D6
100
AcDbEntity
  8
0
 62
     0
100
AcDbVertex
100
AcDb2dVertex
 10
-3.533
 20
-4.166
 30
0.0
  0
VERTEX
  5
D7
100
AcDbEntity
  8
0
 62
     0
100
AcDbVertex
100
AcDb2dVertex
 10
-3.264
 20
-4.066
 30
0.0
  0
VERTEX
  5
D8
100
AcDbEntity
  8
0
 62
     0
100
AcDbVertex
100
AcDb2dVertex
 10
-3.006
 20
-3.9395
 30
0.0
  0
VERTEX
  5
D9
100
AcDbEntity
  8
0
 62
     0
100
AcDbVertex
100
AcDb2dVertex
 10
-2.762
 20
-3.7875
 30
0.0
  0
VERTEX
  5
DA
100
AcDbEntity
  8
0
 62
     0
100
AcDbVertex
100
AcDb2dVertex
 10
-2.534
 20
-3.612
 30
0.0
  0
VERTEX
  5
DB
100
AcDbEntity
  8
0
 62
     0
100
AcDbVertex
100
AcDb2dVertex
 10
-2.325
 20
-3.415
 30
0.0
  0
VERTEX
  5
DC
100
AcDbEntity
  8
0
 62
     0
100
AcDbVertex
100
AcDb2dVertex
 10
-2.224
 20
-3.304
 30
0.0
  0
SEQEND
  5
DD
100
AcDbEntity
  8
0
 62
     0
  0
POLYLINE
  5
DF
100
AcDbEntity
  8
0
 62
     0
100
AcDb2dPolyline
 66
     1
 10
0.0
 20
0.0
 30
0.0
  0
VERTEX
  5
E0
100
AcDbEntity
  8
0
 62
     0
100
AcDbVertex
100
AcDb2dVertex
 10
-2.747
 20
-3.776
 30
0.0
  0
VERTEX
  5
E1
100
AcDbEntity
  8
0
 62
     0
100
AcDbVertex
100
AcDb2dVertex
 10
-2.818
 20
-4.0545
 30
0.0
  0
VERTEX
  5
E2
100
AcDbEntity
  8
0
 62
     0
100
AcDbVertex
100
AcDb2dVertex
 10
-2.8605
 20
-4.3385
 30
0.0
  0
VERTEX
  5
E3
100
AcDbEntity
  8
0
 62
     0
100
AcDbVertex
100
AcDb2dVertex
 10
-2.875
 20
-4.6255
 30
0.0
  0
VERTEX
  5
E4
100
AcDbEntity
  8
0
 62
     0
100
AcDbVertex
100
AcDb2dVertex
 10
-2.8605
 20
-4.9125
 30
0.0
  0
VERTEX
  5
E5
100
AcDbEntity
  8
0
 62
     0
100
AcDbVertex
100
AcDb2dVertex
 10
-2.8175
 20
-5.197
 30
0.0
  0
VERTEX
  5
E6
100
AcDbEntity
  8
0
 62
     0
100
AcDbVertex
100
AcDb2dVertex
 10
-2.7465
 20
-5.475
 30
0.0
  0
VERTEX
  5
E7
100
AcDbEntity
  8
0
 62
     0
100
AcDbVertex
100
AcDb2dVertex
 10
-2.648
 20
-5.745
 30
0.0
  0
VERTEX
  5
E8
100
AcDbEntity
  8
0
 62
     0
100
AcDbVertex
100
AcDb2dVertex
 10
-2.5225
 20
-6.004
 30
0.0
  0
VERTEX
  5
E9
100
AcDbEntity
  8
0
 62
     0
100
AcDbVertex
100
AcDb2dVertex
 10
-2.3725
 20
-6.249
 30
0.0
  0
VERTEX
  5
EA
100
AcDbEntity
  8
0
 62
     0
100
AcDbVertex
100
AcDb2dVertex
 10
-2.1985
 20
-6.4775
 30
0.0
  0
VERTEX
  5
EB
100
AcDbEntity
  8
0
 62
     0
100
AcDbVertex
100
AcDb2dVertex
 10
-2.0025
 20
-6.688
 30
0.0
  0
VERTEX
  5
EC
100
AcDbEntity
  8
0
 62
     0
100
AcDbVertex
100
AcDb2dVertex
 10
-1.7865
 20
-6.8775
 30
0.0
  0
VERTEX
  5
ED
100
AcDbEntity
  8
0
 62
     0
100
AcDbVertex
100
AcDb2dVertex
 10
-1.553
 20
-7.0445
 30
0.0
  0
VERTEX
  5
EE
100
AcDbEntity
  8
0
 62
     0
100
AcDbVertex
100
AcDb2dVertex
 10
-1.3035
 20
-7.1875
 30
0.0
  0
VERTEX
  5
EF
100
AcDbEntity
  8
0
 62
     0
100
AcDbVertex
100
AcDb2dVertex
 10
-1.041
 20
-7.305
 30
0.0
  0
VERTEX
  5
F0
100
AcDbEntity
  8
0
 62
     0
100
AcDbVertex
100
AcDb2dVertex
 10
-0.7685
 20
-7.3955
 30
0.0
  0
VERTEX
  5
F1
100
AcDbEntity
  8
0
 62
     0
100
AcDbVertex
100
AcDb2dVertex
 10
-0.488
 20
-7.4585
 30
0.0
  0
VERTEX
  5
F2
100
AcDbEntity
  8
0
 62
     0
100
AcDbVertex
100
AcDb2dVertex
 10
-0.2025
 20
-7.493
 30
0.0
  0
VERTEX
  5
F3
100
AcDbEntity
  8
0
 62
     0
100
AcDbVertex
100
AcDb2dVertex
 10
0.0845
 20
-7.499
 30
0.0
  0
VERTEX
  5
F4
100
AcDbEntity
  8
0
 62
     0
100
AcDbVertex
100
AcDb2dVertex
 10
0.371
 20
-7.476
 30
0.0
  0
VERTEX
  5
F5
100
AcDbEntity
  8
0
 62
     0
100
AcDbVertex
100
AcDb2dVertex
 10
0.654
 20
-7.4245
 30
0.0
  0
VERTEX
  5
F6
100
AcDbEntity
  8
0
 62
     0
100
AcDbVertex
100
AcDb2dVertex
 10
0.93
 20
-7.3455
 30
0.0
  0
VERTEX
  5
F7
100
AcDbEntity
  8
0
 62
     0
100
AcDbVertex
100
AcDb2dVertex
 10
1.197
 20
-7.239
 30
0.0
  0
VERTEX
  5
F8
100
AcDbEntity
  8
0
 62
     0
100
AcDbVertex
100
AcDb2dVertex
 10
1.452
 20
-7.1065
 30
0.0
  0
VERTEX
  5
F9
100
AcDbEntity
  8
0
 62
     0
100
AcDbVertex
100
AcDb2dVertex
 10
1.6925
 20
-6.949
 30
0.0
  0
VERTEX
  5
FA
100
AcDbEntity
  8
0
 62
     0
100
AcDbVertex
100
AcDb2dVertex
 10
1.916
 20
-6.7685
 30
0.0
  0
VERTEX
  5
FB
100
AcDbEntity
  8
0
 62
     0
100
AcDbVertex
100
AcDb2dVertex
 10
2.1205
 20
-6.5665
 30
0.0
  0
VERTEX
  5
FC
100
AcDbEntity
  8
0
 62
     0
100
AcDbVertex
100
AcDb2dVertex
 10
2.3035
 20
-6.345
 30
0.0
  0
VERTEX
  5
FD
100
AcDbEntity
  8
0
 62
     0
100
AcDbVertex
100
AcDb2dVertex
 10
2.464
 20
-6.1065
 30
0.0
  0
VERTEX
  5
FE
100
AcDbEntity
  8
0
 62
     0
100
AcDbVertex
100
AcDb2dVertex
 10
2.5995
 20
-5.853
 30
0.0
  0
VERTEX
  5
FF
100
AcDbEntity
  8
0
 62
     0
100
AcDbVertex
100
AcDb2dVertex
 10
2.709
 20
-5.5875
 30
0.0
  0
VERTEX
  5
100
100
AcDbEntity
  8
0
 62
     0
100
AcDbVertex
100
AcDb2dVertex
 10
2.7915
 20
-5.312
 30
0.0
  0
VERTEX
  5
101
100
AcDbEntity
  8
0
 62
     0
100
AcDbVertex
100
AcDb2dVertex
 10
2.8465
 20
-5.03
 30
0.0
  0
VERTEX
  5
102
100
AcDbEntity
  8
0
 62
     0
100
AcDbVertex
100
AcDb2dVertex
 10
2.8725
 20
-4.744
 30
0.0
  0
VERTEX
  5
103
100
AcDbEntity
  8
0
 62
     0
100
AcDbVertex
100
AcDb2dVertex
 10
2.87
 20
-4.4565
 30
0.0
  0
VERTEX
  5
104
100
AcDbEntity
  8
0
 62
     0
100
AcDbVertex
100
AcDb2dVertex
 10
2.839
 20
-4.171
 30
0.0
  0
VERTEX
  5
105
100
AcDbEntity
  8
0
 62
     0
100
AcDbVertex
100
AcDb2dVertex
 10
2.7795
 20
-3.8895
 30
0.0
  0
VERTEX
  5
106
100
AcDbEntity
  8
0
 62
     0
100
AcDbVertex
100
AcDb2dVertex
 10
2.747
 20
-3.776
 30
0.0
  0
SEQEND
  5
107
100
AcDbEntity
  8
0
 62
     0
  0
POLYLINE
  5
109
100
AcDbEntity
  8
0
 62
     0
100
AcDb2dPolyline
 66
     1
 10
0.0
 20
0.0
 30
0.0
  0
VERTEX
  5
10A
100
AcDbEntity
  8
0
 62
     0
100
AcDbVertex
100
AcDb2dVertex
 10
2.748
 20
-3.778
 30
0.0
  0
VERTEX
  5
10B
100
AcDbEntity
  8
0
 62
     0
100
AcDbVertex
100
AcDb2dVertex
 10
2.991
 20
-3.931
 30
0.0
  0
VERTEX
  5
10C
100
AcDbEntity
  8
0
 62
     0
100
AcDbVertex
100
AcDb2dVertex
 10
3.2485
 20
-4.059
 30
0.0
  0
VERTEX
  5
10D
100
AcDbEntity
  8
0
 62
     0
100
AcDbVertex
100
AcDb2dVertex
 10
3.517
 20
-4.161
 30
0.0
  0
VERTEX
  5
10E
100
AcDbEntity
  8
0
 62
     0
100
AcDbVertex
100
AcDb2dVertex
 10
3.7945
 20
-4.2355
 30
0.0
  0
VERTEX
  5
10F
100
AcDbEntity
  8
0
 62
     0
100
AcDbVertex
100
AcDb2dVertex
 10
4.078
 20
-4.282
 30
0.0
  0
VERTEX
  5
110
100
AcDbEntity
  8
0
 62
     0
100
AcDbVertex
100
AcDb2dVertex
 10
4.365
 20
-4.3
 30
0.0
  0
VERTEX
  5
111
100
AcDbEntity
  8
0
 62
     0
100
AcDbVertex
100
AcDb2dVertex
 10
4.652
 20
-4.289
 30
0.0
  0
VERTEX
  5
112
100
AcDbEntity
  8
0
 62
     0
100
AcDbVertex
100
AcDb2dVertex
 10
4.937
 20
-4.2495
 30
0.0
  0
VERTEX
  5
113
100
AcDbEntity
  8
0
 62
     0
100
AcDbVertex
100
AcDb2dVertex
 10
5.216
 20
-4.1815
 30
0.0
  0
VERTEX
  5
114
100
AcDbEntity
  8
0
 62
     0
100
AcDbVertex
100
AcDb2dVertex
 10
5.4875
 20
-4.0865
 30
0.0
  0
VERTEX
  5
115
100
AcDbEntity
  8
0
 62
     0
100
AcDbVertex
100
AcDb2dVertex
 10
5.7475
 20
-3.9645
 30
0.0
  0
VERTEX
  5
116
100
AcDbEntity
  8
0
 62
     0
100
AcDbVertex
100
AcDb2dVertex
 10
5.9945
 20
-3.8175
 30
0.0
  0
VERTEX
  5
117
100
AcDbEntity
  8
0
 62
     0
100
AcDbVertex
100
AcDb2dVertex
 10
6.2255
 20
-3.6465
 30
0.0
  0
VERTEX
  5
118
100
AcDbEntity
  8
0
 62
     0
100
AcDbVertex
100
AcDb2dVertex
 10
6.438
 20
-3.453
 30
0.0
  0
VERTEX
  5
119
100
AcDbEntity
  8
0
 62
     0
100
AcDbVertex
100
AcDb2dVertex
 10
6.63
 20
-3.2395
 30
0.0
  0
VERTEX
  5
11A
100
AcDbEntity
  8
0
 62
     0
100
AcDbVertex
100
AcDb2dVertex
 10
6.8
 20
-3.0075
 30
0.0
  0
VERTEX
  5
11B
100
AcDbEntity
  8
0
 62
     0
100
AcDbVertex
100
AcDb2dVertex
 10
6.946
 20
-2.76
 30
0.0
  0
VERTEX
  5
11C
100
AcDbEntity
  8
0
 62
     0
100
AcDbVertex
100
AcDb2dVertex
 10
7.067
 20
-2.4995
 30
0.0
  0
VERTEX
  5
11D
100
AcDbEntity
  8
0
 62
     0
100
AcDbVertex
100
AcDb2dVertex
 10
7.1605
 20
-2.2275
 30
0.0
  0
VERTEX
  5
11E
100
AcDbEntity
  8
0
 62
     0
100
AcDbVertex
100
AcDb2dVertex
 10
7.227
 20
-1.948
 30
0.0
  0
VERTEX
  5
11F
100
AcDbEntity
  8
0
 62
     0
100
AcDbVertex
100
AcDb2dVertex
 10
7.265
 20
-1.663
 30
0.0
  0
VERTEX
  5
120
100
AcDbEntity
  8
0
 62
     0
100
AcDbVertex
100
AcDb2dVertex
 10
7.2745
 20
-1.376
 30
0.0
  0
VERTEX
  5
121
100
AcDbEntity
  8
0
 62
     0
100
AcDbVertex
100
AcDb2dVertex
 10
7.2555
 20
-1.089
 30
0.0
  0
VERTEX
  5
122
100
AcDbEntity
  8
0
 62
     0
100
AcDbVertex
100
AcDb2dVertex
 10
7.2075
 20
-0.806
 30
0.0
  0
VERTEX
  5
123
100
AcDbEntity
  8
0
 62
     0
100
AcDbVertex
100
AcDb2dVertex
 10
7.1315
 20
-0.5285
 30
0.0
  0
VERTEX
  5
124
100
AcDbEntity
  8
0
 62
     0
100
AcDbVertex
100
AcDb2dVertex
 10
7.0285
 20
-0.2605
 30
0.0
  0
VERTEX
  5
125
100
AcDbEntity
  8
0
 62
     0
100
AcDbVertex
100
AcDb2dVertex
 10
6.899
 20
-0.004
 30
0.0
  0
VERTEX
  5
126
100
AcDbEntity
  8
0
 62
     0
100
AcDbVertex
100
AcDb2dVertex
 10
6.745
 20
0.2385
 30
0.0
  0
VERTEX
  5
127
100
AcDbEntity
  8
0
 62
     0
100
AcDbVertex
100
AcDb2dVertex
 10
6.567
 20
0.4645
 30
0.0
  0
VERTEX
  5
128
100
AcDbEntity
  8
0
 62
     0
100
AcDbVertex
100
AcDb2dVertex
 10
6.3675
 20
0.6715
 30
0.0
  0
VERTEX
  5
129
100
AcDbEntity
  8
0
 62
     0
100
AcDbVertex
100
AcDb2dVertex
 10
6.1485
 20
0.857
 30
0.0
  0
VERTEX
  5
12A
100
AcDbEntity
  8
0
 62
     0
100
AcDbVertex
100
AcDb2dVertex
 10
5.912
 20
1.0205
 30
0.0
  0
VERTEX
  5
12B
100
AcDbEntity
  8
0
 62
     0
100
AcDbVertex
100
AcDb2dVertex
 10
5.66
 20
1.159
 30
0.0
  0
VERTEX
  5
12C
100
AcDbEntity
  8
0
 62
     0
100
AcDbVertex
100
AcDb2dVertex
 10
5.396
 20
1.272
 30
0.0
  0
VERTEX
  5
12D
100
AcDbEntity
  8
0
 62
     0
100
AcDbVertex
100
AcDb2dVertex
 10
5.1215
 20
1.358
 30
0.0
  0
VERTEX
  5
12E
100
AcDbEntity
  8
0
 62
     0
100
AcDbVertex
100
AcDb2dVertex
 10
4.8405
 20
1.416
 30
0.0
  0
VERTEX
  5
12F
100
AcDbEntity
  8
0
 62
     0
100
AcDbVertex
100
AcDb2dVertex
 10
4.5545
 20
1.446
 30
0.0
  0
VERTEX
  5
130
100
AcDbEntity
  8
0
 62
     0
100
AcDbVertex
100
AcDb2dVertex
 10
4.45
 20
1.4495
 30
0.0
  0
SEQEND
  5
131
100
AcDbEntity
  8
0
 62
     0
  0
POLYLINE
  5
133
100
AcDbEntity
  8
0
 62
     0
100
AcDb2dPolyline
 66
     1
 10
0.0
 20
0.0
 30
0.0
  0
VERTEX
  5
134
100
AcDbEntity
  8
0
 62
     0
100
AcDbVertex
100
AcDb2dVertex
 10
4.45
 20
1.45
 30
0.0
  0
VERTEX
  5
135
100
AcDbEntity
  8
0
 62
     0
100
AcDbVertex
100
AcDb2dVertex
 10
4.671
 20
1.6335
 30
0.0
  0
VERTEX
  5
136
100
AcDbEntity
  8
0
 62
     0
100
AcDbVertex
100
AcDb2dVertex
 10
4.8725
 20
1.8385
 30
0.0
  0
VERTEX
  5
137
100
AcDbEntity
  8
0
 62
     0
100
AcDbVertex
100
AcDb2dVertex
 10
5.0525
 20
2.0625
 30
0.0
  0
VERTEX
  5
138
100
AcDbEntity
  8
0
 62
     0
100
AcDbVertex
100
AcDb2dVertex
 10
5.2095
 20
2.3035
 30
0.0
  0
VERTEX
  5
139
100
AcDbEntity
  8
0
 62
     0
100
AcDbVertex
100
AcDb2dVertex
 10
5.3415
 20
2.5585
 30
0.0
  0
VERTEX
  5
13A
100
AcDbEntity
  8
0
 62
     0
100
AcDbVertex
100
AcDb2dVertex
 10
5.4475
 20
2.8255
 30
0.0
  0
VERTEX
  5
13B
100
AcDbEntity
  8
0
 62
     0
100
AcDbVertex
100
AcDb2dVertex
 10
5.526
 20
3.102
 30
0.0
  0
VERTEX
  5
13C
100
AcDbEntity
  8
0
 62
     0
100
AcDbVertex
100
AcDb2dVertex
 10
5.5765
 20
3.385
 30
0.0
  0
VERTEX
  5
13D
100
AcDbEntity
  8
0
 62
     0
100
AcDbVertex
100
AcDb2dVertex
 10
5.599
 20
3.6715
 30
0.0
  0
VERTEX
  5
13E
100
AcDbEntity
  8
0
 62
     0
100
AcDbVertex
100
AcDb2dVertex
 10
5.5925
 20
3.959
 30
0.0
  0
VERTEX
  5
13F
100
AcDbEntity
  8
0
 62
     0
100
AcDbVertex
100
AcDb2dVertex
 10
5.557
 20
4.244
 30
0.0
  0
VERTEX
  5
140
100
AcDbEntity
  8
0
 62
     0
100
AcDbVertex
100
AcDb2dVertex
 10
5.494
 20
4.5245
 30
0.0
  0
VERTEX
  5
141
100
AcDbEntity
  8
0
 62
     0
100
AcDbVertex
100
AcDb2dVertex
 10
5.4025
 20
4.797
 30
0.0
  0
VERTEX
  5
142
100
AcDbEntity
  8
0
 62
     0
100
AcDbVertex
100
AcDb2dVertex
 10
5.2845
 20
5.059
 30
0.0
  0
VERTEX
  5
143
100
AcDbEntity
  8
0
 62
     0
100
AcDbVertex
100
AcDb2dVertex
 10
5.1415
 20
5.308
 30
0.0
  0
VERTEX
  5
144
100
AcDbEntity
  8
0
 62
     0
100
AcDbVertex
100
AcDb2dVertex
 10
4.9735
 20
5.5415
 30
0.0
  0
VERTEX
  5
145
100
AcDbEntity
  8
0
 62
     0
100
AcDbVertex
100
AcDb2dVertex
 10
4.7835
 20
5.757
 30
0.0
  0
VERTEX
  5
146
100
AcDbEntity
  8
0
 62
     0
100
AcDbVertex
100
AcDb2dVertex
 10
4.573
 20
5.9525
 30
0.0
  0
VERTEX
  5
147
100
AcDbEntity
  8
0
 62
     0
100
AcDbVertex
100
AcDb2dVertex
 10
4.344
 20
6.126
 30
0.0
  0
VERTEX
  5
148
100
AcDbEntity
  8
0
 62
     0
100
AcDbVertex
100
AcDb2dVertex
 10
4.0985
 20
6.2755
 30
0.0
  0
VERTEX
  5
149
100
AcDbEntity
  8
0
 62
     0
100
AcDbVertex
100
AcDb2dVertex
 10
3.8395
 20
6.4
 30
0.0
  0
VERTEX
  5
14A
100
AcDbEntity
  8
0
 62
     0
100
AcDbVertex
100
AcDb2dVertex
 10
3.5695
 20
6.498
 30
0.0
  0
VERTEX
  5
14B
100
AcDbEntity
  8
0
 62
     0
100
AcDbVertex
100
AcDb2dVertex
 10
3.291
 20
6.569
 30
0.0
  0
VERTEX
  5
14C
100
AcDbEntity
  8
0
 62
     0
100
AcDbVertex
100
AcDb2dVertex
 10
3.0065
 20
6.611
 30
0.0
  0
VERTEX
  5
14D
100
AcDbEntity
  8
0
 62
     0
100
AcDbVertex
100
AcDb2dVertex
 10
2.7195
 20
6.625
 30
0.0
  0
VERTEX
  5
14E
100
AcDbEntity
  8
0
 62
     0
100
AcDbVertex
100
AcDb2dVertex
 10
2.4325
 20
6.61
 30
0.0
  0
VERTEX
  5
14F
100
AcDbEntity
  8
0
 62
     0
100
AcDbVertex
100
AcDb2dVertex
 10
2.1485
 20
6.5665
 30
0.0
  0
VERTEX
  5
150
100
AcDbEntity
  8
0
 62
     0
100
AcDbVertex
100
AcDb2dVertex
 10
1.87
 20
6.495
 30
0.0
  0
VERTEX
  5
151
100
AcDbEntity
  8
0
 62
     0
100
AcDbVertex
100
AcDb2dVertex
 10
1.6005
 20
6.396
 30
0.0
  0
VERTEX
  5
152
100
AcDbEntity
  8
0
 62
     0
100
AcDbVertex
100
AcDb2dVertex
 10
1.342
 20
6.2705
 30
0.0
  0
VERTEX
  5
153
100
AcDbEntity
  8
0
 62
     0
100
AcDbVertex
100
AcDb2dVertex
 10
1.097
 20
6.1195
 30
0.0
  0
VERTEX
  5
154
100
AcDbEntity
  8
0
 62
     0
100
AcDbVertex
100
AcDb2dVertex
 10
0.8685
 20
5.9455
 30
0.0
  0
VERTEX
  5
155
100
AcDbEntity
  8
0
 62
     0
100
AcDbVertex
100
AcDb2dVertex
 10
0.659
 20
5.749
 30
0.0
  0
VERTEX
  5
156
100
AcDbEntity
  8
0
 62
     0
100
AcDbVertex
100
AcDb2dVertex
 10
0.4695
 20
5.533
 30
0.0
  0
VERTEX
  5
157
100
AcDbEntity
  8
0
 62
     0
100
AcDbVertex
100
AcDb2dVertex
 10
0.303
 20
5.2985
 30
0.0
  0
VERTEX
  5
158
100
AcDbEntity
  8
0
 62
     0
100
AcDbVertex
100
AcDb2dVertex
 10
0.1605
 20
5.049
 30
0.0
  0
VERTEX
  5
159
100
AcDbEntity
  8
0
 62
     0
100
AcDbVertex
100
AcDb2dVertex
 10
0.0435
 20
4.7865
 30
0.0
  0
VERTEX
  5
15A
100
AcDbEntity
  8
0
 62
     0
100
AcDbVertex
100
AcDb2dVertex
 10
0.0025
 20
4.674
 30
0.0
  0
SEQEND
  5
15B
100
AcDbEntity
  8
0
 62
     0
  0
POINT
  5
15C
100
AcDbEntity
  8
0
 62
     0
100
AcDbPoint
 10
0.0
 20
0.0
 30
0.0
  0
ATTDEF
  5
15D
100
AcDbEntity
  8
0
100
AcDbText
 10
0.0
 20
0.0
 30
0.0
 40
1.0
  1

100
AcDbAttributeDefinition
  3
pto:
  2
PONTO
 70
     0
  0
ATTDEF
  5
15E
100
AcDbEntity
  8
0
100
AcDbText
 10
0.0
 20
0.0
 30
0.0
 40
1.0
  1

100
AcDbAttributeDefinition
  3
desc:
  2
DESC
 70
     0
  0
ATTDEF
  5
15F
100
AcDbEntity
  8
0
100
AcDbText
 10
0.0
 20
0.0
 30
0.0
 40
1.0
  1

100
AcDbAttributeDefinition
  3
ct:
  2
COTA
 70
     0
  0
ENDBLK
  5
160
100
AcDbEntity
  8
0
100
AcDbBlockEnd
  0
BLOCK
  5
162
100
AcDbEntity
  8
0
100
AcDbBlockBegin
  2
SIMB_QUADRADO
 70
     0
 10
0.0
 20
0.0
 30
0.0
  3
SIMB_QUADRADO
  1

  0
POLYLINE
  5
163
100
AcDbEntity
  8
0
 62
     0
100
AcDb2dPolyline
 66
     1
 10
0.0
 20
0.0
 30
0.0
 70
     1
  0
VERTEX
  5
164
100
AcDbEntity
  8
0
 62
     0
100
AcDbVertex
100
AcDb2dVertex
 10
-0.625
 20
-0.625
 30
0.0
  0
VERTEX
  5
165
100
AcDbEntity
  8
0
 62
     0
100
AcDbVertex
100
AcDb2dVertex
 10
0.625
 20
-0.625
 30
0.0
  0
VERTEX
  5
166
100
AcDbEntity
  8
0
 62
     0
100
AcDbVertex
100
AcDb2dVertex
 10
0.625
 20
0.625
 30
0.0
  0
VERTEX
  5
167
100
AcDbEntity
  8
0
 62
     0
100
AcDbVertex
100
AcDb2dVertex
 10
-0.625
 20
0.625
 30
0.0
  0
SEQEND
  5
168
100
AcDbEntity
  8
0
 62
     0
  0
POINT
  5
169
100
AcDbEntity
  8
0
 62
     0
100
AcDbPoint
 10
0.0
 20
0.0
 30
0.0
  0
ATTDEF
  5
16A
100
AcDbEntity
  8
0
100
AcDbText
 10
0.0
 20
0.0
 30
0.0
 40
1.0
  1

100
AcDbAttributeDefinition
  3
pto:
  2
PONTO
 70
     0
  0
ATTDEF
  5
16B
100
AcDbEntity
  8
0
100
AcDbText
 10
0.0
 20
0.0
 30
0.0
 40
1.0
  1

100
AcDbAttributeDefinition
  3
desc:
  2
DESC
 70
     0
  0
ATTDEF
  5
16C
100
AcDbEntity
  8
0
100
AcDbText
 10
0.0
 20
0.0
 30
0.0
 40
1.0
  1

100
AcDbAttributeDefinition
  3
ct:
  2
COTA
 70
     0
  0
ENDBLK
  5
16D
100
AcDbEntity
  8
0
100
AcDbBlockEnd
  0
BLOCK
  5
16F
100
AcDbEntity
  8
0
100
AcDbBlockBegin
  2
SIMB_BOLINHA
 70
     0
 10
0.0
 20
0.0
 30
0.0
  3
SIMB_BOLINHA
  1

  0
POLYLINE
  5
171
100
AcDbEntity
  8
0
 62
     0
100
AcDb2dPolyline
 66
     1
 10
0.0
 20
0.0
 30
0.0
  0
VERTEX
  5
172
100
AcDbEntity
  8
0
 62
     0
100
AcDbVertex
100
AcDb2dVertex
 10
0.75
 20
0.0
 30
0.0
  0
VERTEX
  5
173
100
AcDbEntity
  8
0
 62
     0
100
AcDbVertex
100
AcDb2dVertex
 10
0.7465
 20
0.075
 30
0.0
  0
VERTEX
  5
174
100
AcDbEntity
  8
0
 62
     0
100
AcDbVertex
100
AcDb2dVertex
 10
0.735
 20
0.149
 30
0.0
  0
VERTEX
  5
175
100
AcDbEntity
  8
0
 62
     0
100
AcDbVertex
100
AcDb2dVertex
 10
0.7165
 20
0.2215
 30
0.0
  0
VERTEX
  5
176
100
AcDbEntity
  8
0
 62
     0
100
AcDbVertex
100
AcDb2dVertex
 10
0.691
 20
0.292
 30
0.0
  0
VERTEX
  5
177
100
AcDbEntity
  8
0
 62
     0
100
AcDbVertex
100
AcDb2dVertex
 10
0.658
 20
0.3595
 30
0.0
  0
VERTEX
  5
178
100
AcDbEntity
  8
0
 62
     0
100
AcDbVertex
100
AcDb2dVertex
 10
0.619
 20
0.4235
 30
0.0
  0
VERTEX
  5
179
100
AcDbEntity
  8
0
 62
     0
100
AcDbVertex
100
AcDb2dVertex
 10
0.5735
 20
0.483
 30
0.0
  0
VERTEX
  5
17A
100
AcDbEntity
  8
0
 62
     0
100
AcDbVertex
100
AcDb2dVertex
 10
0.5225
 20
0.538
 30
0.0
  0
VERTEX
  5
17B
100
AcDbEntity
  8
0
 62
     0
100
AcDbVertex
100
AcDb2dVertex
 10
0.466
 20
0.5875
 30
0.0
  0
VERTEX
  5
17C
100
AcDbEntity
  8
0
 62
     0
100
AcDbVertex
100
AcDb2dVertex
 10
0.405
 20
0.631
 30
0.0
  0
VERTEX
  5
17D
100
AcDbEntity
  8
0
 62
     0
100
AcDbVertex
100
AcDb2dVertex
 10
0.34
 20
0.6685
 30
0.0
  0
VERTEX
  5
17E
100
AcDbEntity
  8
0
 62
     0
100
AcDbVertex
100
AcDb2dVertex
 10
0.272
 20
0.699
 30
0.0
  0
VERTEX
  5
17F
100
AcDbEntity
  8
0
 62
     0
100
AcDbVertex
100
AcDb2dVertex
 10
0.2005
 20
0.7225
 30
0.0
  0
VERTEX
  5
180
100
AcDbEntity
  8
0
 62
     0
100
AcDbVertex
100
AcDb2dVertex
 10
0.1275
 20
0.739
 30
0.0
  0
VERTEX
  5
181
100
AcDbEntity
  8
0
 62
     0
100
AcDbVertex
100
AcDb2dVertex
 10
0.053
 20
0.748
 30
0.0
  0
VERTEX
  5
182
100
AcDbEntity
  8
0
 62
     0
100
AcDbVertex
100
AcDb2dVertex
 10
-0.022
 20
0.7495
 30
0.0
  0
VERTEX
  5
183
100
AcDbEntity
  8
0
 62
     0
100
AcDbVertex
100
AcDb2dVertex
 10
-0.0965
 20
0.7435
 30
0.0
  0
VERTEX
  5
184
100
AcDbEntity
  8
0
 62
     0
100
AcDbVertex
100
AcDb2dVertex
 10
-0.1705
 20
0.7305
 30
0.0
  0
VERTEX
  5
185
100
AcDbEntity
  8
0
 62
     0
100
AcDbVertex
100
AcDb2dVertex
 10
-0.2425
 20
0.7095
 30
0.0
  0
VERTEX
  5
186
100
AcDbEntity
  8
0
 62
     0
100
AcDbVertex
100
AcDb2dVertex
 10
-0.312
 20
0.682
 30
0.0
  0
VERTEX
  5
187
100
AcDbEntity
  8
0
 62
     0
100
AcDbVertex
100
AcDb2dVertex
 10
-0.3785
 20
0.6475
 30
0.0
  0
VERTEX
  5
188
100
AcDbEntity
  8
0
 62
     0
100
AcDbVertex
100
AcDb2dVertex
 10
-0.4415
 20
0.6065
 30
0.0
  0
VERTEX
  5
189
100
AcDbEntity
  8
0
 62
     0
100
AcDbVertex
100
AcDb2dVertex
 10
-0.4995
 20
0.5595
 30
0.0
  0
VERTEX
  5
18A
100
AcDbEntity
  8
0
 62
     0
100
AcDbVertex
100
AcDb2dVertex
 10
-0.553
 20
0.5065
 30
0.0
  0
VERTEX
  5
18B
100
AcDbEntity
  8
0
 62
     0
100
AcDbVertex
100
AcDb2dVertex
 10
-0.601
 20
0.449
 30
0.0
  0
VERTEX
  5
18C
100
AcDbEntity
  8
0
 62
     0
100
AcDbVertex
100
AcDb2dVertex
 10
-0.6425
 20
0.3865
 30
0.0
  0
VERTEX
  5
18D
100
AcDbEntity
  8
0
 62
     0
100
AcDbVertex
100
AcDb2dVertex
 10
-0.678
 20
0.3205
 30
0.0
  0
VERTEX
  5
18E
100
AcDbEntity
  8
0
 62
     0
100
AcDbVertex
100
AcDb2dVertex
 10
-0.7065
 20
0.251
 30
0.0
  0
VERTEX
  5
18F
100
AcDbEntity
  8
0
 62
     0
100
AcDbVertex
100
AcDb2dVertex
 10
-0.728
 20
0.1795
 30
0.0
  0
VERTEX
  5
190
100
AcDbEntity
  8
0
 62
     0
100
AcDbVertex
100
AcDb2dVertex
 10
-0.7425
 20
0.106
 30
0.0
  0
VERTEX
  5
191
100
AcDbEntity
  8
0
 62
     0
100
AcDbVertex
100
AcDb2dVertex
 10
-0.7495
 20
0.031
 30
0.0
  0
VERTEX
  5
192
100
AcDbEntity
  8
0
 62
     0
100
AcDbVertex
100
AcDb2dVertex
 10
-0.7485
 20
-0.044
 30
0.0
  0
VERTEX
  5
193
100
AcDbEntity
  8
0
 62
     0
100
AcDbVertex
100
AcDb2dVertex
 10
-0.7405
 20
-0.1185
 30
0.0
  0
VERTEX
  5
194
100
AcDbEntity
  8
0
 62
     0
100
AcDbVertex
100
AcDb2dVertex
 10
-0.725
 20
-0.1915
 30
0.0
  0
VERTEX
  5
195
100
AcDbEntity
  8
0
 62
     0
100
AcDbVertex
100
AcDb2dVertex
 10
-0.7025
 20
-0.263
 30
0.0
  0
VERTEX
  5
196
100
AcDbEntity
  8
0
 62
     0
100
AcDbVertex
100
AcDb2dVertex
 10
-0.6725
 20
-0.332
 30
0.0
  0
VERTEX
  5
197
100
AcDbEntity
  8
0
 62
     0
100
AcDbVertex
100
AcDb2dVertex
 10
-0.636
 20
-0.3975
 30
0.0
  0
VERTEX
  5
198
100
AcDbEntity
  8
0
 62
     0
100
AcDbVertex
100
AcDb2dVertex
 10
-0.593
 20
-0.459
 30
0.0
  0
VERTEX
  5
199
100
AcDbEntity
  8
0
 62
     0
100
AcDbVertex
100
AcDb2dVertex
 10
-0.5445
 20
-0.516
 30
0.0
  0
VERTEX
  5
19A
100
AcDbEntity
  8
0
 62
     0
100
AcDbVertex
100
AcDb2dVertex
 10
-0.49
 20
-0.5675
 30
0.0
  0
VERTEX
  5
19B
100
AcDbEntity
  8
0
 62
     0
100
AcDbVertex
100
AcDb2dVertex
 10
-0.431
 20
-0.6135
 30
0.0
  0
VERTEX
  5
19C
100
AcDbEntity
  8
0
 62
     0
100
AcDbVertex
100
AcDb2dVertex
 10
-0.3675
 20
-0.6535
 30
0.0
  0
VERTEX
  5
19D
100
AcDbEntity
  8
0
 62
     0
100
AcDbVertex
100
AcDb2dVertex
 10
-0.3005
 20
-0.687
 30
0.0
  0
VERTEX
  5
19E
100
AcDbEntity
  8
0
 62
     0
100
AcDbVertex
100
AcDb2dVertex
 10
-0.2305
 20
-0.7135
 30
0.0
  0
VERTEX
  5
19F
100
AcDbEntity
  8
0
 62
     0
100
AcDbVertex
100
AcDb2dVertex
 10
-0.158
 20
-0.733
 30
0.0
  0
VERTEX
  5
1A0
100
AcDbEntity
  8
0
 62
     0
100
AcDbVertex
100
AcDb2dVertex
 10
-0.084
 20
-0.7455
 30
0.0
  0
VERTEX
  5
1A1
100
AcDbEntity
  8
0
 62
     0
100
AcDbVertex
100
AcDb2dVertex
 10
-0.0095
 20
-0.75
 30
0.0
  0
VERTEX
  5
1A2
100
AcDbEntity
  8
0
 62
     0
100
AcDbVertex
100
AcDb2dVertex
 10
0.0655
 20
-0.747
 30
0.0
  0
VERTEX
  5
1A3
100
AcDbEntity
  8
0
 62
     0
100
AcDbVertex
100
AcDb2dVertex
 10
0.14
 20
-0.737
 30
0.0
  0
VERTEX
  5
1A4
100
AcDbEntity
  8
0
 62
     0
100
AcDbVertex
100
AcDb2dVertex
 10
0.2125
 20
-0.719
 30
0.0
  0
VERTEX
  5
1A5
100
AcDbEntity
  8
0
 62
     0
100
AcDbVertex
100
AcDb2dVertex
 10
0.2835
 20
-0.6945
 30
0.0
  0
VERTEX
  5
1A6
100
AcDbEntity
  8
0
 62
     0
100
AcDbVertex
100
AcDb2dVertex
 10
0.3515
 20
-0.6625
 30
0.0
  0
VERTEX
  5
1A7
100
AcDbEntity
  8
0
 62
     0
100
AcDbVertex
100
AcDb2dVertex
 10
0.416
 20
-0.624
 30
0.0
  0
VERTEX
  5
1A8
100
AcDbEntity
  8
0
 62
     0
100
AcDbVertex
100
AcDb2dVertex
 10
0.476
 20
-0.5795
 30
0.0
  0
VERTEX
  5
1A9
100
AcDbEntity
  8
0
 62
     0
100
AcDbVertex
100
AcDb2dVertex
 10
0.5315
 20
-0.529
 30
0.0
  0
VERTEX
  5
1AA
100
AcDbEntity
  8
0
 62
     0
100
AcDbVertex
100
AcDb2dVertex
 10
0.5815
 20
-0.4735
 30
0.0
  0
VERTEX
  5
1AB
100
AcDbEntity
  8
0
 62
     0
100
AcDbVertex
100
AcDb2dVertex
 10
0.626
 20
-0.413
 30
0.0
  0
VERTEX
  5
1AC
100
AcDbEntity
  8
0
 62
     0
100
AcDbVertex
100
AcDb2dVertex
 10
0.664
 20
-0.3485
 30
0.0
  0
VERTEX
  5
1AD
100
AcDbEntity
  8
0
 62
     0
100
AcDbVertex
100
AcDb2dVertex
 10
0.6955
 20
-0.2805
 30
0.0
  0
VERTEX
  5
1AE
100
AcDbEntity
  8
0
 62
     0
100
AcDbVertex
100
AcDb2dVertex
 10
0.72
 20
-0.2095
 30
0.0
  0
VERTEX
  5
1AF
100
AcDbEntity
  8
0
 62
     0
100
AcDbVertex
100
AcDb2dVertex
 10
0.7375
 20
-0.1365
 30
0.0
  0
VERTEX
  5
1B0
100
AcDbEntity
  8
0
 62
     0
100
AcDbVertex
100
AcDb2dVertex
 10
0.7475
 20
-0.0625
 30
0.0
  0
VERTEX
  5
1B1
100
AcDbEntity
  8
0
 62
     0
100
AcDbVertex
100
AcDb2dVertex
 10
0.75
 20
0.0
 30
0.0
  0
SEQEND
  5
1B2
100
AcDbEntity
  8
0
 62
     0
  0
POINT
  5
1B3
100
AcDbEntity
  8
0
 62
     0
100
AcDbPoint
 10
0.0
 20
0.0
 30
0.0
  0
ATTDEF
  5
1B4
100
AcDbEntity
  8
0
100
AcDbText
 10
0.0
 20
0.0
 30
0.0
 40
1.0
  1

100
AcDbAttributeDefinition
  3
pto:
  2
PONTO
 70
     0
  0
ATTDEF
  5
1B5
100
AcDbEntity
  8
0
100
AcDbText
 10
0.0
 20
0.0
 30
0.0
 40
1.0
  1

100
AcDbAttributeDefinition
  3
desc:
  2
DESC
 70
     0
  0
ATTDEF
  5
1B6
100
AcDbEntity
  8
0
100
AcDbText
 10
0.0
 20
0.0
 30
0.0
 40
1.0
  1

100
AcDbAttributeDefinition
  3
ct:
  2
COTA
 70
     0
  0
ENDBLK
  5
1B7
100
AcDbEntity
  8
0
100
AcDbBlockEnd
  0
BLOCK
  5
1B9
100
AcDbEntity
  8
0
100
AcDbBlockBegin
  2
SIMB_CRUZETA
 70
     0
 10
0.0
 20
0.0
 30
0.0
  3
SIMB_CRUZETA
  1

  0
POLYLINE
  5
1BA
100
AcDbEntity
  8
0
 62
     0
100
AcDb2dPolyline
 66
     1
 10
0.0
 20
0.0
 30
0.0
  0
VERTEX
  5
1BB
100
AcDbEntity
  8
0
 62
     0
100
AcDbVertex
100
AcDb2dVertex
 10
-1.25
 20
0.0
 30
0.0
  0
VERTEX
  5
1BC
100
AcDbEntity
  8
0
 62
     0
100
AcDbVertex
100
AcDb2dVertex
 10
1.25
 20
0.0
 30
0.0
  0
SEQEND
  5
1BD
100
AcDbEntity
  8
0
 62
     0
  0
POLYLINE
  5
1BE
100
AcDbEntity
  8
0
 62
     0
100
AcDb2dPolyline
 66
     1
 10
0.0
 20
0.0
 30
0.0
  0
VERTEX
  5
1BF
100
AcDbEntity
  8
0
 62
     0
100
AcDbVertex
100
AcDb2dVertex
 10
0.0
 20
-1.25
 30
0.0
  0
VERTEX
  5
1C0
100
AcDbEntity
  8
0
 62
     0
100
AcDbVertex
100
AcDb2dVertex
 10
0.0
 20
1.25
 30
0.0
  0
SEQEND
  5
1C1
100
AcDbEntity
  8
0
 62
     0
  0
ATTDEF
  5
1C2
100
AcDbEntity
  8
0
100
AcDbText
 10
0.0
 20
0.0
 30
0.0
 40
1.0
  1

100
AcDbAttributeDefinition
  3
pto:
  2
PONTO
 70
     0
  0
ATTDEF
  5
1C3
100
AcDbEntity
  8
0
100
AcDbText
 10
0.0
 20
0.0
 30
0.0
 40
1.0
  1

100
AcDbAttributeDefinition
  3
desc:
  2
DESC
 70
     0
  0
ATTDEF
  5
1C4
100
AcDbEntity
  8
0
100
AcDbText
 10
0.0
 20
0.0
 30
0.0
 40
1.0
  1

100
AcDbAttributeDefinition
  3
ct:
  2
COTA
 70
     0
  0
ENDBLK
  5
1C5
100
AcDbEntity
  8
0
100
AcDbBlockEnd
  0
BLOCK
  5
1C7
100
AcDbEntity
  8
0
100
AcDbBlockBegin
  2
SIMB_BARRAS
 70
     0
 10
0.0
 20
0.0
 30
0.0
  3
SIMB_BARRAS
  1

  0
POLYLINE
  5
1C8
100
AcDbEntity
  8
0
 62
     0
100
AcDb2dPolyline
 66
     1
 10
0.0
 20
0.0
 30
0.0
  0
VERTEX
  5
1C9
100
AcDbEntity
  8
0
 62
     0
100
AcDbVertex
100
AcDb2dVertex
 10
-0.875
 20
-1.25
 30
0.0
  0
VERTEX
  5
1CA
100
AcDbEntity
  8
0
 62
     0
100
AcDbVertex
100
AcDb2dVertex
 10
-0.25
 20
1.25
 30
0.0
  0
SEQEND
  5
1CB
100
AcDbEntity
  8
0
 62
     0
  0
POLYLINE
  5
1CC
100
AcDbEntity
  8
0
 62
     0
100
AcDb2dPolyline
 66
     1
 10
0.0
 20
0.0
 30
0.0
  0
VERTEX
  5
1CD
100
AcDbEntity
  8
0
 62
     0
100
AcDbVertex
100
AcDb2dVertex
 10
0.875
 20
1.25
 30
0.0
  0
VERTEX
  5
1CE
100
AcDbEntity
  8
0
 62
     0
100
AcDbVertex
100
AcDb2dVertex
 10
0.25
 20
-1.25
 30
0.0
  0
SEQEND
  5
1CF
100
AcDbEntity
  8
0
 62
     0
  0
POINT
  5
1D0
100
AcDbEntity
  8
0
 62
     0
100
AcDbPoint
 10
0.0
 20
0.0
 30
0.0
  0
ATTDEF
  5
1D1
100
AcDbEntity
  8
0
100
AcDbText
 10
0.0
 20
0.0
 30
0.0
 40
1.0
  1

100
AcDbAttributeDefinition
  3
pto:
  2
PONTO
 70
     0
  0
ATTDEF
  5
1D2
100
AcDbEntity
  8
0
100
AcDbText
 10
0.0
 20
0.0
 30
0.0
 40
1.0
  1

100
AcDbAttributeDefinition
  3
desc:
  2
DESC
 70
     0
  0
ATTDEF
  5
1D3
100
AcDbEntity
  8
0
100
AcDbText
 10
0.0
 20
0.0
 30
0.0
 40
1.0
  1

100
AcDbAttributeDefinition
  3
ct:
  2
COTA
 70
     0
  0
ENDBLK
  5
1D4
100
AcDbEntity
  8
0
100
AcDbBlockEnd
  0
BLOCK
  5
1D6
100
AcDbEntity
  8
0
100
AcDbBlockBegin
  2
SIMB_PONTO
 70
     0
 10
0.0
 20
0.0
 30
0.0
  3
SIMB_PONTO
  1

  0
POINT
  5
1D7
100
AcDbEntity
  8
0
 62
     0
100
AcDbPoint
 10
0.0
 20
0.0
 30
0.0
  0
ATTDEF
  5
1D8
100
AcDbEntity
  8
0
100
AcDbText
 10
0.0
 20
0.0
 30
0.0
 40
1.0
  1

100
AcDbAttributeDefinition
  3
pto:
  2
PONTO
 70
     0
  0
ATTDEF
  5
1D9
100
AcDbEntity
  8
0
100
AcDbText
 10
0.0
 20
0.0
 30
0.0
 40
1.0
  1

100
AcDbAttributeDefinition
  3
desc:
  2
DESC
 70
     0
  0
ATTDEF
  5
1DA
100
AcDbEntity
  8
0
100
AcDbText
 10
0.0
 20
0.0
 30
0.0
 40
1.0
  1

100
AcDbAttributeDefinition
  3
ct:
  2
COTA
 70
     0
  0
ENDBLK
  5
1DB
100
AcDbEntity
  8
0
100
AcDbBlockEnd
  0
BLOCK
  5
1DD
100
AcDbEntity
  8
0
100
AcDbBlockBegin
  2
SIMB_TRIANGULO
 70
     0
 10
0.0
 20
0.0
 30
0.0
  3
SIMB_TRIANGULO
  1

  0
POLYLINE
  5
1DE
100
AcDbEntity
  8
0
 62
     0
100
AcDb2dPolyline
 66
     1
 10
0.0
 20
0.0
 30
0.0
 70
     1
  0
VERTEX
  5
1DF
100
AcDbEntity
  8
0
 62
     0
100
AcDbVertex
100
AcDb2dVertex
 10
-1.5
 20
-0.75
 30
0.0
  0
VERTEX
  5
1E0
100
AcDbEntity
  8
0
 62
     0
100
AcDbVertex
100
AcDb2dVertex
 10
0.0
 20
1.75
 30
0.0
  0
VERTEX
  5
1E1
100
AcDbEntity
  8
0
 62
     0
100
AcDbVertex
100
AcDb2dVertex
 10
1.5
 20
-0.75
 30
0.0
  0
SEQEND
  5
1E2
100
AcDbEntity
  8
0
 62
     0
  0
POINT
  5
1E3
100
AcDbEntity
  8
0
 62
     0
100
AcDbPoint
 10
0.0
 20
0.0
 30
0.0
  0
ATTDEF
  5
1E4
100
AcDbEntity
  8
0
100
AcDbText
 10
0.0
 20
0.0
 30
0.0
 40
1.0
  1

100
AcDbAttributeDefinition
  3
pto:
  2
PONTO
 70
     0
  0
ATTDEF
  5
1E5
100
AcDbEntity
  8
0
100
AcDbText
 10
0.0
 20
0.0
 30
0.0
 40
1.0
  1

100
AcDbAttributeDefinition
  3
desc:
  2
DESC
 70
     0
  0
ATTDEF
  5
1E6
100
AcDbEntity
  8
0
100
AcDbText
 10
0.0
 20
0.0
 30
0.0
 40
1.0
  1

100
AcDbAttributeDefinition
  3
ct:
  2
COTA
 70
     0
  0
ENDBLK
  5
1E7
100
AcDbEntity
  8
0
100
AcDbBlockEnd
  0
BLOCK
  5
1E9
100
AcDbEntity
  8
0
100
AcDbBlockBegin
  2
SIMB_POSTE
 70
     0
 10
0.0
 20
0.0
 30
0.0
  3
SIMB_POSTE
  1

  0
POLYLINE
  5
1EA
100
AcDbEntity
  8
0
 62
     0
100
AcDb2dPolyline
 66
     1
 10
0.0
 20
0.0
 30
0.0
  0
VERTEX
  5
1EB
100
AcDbEntity
  8
0
 62
     0
100
AcDbVertex
100
AcDb2dVertex
 10
0.0
 20
0.0
 30
0.0
  0
VERTEX
  5
1EC
100
AcDbEntity
  8
0
 62
     0
100
AcDbVertex
100
AcDb2dVertex
 10
0.0
 20
12.5
 30
0.0
  0
SEQEND
  5
1ED
100
AcDbEntity
  8
0
 62
     0
  0
POLYLINE
  5
1EE
100
AcDbEntity
  8
0
 62
     0
100
AcDb2dPolyline
 66
     1
 10
0.0
 20
0.0
 30
0.0
  0
VERTEX
  5
1EF
100
AcDbEntity
  8
0
 62
     0
100
AcDbVertex
100
AcDb2dVertex
 10
-3.75
 20
7.5
 30
0.0
  0
VERTEX
  5
1F0
100
AcDbEntity
  8
0
 62
     0
100
AcDbVertex
100
AcDb2dVertex
 10
3.75
 20
7.5
 30
0.0
  0
SEQEND
  5
1F1
100
AcDbEntity
  8
0
 62
     0
  0
POLYLINE
  5
1F2
100
AcDbEntity
  8
0
 62
     0
100
AcDb2dPolyline
 66
     1
 10
0.0
 20
0.0
 30
0.0
  0
VERTEX
  5
1F3
100
AcDbEntity
  8
0
 62
     0
100
AcDbVertex
100
AcDb2dVertex
 10
-2.5
 20
10.0
 30
0.0
  0
VERTEX
  5
1F4
100
AcDbEntity
  8
0
 62
     0
100
AcDbVertex
100
AcDb2dVertex
 10
2.5
 20
10.0
 30
0.0
  0
SEQEND
  5
1F5
100
AcDbEntity
  8
0
 62
     0
  0
ATTDEF
  5
1F6
100
AcDbEntity
  8
0
100
AcDbText
 10
0.0
 20
0.0
 30
0.0
 40
1.0
  1

100
AcDbAttributeDefinition
  3
pto:
  2
PONTO
 70
     0
  0
ATTDEF
  5
1F7
100
AcDbEntity
  8
0
100
AcDbText
 10
0.0
 20
0.0
 30
0.0
 40
1.0
  1

100
AcDbAttributeDefinition
  3
desc:
  2
DESC
 70
     0
  0
ATTDEF
  5
1F8
100
AcDbEntity
  8
0
100
AcDbText
 10
0.0
 20
0.0
 30
0.0
 40
1.0
  1

100
AcDbAttributeDefinition
  3
ct:
  2
COTA
 70
     0
  0
ENDBLK
  5
1F9
100
AcDbEntity
  8
0
100
AcDbBlockEnd
  0
BLOCK
  5
1FB
100
AcDbEntity
  8
0
100
AcDbBlockBegin
  2
1E465F0
 70
     0
 10
0.0
 20
0.0
 30
0.0
  3
1E465F0
  1

  0
POLYLINE
  5
1FC
100
AcDbEntity
  8
TG
  6
CONTINUO
 62
     7
100
AcDb2dPolyline
 66
     1
 10
0.0
 20
0.0
 30
0.0
  0
VERTEX
  5
1FD
100
AcDbEntity
  8
TG
  6
CONTINUO
 62
     7
100
AcDbVertex
100
AcDb2dVertex
 10
10.0
 20
23.755
 30
5.351
  0
VERTEX
  5
1FE
100
AcDbEntity
  8
TG
  6
CONTINUO
 62
     7
100
AcDbVertex
100
AcDb2dVertex
 10
76.0
 20
23.405
 30
5.281
  0
VERTEX
  5
1FF
100
AcDbEntity
  8
TG
  6
CONTINUO
 62
     7
100
AcDbVertex
100
AcDb2dVertex
 10
105.0
 20
22.745
 30
5.149
  0
VERTEX
  5
200
100
AcDbEntity
  8
TG
  6
CONTINUO
 62
     7
100
AcDbVertex
100
AcDb2dVertex
 10
205.0
 20
19.605
 30
4.521
  0
SEQEND
  5
201
100
AcDbEntity
  8
TG
  6
CONTINUO
 62
     7
  0
POLYLINE
  5
202
100
AcDbEntity
  8
TG
  6
CONTINUO
 62
     3
100
AcDb2dPolyline
 66
     1
 10
0.0
 20
0.0
 30
0.0
  0
VERTEX
  5
203
100
AcDbEntity
  8
TG
  6
CONTINUO
 62
     3
100
AcDbVertex
100
AcDb2dVertex
 10
87.5
 20
23.145
 30
5.229
  0
VERTEX
  5
204
100
AcDbEntity
  8
TG
  6
CONTINUO
 62
     3
100
AcDbVertex
100
AcDb2dVertex
 10
87.5
 20
21.795
 30
4.959
  0
VERTEX
  5
205
100
AcDbEntity
  8
TG
  6
CONTINUO
 62
     3
100
AcDbVertex
100
AcDb2dVertex
 10
87.5
 20
21.795
 30
4.959
  0
VERTEX
  5
206
100
AcDbEntity
  8
TG
  6
CONTINUO
 62
     3
100
AcDbVertex
100
AcDb2dVertex
 10
107.5
 20
21.995
 30
4.999
  0
VERTEX
  5
207
100
AcDbEntity
  8
TG
  6
CONTINUO
 62
     3
100
AcDbVertex
100
AcDb2dVertex
 10
127.5
 20
22.195
 30
5.039
  0
VERTEX
  5
208
100
AcDbEntity
  8
TG
  6
CONTINUO
 62
     3
100
AcDbVertex
100
AcDb2dVertex
 10
127.5
 20
22.195
 30
5.039
  0
VERTEX
  5
209
100
AcDbEntity
  8
TG
  6
CONTINUO
 62
     3
100
AcDbVertex
100
AcDb2dVertex
 10
127.7465
 20
22.03
 30
5.006
  0
SEQEND
  5
20A
100
AcDbEntity
  8
TG
  6
CONTINUO
 62
     3
  0
POLYLINE
  5
20B
100
AcDbEntity
  8
TG
  6
CONTINUO
 62
     7
100
AcDb2dPolyline
 66
     1
 10
0.0
 20
0.0
 30
0.0
  0
VERTEX
  5
20C
100
AcDbEntity
  8
TG
  6
CONTINUO
 62
     7
100
AcDbVertex
100
AcDb2dVertex
 10
105.0
 20
7.0
 30
0.0
  0
VERTEX
  5
20D
100
AcDbEntity
  8
TG
  6
CONTINUO
 62
     7
100
AcDbVertex
100
AcDb2dVertex
 10
105.0
 20
23.755
 30
0.0
  0
SEQEND
  5
20E
100
AcDbEntity
  8
TG
  6
CONTINUO
 62
     7
  0
TEXT
  5
20F
100
AcDbEntity
  8
TG
 62
     7
100
AcDbText
 10
93.786111
 20
24.255
 30
0.0
 40
1.5
  1
Cota do projeto: 5.149
 41
0.67963
  7
SIMPLEX
 72
     5
 11
116.213889
 21
24.255
 31
0.0
100
AcDbText
  0
TEXT
  5
210
100
AcDbEntity
  8
TG
 62
     7
100
AcDbText
 10
93.725
 20
26.505
 30
0.0
 40
1.5
  1
Cota do terreno: 5.149
 41
0.683333
  7
SIMPLEX
 72
     5
 11
116.275
 21
26.505
 31
0.0
100
AcDbText
  0
TEXT
  5
211
100
AcDbEntity
  8
TG
 62
     7
100
AcDbText
 10
97.788889
 20
28.755
 30
0.0
 40
1.5
  1
Estaca: 0+000
 41
0.739601
  7
SIMPLEX
 72
     5
 11
112.211111
 21
28.755
 31
0.0
100
AcDbText
  0
POLYLINE
  5
212
100
AcDbEntity
  8
TG
  6
CONTINUO
 62
     7
100
AcDb2dPolyline
 66
     1
 10
0.0
 20
0.0
 30
0.0
  0
VERTEX
  5
213
100
AcDbEntity
  8
TG
  6
CONTINUO
 62
     7
100
AcDbVertex
100
AcDb2dVertex
 10
10.0
 20
7.0
 30
0.0
  0
VERTEX
  5
214
100
AcDbEntity
  8
TG
  6
CONTINUO
 62
     7
100
AcDbVertex
100
AcDb2dVertex
 10
10.0
 20
23.755
 30
0.0
  0
SEQEND
  5
215
100
AcDbEntity
  8
TG
  6
CONTINUO
 62
     7
  0
POLYLINE
  5
216
100
AcDbEntity
  8
TG
  6
CONTINUO
 62
     7
100
AcDb2dPolyline
 66
     1
 10
0.0
 20
0.0
 30
0.0
  0
VERTEX
  5
217
100
AcDbEntity
  8
TG
  6
CONTINUO
 62
     7
100
AcDbVertex
100
AcDb2dVertex
 10
10.0
 20
7.0
 30
0.0
  0
VERTEX
  5
218
100
AcDbEntity
  8
TG
  6
CONTINUO
 62
     7
100
AcDbVertex
100
AcDb2dVertex
 10
205.0
 20
7.0
 30
0.0
  0
SEQEND
  5
219
100
AcDbEntity
  8
TG
  6
CONTINUO
 62
     7
  0
POLYLINE
  5
21A
100
AcDbEntity
  8
TG
  6
CONTINUO
 62
     7
100
AcDb2dPolyline
 66
     1
 10
0.0
 20
0.0
 30
0.0
  0
VERTEX
  5
21B
100
AcDbEntity
  8
TG
  6
CONTINUO
 62
     7
100
AcDbVertex
100
AcDb2dVertex
 10
5.0
 20
7.0
 30
0.0
  0
VERTEX
  5
21C
100
AcDbEntity
  8
TG
  6
CONTINUO
 62
     7
100
AcDbVertex
100
AcDb2dVertex
 10
10.0
 20
7.0
 30
0.0
  0
SEQEND
  5
21D
100
AcDbEntity
  8
TG
  6
CONTINUO
 62
     7
  0
POLYLINE
  5
21E
100
AcDbEntity
  8
TG
  6
CONTINUO
 62
     7
100
AcDb2dPolyline
 66
     1
 10
0.0
 20
0.0
 30
0.0
  0
VERTEX
  5
21F
100
AcDbEntity
  8
TG
  6
CONTINUO
 62
     7
100
AcDbVertex
100
AcDb2dVertex
 10
5.0
 20
17.0
 30
0.0
  0
VERTEX
  5
220
100
AcDbEntity
  8
TG
  6
CONTINUO
 62
     7
100
AcDbVertex
100
AcDb2dVertex
 10
10.0
 20
17.0
 30
0.0
  0
SEQEND
  5
221
100
AcDbEntity
  8
TG
  6
CONTINUO
 62
     7
  0
TEXT
  5
222
100
AcDbEntity
  8
TG
 62
     7
100
AcDbText
 10
0.0
 20
7.5
 30
0.0
 40
1.5
  1
2
 41
0.814815
  7
SIMPLEX
 72
     5
 11
1.222222
 21
7.5
 31
0.0
100
AcDbText
  0
POLYLINE
  5
223
100
AcDbEntity
  8
TG
  6
CONTINUO
 62
     7
100
AcDb2dPolyline
 66
     1
 10
0.0
 20
0.0
 30
0.0
  0
VERTEX
  5
224
100
AcDbEntity
  8
TG
  6
CONTINUO
 62
     7
100
AcDbVertex
100
AcDb2dVertex
 10
15.0
 20
4.5
 30
0.0
  0
VERTEX
  5
225
100
AcDbEntity
  8
TG
  6
CONTINUO
 62
     7
100
AcDbVertex
100
AcDb2dVertex
 10
15.0
 20
7.0
 30
0.0
  0
SEQEND
  5
226
100
AcDbEntity
  8
TG
  6
CONTINUO
 62
     7
  0
POLYLINE
  5
227
100
AcDbEntity
  8
TG
  6
CONTINUO
 62
     7
100
AcDb2dPolyline
 66
     1
 10
0.0
 20
0.0
 30
0.0
  0
VERTEX
  5
228
100
AcDbEntity
  8
TG
  6
CONTINUO
 62
     7
100
AcDbVertex
100
AcDb2dVertex
 10
25.0
 20
4.5
 30
0.0
  0
VERTEX
  5
229
100
AcDbEntity
  8
TG
  6
CONTINUO
 62
     7
100
AcDbVertex
100
AcDb2dVertex
 10
25.0
 20
7.0
 30
0.0
  0
SEQEND
  5
22A
100
AcDbEntity
  8
TG
  6
CONTINUO
 62
     7
  0
POLYLINE
  5
22B
100
AcDbEntity
  8
TG
  6
CONTINUO
 62
     7
100
AcDb2dPolyline
 66
     1
 10
0.0
 20
0.0
 30
0.0
  0
VERTEX
  5
22C
100
AcDbEntity
  8
TG
  6
CONTINUO
 62
     7
100
AcDbVertex
100
AcDb2dVertex
 10
35.0
 20
4.5
 30
0.0
  0
VERTEX
  5
22D
100
AcDbEntity
  8
TG
  6
CONTINUO
 62
     7
100
AcDbVertex
100
AcDb2dVertex
 10
35.0
 20
7.0
 30
0.0
  0
SEQEND
  5
22E
100
AcDbEntity
  8
TG
  6
CONTINUO
 62
     7
  0
POLYLINE
  5
22F
100
AcDbEntity
  8
TG
  6
CONTINUO
 62
     7
100
AcDb2dPolyline
 66
     1
 10
0.0
 20
0.0
 30
0.0
  0
VERTEX
  5
230
100
AcDbEntity
  8
TG
  6
CONTINUO
 62
     7
100
AcDbVertex
100
AcDb2dVertex
 10
45.0
 20
4.5
 30
0.0
  0
VERTEX
  5
231
100
AcDbEntity
  8
TG
  6
CONTINUO
 62
     7
100
AcDbVertex
100
AcDb2dVertex
 10
45.0
 20
7.0
 30
0.0
  0
SEQEND
  5
232
100
AcDbEntity
  8
TG
  6
CONTINUO
 62
     7
  0
POLYLINE
  5
233
100
AcDbEntity
  8
TG
  6
CONTINUO
 62
     7
100
AcDb2dPolyline
 66
     1
 10
0.0
 20
0.0
 30
0.0
  0
VERTEX
  5
234
100
AcDbEntity
  8
TG
  6
CONTINUO
 62
     7
100
AcDbVertex
100
AcDb2dVertex
 10
55.0
 20
2.0
 30
0.0
  0
VERTEX
  5
235
100
AcDbEntity
  8
TG
  6
CONTINUO
 62
     7
100
AcDbVertex
100
AcDb2dVertex
 10
55.0
 20
7.0
 30
0.0
  0
SEQEND
  5
236
100
AcDbEntity
  8
TG
  6
CONTINUO
 62
     7
  0
TEXT
  5
237
100
AcDbEntity
  8
TG
 62
     7
100
AcDbText
 10
53.777778
 20
0.0
 30
0.0
 40
1.5
  1
10
 41
0.814815
  7
SIMPLEX
 72
     5
 11
56.222222
 21
0.0
 31
0.0
100
AcDbText
  0
POLYLINE
  5
238
100
AcDbEntity
  8
TG
  6
CONTINUO
 62
     7
100
AcDb2dPolyline
 66
     1
 10
0.0
 20
0.0
 30
0.0
  0
VERTEX
  5
239
100
AcDbEntity
  8
TG
  6
CONTINUO
 62
     7
100
AcDbVertex
100
AcDb2dVertex
 10
65.0
 20
4.5
 30
0.0
  0
VERTEX
  5
23A
100
AcDbEntity
  8
TG
  6
CONTINUO
 62
     7
100
AcDbVertex
100
AcDb2dVertex
 10
65.0
 20
7.0
 30
0.0
  0
SEQEND
  5
23B
100
AcDbEntity
  8
TG
  6
CONTINUO
 62
     7
  0
POLYLINE
  5
23C
100
AcDbEntity
  8
TG
  6
CONTINUO
 62
     7
100
AcDb2dPolyline
 66
     1
 10
0.0
 20
0.0
 30
0.0
  0
VERTEX
  5
23D
100
AcDbEntity
  8
TG
  6
CONTINUO
 62
     7
100
AcDbVertex
100
AcDb2dVertex
 10
75.0
 20
4.5
 30
0.0
  0
VERTEX
  5
23E
100
AcDbEntity
  8
TG
  6
CONTINUO
 62
     7
100
AcDbVertex
100
AcDb2dVertex
 10
75.0
 20
7.0
 30
0.0
  0
SEQEND
  5
23F
100
AcDbEntity
  8
TG
  6
CONTINUO
 62
     7
  0
POLYLINE
  5
240
100
AcDbEntity
  8
TG
  6
CONTINUO
 62
     7
100
AcDb2dPolyline
 66
     1
 10
0.0
 20
0.0
 30
0.0
  0
VERTEX
  5
241
100
AcDbEntity
  8
TG
  6
CONTINUO
 62
     7
100
AcDbVertex
100
AcDb2dVertex
 10
85.0
 20
4.5
 30
0.0
  0
VERTEX
  5
242
100
AcDbEntity
  8
TG
  6
CONTINUO
 62
     7
100
AcDbVertex
100
AcDb2dVertex
 10
85.0
 20
7.0
 30
0.0
  0
SEQEND
  5
243
100
AcDbEntity
  8
TG
  6
CONTINUO
 62
     7
  0
POLYLINE
  5
244
100
AcDbEntity
  8
TG
  6
CONTINUO
 62
     7
100
AcDb2dPolyline
 66
     1
 10
0.0
 20
0.0
 30
0.0
  0
VERTEX
  5
245
100
AcDbEntity
  8
TG
  6
CONTINUO
 62
     7
100
AcDbVertex
100
AcDb2dVertex
 10
95.0
 20
4.5
 30
0.0
  0
VERTEX
  5
246
100
AcDbEntity
  8
TG
  6
CONTINUO
 62
     7
100
AcDbVertex
100
AcDb2dVertex
 10
95.0
 20
7.0
 30
0.0
  0
SEQEND
  5
247
100
AcDbEntity
  8
TG
  6
CONTINUO
 62
     7
  0
TEXT
  5
248
100
AcDbEntity
  8
TG
 62
     7
100
AcDbText
 10
104.388889
 20
2.5
 30
0.0
 40
1.5
  1
0
 41
0.814815
  7
SIMPLEX
 72
     5
 11
105.611111
 21
2.5
 31
0.0
100
AcDbText
  0
POLYLINE
  5
249
100
AcDbEntity
  8
TG
  6
CONTINUO
 62
     7
100
AcDb2dPolyline
 66
     1
 10
0.0
 20
0.0
 30
0.0
  0
VERTEX
  5
24A
100
AcDbEntity
  8
TG
  6
CONTINUO
 62
     7
100
AcDbVertex
100
AcDb2dVertex
 10
115.0
 20
4.5
 30
0.0
  0
VERTEX
  5
24B
100
AcDbEntity
  8
TG
  6
CONTINUO
 62
     7
100
AcDbVertex
100
AcDb2dVertex
 10
115.0
 20
7.0
 30
0.0
  0
SEQEND
  5
24C
100
AcDbEntity
  8
TG
  6
CONTINUO
 62
     7
  0
POLYLINE
  5
24D
100
AcDbEntity
  8
TG
  6
CONTINUO
 62
     7
100
AcDb2dPolyline
 66
     1
 10
0.0
 20
0.0
 30
0.0
  0
VERTEX
  5
24E
100
AcDbEntity
  8
TG
  6
CONTINUO
 62
     7
100
AcDbVertex
100
AcDb2dVertex
 10
125.0
 20
4.5
 30
0.0
  0
VERTEX
  5
24F
100
AcDbEntity
  8
TG
  6
CONTINUO
 62
     7
100
AcDbVertex
100
AcDb2dVertex
 10
125.0
 20
7.0
 30
0.0
  0
SEQEND
  5
250
100
AcDbEntity
  8
TG
  6
CONTINUO
 62
     7
  0
POLYLINE
  5
251
100
AcDbEntity
  8
TG
  6
CONTINUO
 62
     7
100
AcDb2dPolyline
 66
     1
 10
0.0
 20
0.0
 30
0.0
  0
VERTEX
  5
252
100
AcDbEntity
  8
TG
  6
CONTINUO
 62
     7
100
AcDbVertex
100
AcDb2dVertex
 10
135.0
 20
4.5
 30
0.0
  0
VERTEX
  5
253
100
AcDbEntity
  8
TG
  6
CONTINUO
 62
     7
100
AcDbVertex
100
AcDb2dVertex
 10
135.0
 20
7.0
 30
0.0
  0
SEQEND
  5
254
100
AcDbEntity
  8
TG
  6
CONTINUO
 62
     7
  0
POLYLINE
  5
255
100
AcDbEntity
  8
TG
  6
CONTINUO
 62
     7
100
AcDb2dPolyline
 66
     1
 10
0.0
 20
0.0
 30
0.0
  0
VERTEX
  5
256
100
AcDbEntity
  8
TG
  6
CONTINUO
 62
     7
100
AcDbVertex
100
AcDb2dVertex
 10
145.0
 20
4.5
 30
0.0
  0
VERTEX
  5
257
100
AcDbEntity
  8
TG
  6
CONTINUO
 62
     7
100
AcDbVertex
100
AcDb2dVertex
 10
145.0
 20
7.0
 30
0.0
  0
SEQEND
  5
258
100
AcDbEntity
  8
TG
  6
CONTINUO
 62
     7
  0
POLYLINE
  5
259
100
AcDbEntity
  8
TG
  6
CONTINUO
 62
     7
100
AcDb2dPolyline
 66
     1
 10
0.0
 20
0.0
 30
0.0
  0
VERTEX
  5
25A
100
AcDbEntity
  8
TG
  6
CONTINUO
 62
     7
100
AcDbVertex
100
AcDb2dVertex
 10
155.0
 20
2.0
 30
0.0
  0
VERTEX
  5
25B
100
AcDbEntity
  8
TG
  6
CONTINUO
 62
     7
100
AcDbVertex
100
AcDb2dVertex
 10
155.0
 20
7.0
 30
0.0
  0
SEQEND
  5
25C
100
AcDbEntity
  8
TG
  6
CONTINUO
 62
     7
  0
TEXT
  5
25D
100
AcDbEntity
  8
TG
 62
     7
100
AcDbText
 10
153.777778
 20
0.0
 30
0.0
 40
1.5
  1
10
 41
0.814815
  7
SIMPLEX
 72
     5
 11
156.222222
 21
0.0
 31
0.0
100
AcDbText
  0
POLYLINE
  5
25E
100
AcDbEntity
  8
TG
  6
CONTINUO
 62
     7
100
AcDb2dPolyline
 66
     1
 10
0.0
 20
0.0
 30
0.0
  0
VERTEX
  5
25F
100
AcDbEntity
  8
TG
  6
CONTINUO
 62
     7
100
AcDbVertex
100
AcDb2dVertex
 10
165.0
 20
4.5
 30
0.0
  0
VERTEX
  5
260
100
AcDbEntity
  8
TG
  6
CONTINUO
 62
     7
100
AcDbVertex
100
AcDb2dVertex
 10
165.0
 20
7.0
 30
0.0
  0
SEQEND
  5
261
100
AcDbEntity
  8
TG
  6
CONTINUO
 62
     7
  0
POLYLINE
  5
262
100
AcDbEntity
  8
TG
  6
CONTINUO
 62
     7
100
AcDb2dPolyline
 66
     1
 10
0.0
 20
0.0
 30
0.0
  0
VERTEX
  5
263
100
AcDbEntity
  8
TG
  6
CONTINUO
 62
     7
100
AcDbVertex
100
AcDb2dVertex
 10
175.0
 20
4.5
 30
0.0
  0
VERTEX
  5
264
100
AcDbEntity
  8
TG
  6
CONTINUO
 62
     7
100
AcDbVertex
100
AcDb2dVertex
 10
175.0
 20
7.0
 30
0.0
  0
SEQEND
  5
265
100
AcDbEntity
  8
TG
  6
CONTINUO
 62
     7
  0
POLYLINE
  5
266
100
AcDbEntity
  8
TG
  6
CONTINUO
 62
     7
100
AcDb2dPolyline
 66
     1
 10
0.0
 20
0.0
 30
0.0
  0
VERTEX
  5
267
100
AcDbEntity
  8
TG
  6
CONTINUO
 62
     7
100
AcDbVertex
100
AcDb2dVertex
 10
185.0
 20
4.5
 30
0.0
  0
VERTEX
  5
268
100
AcDbEntity
  8
TG
  6
CONTINUO
 62
     7
100
AcDbVertex
100
AcDb2dVertex
 10
185.0
 20
7.0
 30
0.0
  0
SEQEND
  5
269
100
AcDbEntity
  8
TG
  6
CONTINUO
 62
     7
  0
POLYLINE
  5
26A
100
AcDbEntity
  8
TG
  6
CONTINUO
 62
     7
100
AcDb2dPolyline
 66
     1
 10
0.0
 20
0.0
 30
0.0
  0
VERTEX
  5
26B
100
AcDbEntity
  8
TG
  6
CONTINUO
 62
     7
100
AcDbVertex
100
AcDb2dVertex
 10
195.0
 20
4.5
 30
0.0
  0
VERTEX
  5
26C
100
AcDbEntity
  8
TG
  6
CONTINUO
 62
     7
100
AcDbVertex
100
AcDb2dVertex
 10
195.0
 20
7.0
 30
0.0
  0
SEQEND
  5
26D
100
AcDbEntity
  8
TG
  6
CONTINUO
 62
     7
  0
POLYLINE
  5
26E
100
AcDbEntity
  8
TG
  6
CONTINUO
 62
     7
100
AcDb2dPolyline
 66
     1
 10
0.0
 20
0.0
 30
0.0
  0
VERTEX
  5
26F
100
AcDbEntity
  8
TG
  6
CONTINUO
 62
     7
100
AcDbVertex
100
AcDb2dVertex
 10
205.0
 20
2.0
 30
0.0
  0
VERTEX
  5
270
100
AcDbEntity
  8
TG
  6
CONTINUO
 62
     7
100
AcDbVertex
100
AcDb2dVertex
 10
205.0
 20
7.0
 30
0.0
  0
SEQEND
  5
271
100
AcDbEntity
  8
TG
  6
CONTINUO
 62
     7
  0
TEXT
  5
272
100
AcDbEntity
  8
TG
 62
     7
100
AcDbText
 10
203.777778
 20
0.0
 30
0.0
 40
1.5
  1
20
 41
0.814815
  7
SIMPLEX
 72
     5
 11
206.222222
 21
0.0
 31
0.0
100
AcDbText
  0
ENDBLK
  5
273
100
AcDbEntity
  8
0
100
AcDbBlockEnd
  0
BLOCK
  5
276
100
AcDbEntity
  8
0
100
AcDbBlockBegin
  2
1E4BAF0
 70
     0
 10
0.0
 20
0.0
 30
0.0
  3
1E4BAF0
  1

  0
POLYLINE
  5
277
100
AcDbEntity
  8
TG
  6
CONTINUO
 62
     7
100
AcDb2dPolyline
 66
     1
 10
0.0
 20
0.0
 30
0.0
  0
VERTEX
  5
278
100
AcDbEntity
  8
TG
  6
CONTINUO
 62
     7
100
AcDbVertex
100
AcDb2dVertex
 10
10.0
 20
62.03
 30
3.455
  0
VERTEX
  5
279
100
AcDbEntity
  8
TG
  6
CONTINUO
 62
     7
100
AcDbVertex
100
AcDb2dVertex
 10
23.5
 20
70.605
 30
5.17
  0
VERTEX
  5
27A
100
AcDbEntity
  8
TG
  6
CONTINUO
 62
     7
100
AcDbVertex
100
AcDb2dVertex
 10
29.0
 20
69.18
 30
4.885
  0
VERTEX
  5
27B
100
AcDbEntity
  8
TG
  6
CONTINUO
 62
     7
100
AcDbVertex
100
AcDb2dVertex
 10
54.0
 20
69.255
 30
4.9
  0
VERTEX
  5
27C
100
AcDbEntity
  8
TG
  6
CONTINUO
 62
     7
100
AcDbVertex
100
AcDb2dVertex
 10
73.0
 20
67.63
 30
4.575
  0
VERTEX
  5
27D
100
AcDbEntity
  8
TG
  6
CONTINUO
 62
     7
100
AcDbVertex
100
AcDb2dVertex
 10
81.5
 20
67.78
 30
4.605
  0
SEQEND
  5
27E
100
AcDbEntity
  8
TG
  6
CONTINUO
 62
     7
  0
POLYLINE
  5
27F
100
AcDbEntity
  8
TG
  6
CONTINUO
 62
     3
100
AcDb2dPolyline
 66
     1
 10
0.0
 20
0.0
 30
0.0
  0
VERTEX
  5
280
100
AcDbEntity
  8
TG
  6
CONTINUO
 62
     3
100
AcDbVertex
100
AcDb2dVertex
 10
36.5
 20
69.205
 30
4.89
  0
VERTEX
  5
281
100
AcDbEntity
  8
TG
  6
CONTINUO
 62
     3
100
AcDbVertex
100
AcDb2dVertex
 10
36.5
 20
68.3
 30
4.709
  0
VERTEX
  5
282
100
AcDbEntity
  8
TG
  6
CONTINUO
 62
     3
100
AcDbVertex
100
AcDb2dVertex
 10
36.5
 20
68.3
 30
4.709
  0
VERTEX
  5
283
100
AcDbEntity
  8
TG
  6
CONTINUO
 62
     3
100
AcDbVertex
100
AcDb2dVertex
 10
56.5
 20
68.5
 30
4.749
  0
VERTEX
  5
284
100
AcDbEntity
  8
TG
  6
CONTINUO
 62
     3
100
AcDbVertex
100
AcDb2dVertex
 10
76.5
 20
68.7
 30
4.789
  0
VERTEX
  5
285
100
AcDbEntity
  8
TG
  6
CONTINUO
 62
     3
100
AcDbVertex
100
AcDb2dVertex
 10
76.5
 20
68.7
 30
4.789
  0
VERTEX
  5
286
100
AcDbEntity
  8
TG
  6
CONTINUO
 62
     3
100
AcDbVertex
100
AcDb2dVertex
 10
77.9725
 20
67.72
 30
4.593
  0
SEQEND
  5
287
100
AcDbEntity
  8
TG
  6
CONTINUO
 62
     3
  0
POLYLINE
  5
288
100
AcDbEntity
  8
TG
  6
CONTINUO
 62
     7
100
AcDb2dPolyline
 66
     1
 10
0.0
 20
0.0
 30
0.0
  0
VERTEX
  5
289
100
AcDbEntity
  8
TG
  6
CONTINUO
 62
     7
100
AcDbVertex
100
AcDb2dVertex
 10
54.0
 20
54.755
 30
0.0
  0
VERTEX
  5
28A
100
AcDbEntity
  8
TG
  6
CONTINUO
 62
     7
100
AcDbVertex
100
AcDb2dVertex
 10
54.0
 20
70.605
 30
0.0
  0
SEQEND
  5
28B
100
AcDbEntity
  8
TG
  6
CONTINUO
 62
     7
  0
TEXT
  5
28C
100
AcDbEntity
  8
TG
 62
     7
100
AcDbText
 10
42.786111
 20
71.105
 30
0.0
 40
1.5
  1
Cota do projeto: 4.899
 41
0.67963
  7
SIMPLEX
 72
     5
 11
65.213889
 21
71.105
 31
0.0
100
AcDbText
  0
TEXT
  5
28D
100
AcDbEntity
  8
TG
 62
     7
100
AcDbText
 10
42.725
 20
73.355
 30
0.0
 40
1.5
  1
Cota do terreno: 4.900
 41
0.683333
  7
SIMPLEX
 72
     5
 11
65.275
 21
73.355
 31
0.0
100
AcDbText
  0
TEXT
  5
28E
100
AcDbEntity
  8
TG
 62
     7
100
AcDbText
 10
46.788889
 20
75.605
 30
0.0
 40
1.5
  1
Estaca: 0+020
 41
0.739601
  7
SIMPLEX
 72
     5
 11
61.211111
 21
75.605
 31
0.0
100
AcDbText
  0
POLYLINE
  5
28F
100
AcDbEntity
  8
TG
  6
CONTINUO
 62
     7
100
AcDb2dPolyline
 66
     1
 10
0.0
 20
0.0
 30
0.0
  0
VERTEX
  5
290
100
AcDbEntity
  8
TG
  6
CONTINUO
 62
     7
100
AcDbVertex
100
AcDb2dVertex
 10
10.0
 20
54.755
 30
0.0
  0
VERTEX
  5
291
100
AcDbEntity
  8
TG
  6
CONTINUO
 62
     7
100
AcDbVertex
100
AcDb2dVertex
 10
10.0
 20
70.605
 30
0.0
  0
SEQEND
  5
292
100
AcDbEntity
  8
TG
  6
CONTINUO
 62
     7
  0
POLYLINE
  5
293
100
AcDbEntity
  8
TG
  6
CONTINUO
 62
     7
100
AcDb2dPolyline
 66
     1
 10
0.0
 20
0.0
 30
0.0
  0
VERTEX
  5
294
100
AcDbEntity
  8
TG
  6
CONTINUO
 62
     7
100
AcDbVertex
100
AcDb2dVertex
 10
10.0
 20
54.755
 30
0.0
  0
VERTEX
  5
295
100
AcDbEntity
  8
TG
  6
CONTINUO
 62
     7
100
AcDbVertex
100
AcDb2dVertex
 10
81.5
 20
54.755
 30
0.0
  0
SEQEND
  5
296
100
AcDbEntity
  8
TG
  6
CONTINUO
 62
     7
  0
POLYLINE
  5
297
100
AcDbEntity
  8
TG
  6
CONTINUO
 62
     7
100
AcDb2dPolyline
 66
     1
 10
0.0
 20
0.0
 30
0.0
  0
VERTEX
  5
298
100
AcDbEntity
  8
TG
  6
CONTINUO
 62
     7
100
AcDbVertex
100
AcDb2dVertex
 10
5.0
 20
54.755
 30
0.0
  0
VERTEX
  5
299
100
AcDbEntity
  8
TG
  6
CONTINUO
 62
     7
100
AcDbVertex
100
AcDb2dVertex
 10
10.0
 20
54.755
 30
0.0
  0
SEQEND
  5
29A
100
AcDbEntity
  8
TG
  6
CONTINUO
 62
     7
  0
POLYLINE
  5
29B
100
AcDbEntity
  8
TG
  6
CONTINUO
 62
     7
100
AcDb2dPolyline
 66
     1
 10
0.0
 20
0.0
 30
0.0
  0
VERTEX
  5
29C
100
AcDbEntity
  8
TG
  6
CONTINUO
 62
     7
100
AcDbVertex
100
AcDb2dVertex
 10
5.0
 20
64.755
 30
0.0
  0
VERTEX
  5
29D
100
AcDbEntity
  8
TG
  6
CONTINUO
 62
     7
100
AcDbVertex
100
AcDb2dVertex
 10
10.0
 20
64.755
 30
0.0
  0
SEQEND
  5
29E
100
AcDbEntity
  8
TG
  6
CONTINUO
 62
     7
  0
TEXT
  5
29F
100
AcDbEntity
  8
TG
 62
     7
100
AcDbText
 10
0.0
 20
55.255
 30
0.0
 40
1.5
  1
2
 41
0.814815
  7
SIMPLEX
 72
     5
 11
1.222222
 21
55.255
 31
0.0
100
AcDbText
  0
POLYLINE
  5
2A0
100
AcDbEntity
  8
TG
  6
CONTINUO
 62
     7
100
AcDb2dPolyline
 66
     1
 10
0.0
 20
0.0
 30
0.0
  0
VERTEX
  5
2A1
100
AcDbEntity
  8
TG
  6
CONTINUO
 62
     7
100
AcDbVertex
100
AcDb2dVertex
 10
14.0
 20
52.255
 30
0.0
  0
VERTEX
  5
2A2
100
AcDbEntity
  8
TG
  6
CONTINUO
 62
     7
100
AcDbVertex
100
AcDb2dVertex
 10
14.0
 20
54.755
 30
0.0
  0
SEQEND
  5
2A3
100
AcDbEntity
  8
TG
  6
CONTINUO
 62
     7
  0
POLYLINE
  5
2A4
100
AcDbEntity
  8
TG
  6
CONTINUO
 62
     7
100
AcDb2dPolyline
 66
     1
 10
0.0
 20
0.0
 30
0.0
  0
VERTEX
  5
2A5
100
AcDbEntity
  8
TG
  6
CONTINUO
 62
     7
100
AcDbVertex
100
AcDb2dVertex
 10
24.0
 20
52.255
 30
0.0
  0
VERTEX
  5
2A6
100
AcDbEntity
  8
TG
  6
CONTINUO
 62
     7
100
AcDbVertex
100
AcDb2dVertex
 10
24.0
 20
54.755
 30
0.0
  0
SEQEND
  5
2A7
100
AcDbEntity
  8
TG
  6
CONTINUO
 62
     7
  0
POLYLINE
  5
2A8
100
AcDbEntity
  8
TG
  6
CONTINUO
 62
     7
100
AcDb2dPolyline
 66
     1
 10
0.0
 20
0.0
 30
0.0
  0
VERTEX
  5
2A9
100
AcDbEntity
  8
TG
  6
CONTINUO
 62
     7
100
AcDbVertex
100
AcDb2dVertex
 10
34.0
 20
52.255
 30
0.0
  0
VERTEX
  5
2AA
100
AcDbEntity
  8
TG
  6
CONTINUO
 62
     7
100
AcDbVertex
100
AcDb2dVertex
 10
34.0
 20
54.755
 30
0.0
  0
SEQEND
  5
2AB
100
AcDbEntity
  8
TG
  6
CONTINUO
 62
     7
  0
POLYLINE
  5
2AC
100
AcDbEntity
  8
TG
  6
CONTINUO
 62
     7
100
AcDb2dPolyline
 66
     1
 10
0.0
 20
0.0
 30
0.0
  0
VERTEX
  5
2AD
100
AcDbEntity
  8
TG
  6
CONTINUO
 62
     7
100
AcDbVertex
100
AcDb2dVertex
 10
44.0
 20
52.255
 30
0.0
  0
VERTEX
  5
2AE
100
AcDbEntity
  8
TG
  6
CONTINUO
 62
     7
100
AcDbVertex
100
AcDb2dVertex
 10
44.0
 20
54.755
 30
0.0
  0
SEQEND
  5
2AF
100
AcDbEntity
  8
TG
  6
CONTINUO
 62
     7
  0
TEXT
  5
2B0
100
AcDbEntity
  8
TG
 62
     7
100
AcDbText
 10
53.388889
 20
50.255
 30
0.0
 40
1.5
  1
0
 41
0.814815
  7
SIMPLEX
 72
     5
 11
54.611111
 21
50.255
 31
0.0
100
AcDbText
  0
POLYLINE
  5
2B1
100
AcDbEntity
  8
TG
  6
CONTINUO
 62
     7
100
AcDb2dPolyline
 66
     1
 10
0.0
 20
0.0
 30
0.0
  0
VERTEX
  5
2B2
100
AcDbEntity
  8
TG
  6
CONTINUO
 62
     7
100
AcDbVertex
100
AcDb2dVertex
 10
64.0
 20
52.255
 30
0.0
  0
VERTEX
  5
2B3
100
AcDbEntity
  8
TG
  6
CONTINUO
 62
     7
100
AcDbVertex
100
AcDb2dVertex
 10
64.0
 20
54.755
 30
0.0
  0
SEQEND
  5
2B4
100
AcDbEntity
  8
TG
  6
CONTINUO
 62
     7
  0
POLYLINE
  5
2B5
100
AcDbEntity
  8
TG
  6
CONTINUO
 62
     7
100
AcDb2dPolyline
 66
     1
 10
0.0
 20
0.0
 30
0.0
  0
VERTEX
  5
2B6
100
AcDbEntity
  8
TG
  6
CONTINUO
 62
     7
100
AcDbVertex
100
AcDb2dVertex
 10
74.0
 20
52.255
 30
0.0
  0
VERTEX
  5
2B7
100
AcDbEntity
  8
TG
  6
CONTINUO
 62
     7
100
AcDbVertex
100
AcDb2dVertex
 10
74.0
 20
54.755
 30
0.0
  0
SEQEND
  5
2B8
100
AcDbEntity
  8
TG
  6
CONTINUO
 62
     7
  0
ENDBLK
  5
2B9
100
AcDbEntity
  8
0
100
AcDbBlockEnd
  0
BLOCK
  5
2BC
100
AcDbEntity
  8
0
100
AcDbBlockBegin
  2
1E48B50
 70
     0
 10
0.0
 20
0.0
 30
0.0
  3
1E48B50
  1

  0
POLYLINE
  5
2BD
100
AcDbEntity
  8
TG
  6
CONTINUO
 62
     7
100
AcDb2dPolyline
 66
     1
 10
0.0
 20
0.0
 30
0.0
  0
VERTEX
  5
2BE
100
AcDbEntity
  8
TG
  6
CONTINUO
 62
     7
100
AcDbVertex
100
AcDb2dVertex
 10
10.0
 20
113.76
 30
4.431
  0
VERTEX
  5
2BF
100
AcDbEntity
  8
TG
  6
CONTINUO
 62
     7
100
AcDbVertex
100
AcDb2dVertex
 10
15.5
 20
116.96
 30
5.071
  0
VERTEX
  5
2C0
100
AcDbEntity
  8
TG
  6
CONTINUO
 62
     7
100
AcDbVertex
100
AcDb2dVertex
 10
26.5
 20
115.56
 30
4.791
  0
VERTEX
  5
2C1
100
AcDbEntity
  8
TG
  6
CONTINUO
 62
     7
100
AcDbVertex
100
AcDb2dVertex
 10
47.0
 20
116.055
 30
4.89
  0
VERTEX
  5
2C2
100
AcDbEntity
  8
TG
  6
CONTINUO
 62
     7
100
AcDbVertex
100
AcDb2dVertex
 10
67.5
 20
114.785
 30
4.636
  0
VERTEX
  5
2C3
100
AcDbEntity
  8
TG
  6
CONTINUO
 62
     7
100
AcDbVertex
100
AcDb2dVertex
 10
77.0
 20
114.66
 30
4.611
  0
SEQEND
  5
2C4
100
AcDbEntity
  8
TG
  6
CONTINUO
 62
     7
  0
POLYLINE
  5
2C5
100
AcDbEntity
  8
TG
  6
CONTINUO
 62
     3
100
AcDb2dPolyline
 66
     1
 10
0.0
 20
0.0
 30
0.0
  0
VERTEX
  5
2C6
100
AcDbEntity
  8
TG
  6
CONTINUO
 62
     3
100
AcDbVertex
100
AcDb2dVertex
 10
29.5
 20
115.63
 30
4.805
  0
VERTEX
  5
2C7
100
AcDbEntity
  8
TG
  6
CONTINUO
 62
     3
100
AcDbVertex
100
AcDb2dVertex
 10
29.5
 20
114.85
 30
4.649
  0
VERTEX
  5
2C8
100
AcDbEntity
  8
TG
  6
CONTINUO
 62
     3
100
AcDbVertex
100
AcDb2dVertex
 10
29.5
 20
114.85
 30
4.649
  0
VERTEX
  5
2C9
100
AcDbEntity
  8
TG
  6
CONTINUO
 62
     3
100
AcDbVertex
100
AcDb2dVertex
 10
49.5
 20
115.05
 30
4.689
  0
VERTEX
  5
2CA
100
AcDbEntity
  8
TG
  6
CONTINUO
 62
     3
100
AcDbVertex
100
AcDb2dVertex
 10
69.5
 20
115.25
 30
4.729
  0
VERTEX
  5
2CB
100
AcDbEntity
  8
TG
  6
CONTINUO
 62
     3
100
AcDbVertex
100
AcDb2dVertex
 10
69.5
 20
115.25
 30
4.729
  0
VERTEX
  5
2CC
100
AcDbEntity
  8
TG
  6
CONTINUO
 62
     3
100
AcDbVertex
100
AcDb2dVertex
 10
70.252
 20
114.75
 30
4.629
  0
SEQEND
  5
2CD
100
AcDbEntity
  8
TG
  6
CONTINUO
 62
     3
  0
POLYLINE
  5
2CE
100
AcDbEntity
  8
TG
  6
CONTINUO
 62
     7
100
AcDb2dPolyline
 66
     1
 10
0.0
 20
0.0
 30
0.0
  0
VERTEX
  5
2CF
100
AcDbEntity
  8
TG
  6
CONTINUO
 62
     7
100
AcDbVertex
100
AcDb2dVertex
 10
47.0
 20
101.605
 30
0.0
  0
VERTEX
  5
2D0
100
AcDbEntity
  8
TG
  6
CONTINUO
 62
     7
100
AcDbVertex
100
AcDb2dVertex
 10
47.0
 20
116.96
 30
0.0
  0
SEQEND
  5
2D1
100
AcDbEntity
  8
TG
  6
CONTINUO
 62
     7
  0
TEXT
  5
2D2
100
AcDbEntity
  8
TG
 62
     7
100
AcDbText
 10
35.786111
 20
117.46
 30
0.0
 40
1.5
  1
Cota do projeto: 4.839
 41
0.67963
  7
SIMPLEX
 72
     5
 11
58.213889
 21
117.46
 31
0.0
100
AcDbText
  0
TEXT
  5
2D3
100
AcDbEntity
  8
TG
 62
     7
100
AcDbText
 10
35.725
 20
119.71
 30
0.0
 40
1.5
  1
Cota do terreno: 4.890
 41
0.683333
  7
SIMPLEX
 72
     5
 11
58.275
 21
119.71
 31
0.0
100
AcDbText
  0
TEXT
  5
2D4
100
AcDbEntity
  8
TG
 62
     7
100
AcDbText
 10
39.788889
 20
121.96
 30
0.0
 40
1.5
  1
Estaca: 0+040
 41
0.739601
  7
SIMPLEX
 72
     5
 11
54.211111
 21
121.96
 31
0.0
100
AcDbText
  0
POLYLINE
  5
2D5
100
AcDbEntity
  8
TG
  6
CONTINUO
 62
     7
100
AcDb2dPolyline
 66
     1
 10
0.0
 20
0.0
 30
0.0
  0
VERTEX
  5
2D6
100
AcDbEntity
  8
TG
  6
CONTINUO
 62
     7
100
AcDbVertex
100
AcDb2dVertex
 10
10.0
 20
101.605
 30
0.0
  0
VERTEX
  5
2D7
100
AcDbEntity
  8
TG
  6
CONTINUO
 62
     7
100
AcDbVertex
100
AcDb2dVertex
 10
10.0
 20
116.96
 30
0.0
  0
SEQEND
  5
2D8
100
AcDbEntity
  8
TG
  6
CONTINUO
 62
     7
  0
POLYLINE
  5
2D9
100
AcDbEntity
  8
TG
  6
CONTINUO
 62
     7
100
AcDb2dPolyline
 66
     1
 10
0.0
 20
0.0
 30
0.0
  0
VERTEX
  5
2DA
100
AcDbEntity
  8
TG
  6
CONTINUO
 62
     7
100
AcDbVertex
100
AcDb2dVertex
 10
10.0
 20
101.605
 30
0.0
  0
VERTEX
  5
2DB
100
AcDbEntity
  8
TG
  6
CONTINUO
 62
     7
100
AcDbVertex
100
AcDb2dVertex
 10
77.0
 20
101.605
 30
0.0
  0
SEQEND
  5
2DC
100
AcDbEntity
  8
TG
  6
CONTINUO
 62
     7
  0
POLYLINE
  5
2DD
100
AcDbEntity
  8
TG
  6
CONTINUO
 62
     7
100
AcDb2dPolyline
 66
     1
 10
0.0
 20
0.0
 30
0.0
  0
VERTEX
  5
2DE
100
AcDbEntity
  8
TG
  6
CONTINUO
 62
     7
100
AcDbVertex
100
AcDb2dVertex
 10
5.0
 20
101.605
 30
0.0
  0
VERTEX
  5
2DF
100
AcDbEntity
  8
TG
  6
CONTINUO
 62
     7
100
AcDbVertex
100
AcDb2dVertex
 10
10.0
 20
101.605
 30
0.0
  0
SEQEND
  5
2E0
100
AcDbEntity
  8
TG
  6
CONTINUO
 62
     7
  0
POLYLINE
  5
2E1
100
AcDbEntity
  8
TG
  6
CONTINUO
 62
     7
100
AcDb2dPolyline
 66
     1
 10
0.0
 20
0.0
 30
0.0
  0
VERTEX
  5
2E2
100
AcDbEntity
  8
TG
  6
CONTINUO
 62
     7
100
AcDbVertex
100
AcDb2dVertex
 10
5.0
 20
111.605
 30
0.0
  0
VERTEX
  5
2E3
100
AcDbEntity
  8
TG
  6
CONTINUO
 62
     7
100
AcDbVertex
100
AcDb2dVertex
 10
10.0
 20
111.605
 30
0.0
  0
SEQEND
  5
2E4
100
AcDbEntity
  8
TG
  6
CONTINUO
 62
     7
  0
TEXT
  5
2E5
100
AcDbEntity
  8
TG
 62
     7
100
AcDbText
 10
0.0
 20
102.105
 30
0.0
 40
1.5
  1
2
 41
0.814815
  7
SIMPLEX
 72
     5
 11
1.222222
 21
102.105
 31
0.0
100
AcDbText
  0
POLYLINE
  5
2E6
100
AcDbEntity
  8
TG
  6
CONTINUO
 62
     7
100
AcDb2dPolyline
 66
     1
 10
0.0
 20
0.0
 30
0.0
  0
VERTEX
  5
2E7
100
AcDbEntity
  8
TG
  6
CONTINUO
 62
     7
100
AcDbVertex
100
AcDb2dVertex
 10
17.0
 20
99.105
 30
0.0
  0
VERTEX
  5
2E8
100
AcDbEntity
  8
TG
  6
CONTINUO
 62
     7
100
AcDbVertex
100
AcDb2dVertex
 10
17.0
 20
101.605
 30
0.0
  0
SEQEND
  5
2E9
100
AcDbEntity
  8
TG
  6
CONTINUO
 62
     7
  0
POLYLINE
  5
2EA
100
AcDbEntity
  8
TG
  6
CONTINUO
 62
     7
100
AcDb2dPolyline
 66
     1
 10
0.0
 20
0.0
 30
0.0
  0
VERTEX
  5
2EB
100
AcDbEntity
  8
TG
  6
CONTINUO
 62
     7
100
AcDbVertex
100
AcDb2dVertex
 10
27.0
 20
99.105
 30
0.0
  0
VERTEX
  5
2EC
100
AcDbEntity
  8
TG
  6
CONTINUO
 62
     7
100
AcDbVertex
100
AcDb2dVertex
 10
27.0
 20
101.605
 30
0.0
  0
SEQEND
  5
2ED
100
AcDbEntity
  8
TG
  6
CONTINUO
 62
     7
  0
POLYLINE
  5
2EE
100
AcDbEntity
  8
TG
  6
CONTINUO
 62
     7
100
AcDb2dPolyline
 66
     1
 10
0.0
 20
0.0
 30
0.0
  0
VERTEX
  5
2EF
100
AcDbEntity
  8
TG
  6
CONTINUO
 62
     7
100
AcDbVertex
100
AcDb2dVertex
 10
37.0
 20
99.105
 30
0.0
  0
VERTEX
  5
2F0
100
AcDbEntity
  8
TG
  6
CONTINUO
 62
     7
100
AcDbVertex
100
AcDb2dVertex
 10
37.0
 20
101.605
 30
0.0
  0
SEQEND
  5
2F1
100
AcDbEntity
  8
TG
  6
CONTINUO
 62
     7
  0
TEXT
  5
2F2
100
AcDbEntity
  8
TG
 62
     7
100
AcDbText
 10
46.388889
 20
97.105
 30
0.0
 40
1.5
  1
0
 41
0.814815
  7
SIMPLEX
 72
     5
 11
47.611111
 21
97.105
 31
0.0
100
AcDbText
  0
POLYLINE
  5
2F3
100
AcDbEntity
  8
TG
  6
CONTINUO
 62
     7
100
AcDb2dPolyline
 66
     1
 10
0.0
 20
0.0
 30
0.0
  0
VERTEX
  5
2F4
100
AcDbEntity
  8
TG
  6
CONTINUO
 62
     7
100
AcDbVertex
100
AcDb2dVertex
 10
57.0
 20
99.105
 30
0.0
  0
VERTEX
  5
2F5
100
AcDbEntity
  8
TG
  6
CONTINUO
 62
     7
100
AcDbVertex
100
AcDb2dVertex
 10
57.0
 20
101.605
 30
0.0
  0
SEQEND
  5
2F6
100
AcDbEntity
  8
TG
  6
CONTINUO
 62
     7
  0
POLYLINE
  5
2F7
100
AcDbEntity
  8
TG
  6
CONTINUO
 62
     7
100
AcDb2dPolyline
 66
     1
 10
0.0
 20
0.0
 30
0.0
  0
VERTEX
  5
2F8
100
AcDbEntity
  8
TG
  6
CONTINUO
 62
     7
100
AcDbVertex
100
AcDb2dVertex
 10
67.0
 20
99.105
 30
0.0
  0
VERTEX
  5
2F9
100
AcDbEntity
  8
TG
  6
CONTINUO
 62
     7
100
AcDbVertex
100
AcDb2dVertex
 10
67.0
 20
101.605
 30
0.0
  0
SEQEND
  5
2FA
100
AcDbEntity
  8
TG
  6
CONTINUO
 62
     7
  0
POLYLINE
  5
2FB
100
AcDbEntity
  8
TG
  6
CONTINUO
 62
     7
100
AcDb2dPolyline
 66
     1
 10
0.0
 20
0.0
 30
0.0
  0
VERTEX
  5
2FC
100
AcDbEntity
  8
TG
  6
CONTINUO
 62
     7
100
AcDbVertex
100
AcDb2dVertex
 10
77.0
 20
99.105
 30
0.0
  0
VERTEX
  5
2FD
100
AcDbEntity
  8
TG
  6
CONTINUO
 62
     7
100
AcDbVertex
100
AcDb2dVertex
 10
77.0
 20
101.605
 30
0.0
  0
SEQEND
  5
2FE
100
AcDbEntity
  8
TG
  6
CONTINUO
 62
     7
  0
ENDBLK
  5
2FF
100
AcDbEntity
  8
0
100
AcDbBlockEnd
  0
BLOCK
  5
302
100
AcDbEntity
  8
0
100
AcDbBlockBegin
  2
1DB4B20
 70
     0
 10
0.0
 20
0.0
 30
0.0
  3
1DB4B20
  1

  0
POLYLINE
  5
303
100
AcDbEntity
  8
TG
  6
CONTINUO
 62
     7
100
AcDb2dPolyline
 66
     1
 10
0.0
 20
0.0
 30
0.0
  0
VERTEX
  5
304
100
AcDbEntity
  8
TG
  6
CONTINUO
 62
     7
100
AcDbVertex
100
AcDb2dVertex
 10
236.222222
 20
17.86
 30
4.672
  0
VERTEX
  5
305
100
AcDbEntity
  8
TG
  6
CONTINUO
 62
     7
100
AcDbVertex
100
AcDb2dVertex
 10
245.222222
 20
21.56
 30
5.412
  0
VERTEX
  5
306
100
AcDbEntity
  8
TG
  6
CONTINUO
 62
     7
100
AcDbVertex
100
AcDb2dVertex
 10
248.722222
 20
19.51
 30
5.002
  0
VERTEX
  5
307
100
AcDbEntity
  8
TG
  6
CONTINUO
 62
     7
100
AcDbVertex
100
AcDb2dVertex
 10
272.722222
 20
18.41
 30
4.782
  0
VERTEX
  5
308
100
AcDbEntity
  8
TG
  6
CONTINUO
 62
     7
100
AcDbVertex
100
AcDb2dVertex
 10
293.722222
 20
14.985
 30
4.097
  0
VERTEX
  5
309
100
AcDbEntity
  8
TG
  6
CONTINUO
 62
     7
100
AcDbVertex
100
AcDb2dVertex
 10
294.722222
 20
14.51
 30
4.002
  0
VERTEX
  5
30A
100
AcDbEntity
  8
TG
  6
CONTINUO
 62
     7
100
AcDbVertex
100
AcDb2dVertex
 10
317.722222
 20
14.76
 30
4.052
  0
SEQEND
  5
30B
100
AcDbEntity
  8
TG
  6
CONTINUO
 62
     7
  0
POLYLINE
  5
30C
100
AcDbEntity
  8
TG
  6
CONTINUO
 62
     3
100
AcDb2dPolyline
 66
     1
 10
0.0
 20
0.0
 30
0.0
  0
VERTEX
  5
30D
100
AcDbEntity
  8
TG
  6
CONTINUO
 62
     3
100
AcDbVertex
100
AcDb2dVertex
 10
255.222222
 20
19.21
 30
4.942
  0
VERTEX
  5
30E
100
AcDbEntity
  8
TG
  6
CONTINUO
 62
     3
100
AcDbVertex
100
AcDb2dVertex
 10
255.222222
 20
17.445
 30
4.589
  0
VERTEX
  5
30F
100
AcDbEntity
  8
TG
  6
CONTINUO
 62
     3
100
AcDbVertex
100
AcDb2dVertex
 10
255.222222
 20
17.445
 30
4.589
  0
VERTEX
  5
310
100
AcDbEntity
  8
TG
  6
CONTINUO
 62
     3
100
AcDbVertex
100
AcDb2dVertex
 10
275.222222
 20
17.645
 30
4.629
  0
VERTEX
  5
311
100
AcDbEntity
  8
TG
  6
CONTINUO
 62
     3
100
AcDbVertex
100
AcDb2dVertex
 10
295.222222
 20
17.845
 30
4.669
  0
VERTEX
  5
312
100
AcDbEntity
  8
TG
  6
CONTINUO
 62
     3
100
AcDbVertex
100
AcDb2dVertex
 10
295.222222
 20
17.845
 30
4.669
  0
VERTEX
  5
313
100
AcDbEntity
  8
TG
  6
CONTINUO
 62
     3
100
AcDbVertex
100
AcDb2dVertex
 10
300.136222
 20
14.57
 30
4.014
  0
SEQEND
  5
314
100
AcDbEntity
  8
TG
  6
CONTINUO
 62
     3
  0
POLYLINE
  5
315
100
AcDbEntity
  8
TG
  6
CONTINUO
 62
     7
100
AcDb2dPolyline
 66
     1
 10
0.0
 20
0.0
 30
0.0
  0
VERTEX
  5
316
100
AcDbEntity
  8
TG
  6
CONTINUO
 62
     7
100
AcDbVertex
100
AcDb2dVertex
 10
272.722222
 20
4.5
 30
0.0
  0
VERTEX
  5
317
100
AcDbEntity
  8
TG
  6
CONTINUO
 62
     7
100
AcDbVertex
100
AcDb2dVertex
 10
272.722222
 20
21.56
 30
0.0
  0
SEQEND
  5
318
100
AcDbEntity
  8
TG
  6
CONTINUO
 62
     7
  0
TEXT
  5
319
100
AcDbEntity
  8
TG
 62
     7
100
AcDbText
 10
261.508333
 20
22.06
 30
0.0
 40
1.5
  1
Cota do projeto: 4.779
 41
0.67963
  7
SIMPLEX
 72
     5
 11
283.936111
 21
22.06
 31
0.0
100
AcDbText
  0
TEXT
  5
31A
100
AcDbEntity
  8
TG
 62
     7
100
AcDbText
 10
261.447222
 20
24.31
 30
0.0
 40
1.5
  1
Cota do terreno: 4.782
 41
0.683333
  7
SIMPLEX
 72
     5
 11
283.997222
 21
24.31
 31
0.0
100
AcDbText
  0
TEXT
  5
31B
100
AcDbEntity
  8
TG
 62
     7
100
AcDbText
 10
265.511111
 20
26.56
 30
0.0
 40
1.5
  1
Estaca: 0+060
 41
0.739601
  7
SIMPLEX
 72
     5
 11
279.933333
 21
26.56
 31
0.0
100
AcDbText
  0
POLYLINE
  5
31C
100
AcDbEntity
  8
TG
  6
CONTINUO
 62
     7
100
AcDb2dPolyline
 66
     1
 10
0.0
 20
0.0
 30
0.0
  0
VERTEX
  5
31D
100
AcDbEntity
  8
TG
  6
CONTINUO
 62
     7
100
AcDbVertex
100
AcDb2dVertex
 10
236.222222
 20
4.5
 30
0.0
  0
VERTEX
  5
31E
100
AcDbEntity
  8
TG
  6
CONTINUO
 62
     7
100
AcDbVertex
100
AcDb2dVertex
 10
236.222222
 20
21.56
 30
0.0
  0
SEQEND
  5
31F
100
AcDbEntity
  8
TG
  6
CONTINUO
 62
     7
  0
POLYLINE
  5
320
100
AcDbEntity
  8
TG
  6
CONTINUO
 62
     7
100
AcDb2dPolyline
 66
     1
 10
0.0
 20
0.0
 30
0.0
  0
VERTEX
  5
321
100
AcDbEntity
  8
TG
  6
CONTINUO
 62
     7
100
AcDbVertex
100
AcDb2dVertex
 10
236.222222
 20
4.5
 30
0.0
  0
VERTEX
  5
322
100
AcDbEntity
  8
TG
  6
CONTINUO
 62
     7
100
AcDbVertex
100
AcDb2dVertex
 10
317.722222
 20
4.5
 30
0.0
  0
SEQEND
  5
323
100
AcDbEntity
  8
TG
  6
CONTINUO
 62
     7
  0
POLYLINE
  5
324
100
AcDbEntity
  8
TG
  6
CONTINUO
 62
     7
100
AcDb2dPolyline
 66
     1
 10
0.0
 20
0.0
 30
0.0
  0
VERTEX
  5
325
100
AcDbEntity
  8
TG
  6
CONTINUO
 62
     7
100
AcDbVertex
100
AcDb2dVertex
 10
231.222222
 20
4.5
 30
0.0
  0
VERTEX
  5
326
100
AcDbEntity
  8
TG
  6
CONTINUO
 62
     7
100
AcDbVertex
100
AcDb2dVertex
 10
236.222222
 20
4.5
 30
0.0
  0
SEQEND
  5
327
100
AcDbEntity
  8
TG
  6
CONTINUO
 62
     7
  0
POLYLINE
  5
328
100
AcDbEntity
  8
TG
  6
CONTINUO
 62
     7
100
AcDb2dPolyline
 66
     1
 10
0.0
 20
0.0
 30
0.0
  0
VERTEX
  5
329
100
AcDbEntity
  8
TG
  6
CONTINUO
 62
     7
100
AcDbVertex
100
AcDb2dVertex
 10
231.222222
 20
14.5
 30
0.0
  0
VERTEX
  5
32A
100
AcDbEntity
  8
TG
  6
CONTINUO
 62
     7
100
AcDbVertex
100
AcDb2dVertex
 10
236.222222
 20
14.5
 30
0.0
  0
SEQEND
  5
32B
100
AcDbEntity
  8
TG
  6
CONTINUO
 62
     7
  0
TEXT
  5
32C
100
AcDbEntity
  8
TG
 62
     7
100
AcDbText
 10
226.222222
 20
5.0
 30
0.0
 40
1.5
  1
2
 41
0.814815
  7
SIMPLEX
 72
     5
 11
227.444444
 21
5.0
 31
0.0
100
AcDbText
  0
POLYLINE
  5
32D
100
AcDbEntity
  8
TG
  6
CONTINUO
 62
     7
100
AcDb2dPolyline
 66
     1
 10
0.0
 20
0.0
 30
0.0
  0
VERTEX
  5
32E
100
AcDbEntity
  8
TG
  6
CONTINUO
 62
     7
100
AcDbVertex
100
AcDb2dVertex
 10
242.722222
 20
2.0
 30
0.0
  0
VERTEX
  5
32F
100
AcDbEntity
  8
TG
  6
CONTINUO
 62
     7
100
AcDbVertex
100
AcDb2dVertex
 10
242.722222
 20
4.5
 30
0.0
  0
SEQEND
  5
330
100
AcDbEntity
  8
TG
  6
CONTINUO
 62
     7
  0
POLYLINE
  5
331
100
AcDbEntity
  8
TG
  6
CONTINUO
 62
     7
100
AcDb2dPolyline
 66
     1
 10
0.0
 20
0.0
 30
0.0
  0
VERTEX
  5
332
100
AcDbEntity
  8
TG
  6
CONTINUO
 62
     7
100
AcDbVertex
100
AcDb2dVertex
 10
252.722222
 20
2.0
 30
0.0
  0
VERTEX
  5
333
100
AcDbEntity
  8
TG
  6
CONTINUO
 62
     7
100
AcDbVertex
100
AcDb2dVertex
 10
252.722222
 20
4.5
 30
0.0
  0
SEQEND
  5
334
100
AcDbEntity
  8
TG
  6
CONTINUO
 62
     7
  0
POLYLINE
  5
335
100
AcDbEntity
  8
TG
  6
CONTINUO
 62
     7
100
AcDb2dPolyline
 66
     1
 10
0.0
 20
0.0
 30
0.0
  0
VERTEX
  5
336
100
AcDbEntity
  8
TG
  6
CONTINUO
 62
     7
100
AcDbVertex
100
AcDb2dVertex
 10
262.722222
 20
2.0
 30
0.0
  0
VERTEX
  5
337
100
AcDbEntity
  8
TG
  6
CONTINUO
 62
     7
100
AcDbVertex
100
AcDb2dVertex
 10
262.722222
 20
4.5
 30
0.0
  0
SEQEND
  5
338
100
AcDbEntity
  8
TG
  6
CONTINUO
 62
     7
  0
TEXT
  5
339
100
AcDbEntity
  8
TG
 62
     7
100
AcDbText
 10
272.111111
 20
0.0
 30
0.0
 40
1.5
  1
0
 41
0.814815
  7
SIMPLEX
 72
     5
 11
273.333333
 21
0.0
 31
0.0
100
AcDbText
  0
POLYLINE
  5
33A
100
AcDbEntity
  8
TG
  6
CONTINUO
 62
     7
100
AcDb2dPolyline
 66
     1
 10
0.0
 20
0.0
 30
0.0
  0
VERTEX
  5
33B
100
AcDbEntity
  8
TG
  6
CONTINUO
 62
     7
100
AcDbVertex
100
AcDb2dVertex
 10
282.722222
 20
2.0
 30
0.0
  0
VERTEX
  5
33C
100
AcDbEntity
  8
TG
  6
CONTINUO
 62
     7
100
AcDbVertex
100
AcDb2dVertex
 10
282.722222
 20
4.5
 30
0.0
  0
SEQEND
  5
33D
100
AcDbEntity
  8
TG
  6
CONTINUO
 62
     7
  0
POLYLINE
  5
33E
100
AcDbEntity
  8
TG
  6
CONTINUO
 62
     7
100
AcDb2dPolyline
 66
     1
 10
0.0
 20
0.0
 30
0.0
  0
VERTEX
  5
33F
100
AcDbEntity
  8
TG
  6
CONTINUO
 62
     7
100
AcDbVertex
100
AcDb2dVertex
 10
292.722222
 20
2.0
 30
0.0
  0
VERTEX
  5
340
100
AcDbEntity
  8
TG
  6
CONTINUO
 62
     7
100
AcDbVertex
100
AcDb2dVertex
 10
292.722222
 20
4.5
 30
0.0
  0
SEQEND
  5
341
100
AcDbEntity
  8
TG
  6
CONTINUO
 62
     7
  0
POLYLINE
  5
342
100
AcDbEntity
  8
TG
  6
CONTINUO
 62
     7
100
AcDb2dPolyline
 66
     1
 10
0.0
 20
0.0
 30
0.0
  0
VERTEX
  5
343
100
AcDbEntity
  8
TG
  6
CONTINUO
 62
     7
100
AcDbVertex
100
AcDb2dVertex
 10
302.722222
 20
2.0
 30
0.0
  0
VERTEX
  5
344
100
AcDbEntity
  8
TG
  6
CONTINUO
 62
     7
100
AcDbVertex
100
AcDb2dVertex
 10
302.722222
 20
4.5
 30
0.0
  0
SEQEND
  5
345
100
AcDbEntity
  8
TG
  6
CONTINUO
 62
     7
  0
POLYLINE
  5
346
100
AcDbEntity
  8
TG
  6
CONTINUO
 62
     7
100
AcDb2dPolyline
 66
     1
 10
0.0
 20
0.0
 30
0.0
  0
VERTEX
  5
347
100
AcDbEntity
  8
TG
  6
CONTINUO
 62
     7
100
AcDbVertex
100
AcDb2dVertex
 10
312.722222
 20
2.0
 30
0.0
  0
VERTEX
  5
348
100
AcDbEntity
  8
TG
  6
CONTINUO
 62
     7
100
AcDbVertex
100
AcDb2dVertex
 10
312.722222
 20
4.5
 30
0.0
  0
SEQEND
  5
349
100
AcDbEntity
  8
TG
  6
CONTINUO
 62
     7
  0
ENDBLK
  5
34A
100
AcDbEntity
  8
0
100
AcDbBlockEnd
  0
BLOCK
  5
34D
100
AcDbEntity
  8
0
100
AcDbBlockBegin
  2
1E53D70
 70
     0
 10
0.0
 20
0.0
 30
0.0
  3
1E53D70
  1

  0
POLYLINE
  5
34E
100
AcDbEntity
  8
TG
  6
CONTINUO
 62
     7
100
AcDb2dPolyline
 66
     1
 10
0.0
 20
0.0
 30
0.0
  0
VERTEX
  5
34F
100
AcDbEntity
  8
TG
  6
CONTINUO
 62
     7
100
AcDbVertex
100
AcDb2dVertex
 10
236.222222
 20
66.36
 30
4.26
  0
VERTEX
  5
350
100
AcDbEntity
  8
TG
  6
CONTINUO
 62
     7
100
AcDbVertex
100
AcDb2dVertex
 10
246.222222
 20
70.76
 30
5.14
  0
VERTEX
  5
351
100
AcDbEntity
  8
TG
  6
CONTINUO
 62
     7
100
AcDbVertex
100
AcDb2dVertex
 10
250.222222
 20
69.66
 30
4.92
  0
VERTEX
  5
352
100
AcDbEntity
  8
TG
  6
CONTINUO
 62
     7
100
AcDbVertex
100
AcDb2dVertex
 10
273.722222
 20
68.685
 30
4.725
  0
VERTEX
  5
353
100
AcDbEntity
  8
TG
  6
CONTINUO
 62
     7
100
AcDbVertex
100
AcDb2dVertex
 10
295.722222
 20
65.51
 30
4.09
  0
VERTEX
  5
354
100
AcDbEntity
  8
TG
  6
CONTINUO
 62
     7
100
AcDbVertex
100
AcDb2dVertex
 10
328.722222
 20
65.21
 30
4.03
  0
SEQEND
  5
355
100
AcDbEntity
  8
TG
  6
CONTINUO
 62
     7
  0
POLYLINE
  5
356
100
AcDbEntity
  8
TG
  6
CONTINUO
 62
     3
100
AcDb2dPolyline
 66
     1
 10
0.0
 20
0.0
 30
0.0
  0
VERTEX
  5
357
100
AcDbEntity
  8
TG
  6
CONTINUO
 62
     3
100
AcDbVertex
100
AcDb2dVertex
 10
256.222222
 20
69.41
 30
4.87
  0
VERTEX
  5
358
100
AcDbEntity
  8
TG
  6
CONTINUO
 62
     3
100
AcDbVertex
100
AcDb2dVertex
 10
256.222222
 20
67.705
 30
4.529
  0
VERTEX
  5
359
100
AcDbEntity
  8
TG
  6
CONTINUO
 62
     3
100
AcDbVertex
100
AcDb2dVertex
 10
256.222222
 20
67.705
 30
4.529
  0
VERTEX
  5
35A
100
AcDbEntity
  8
TG
  6
CONTINUO
 62
     3
100
AcDbVertex
100
AcDb2dVertex
 10
276.222222
 20
67.905
 30
4.569
  0
VERTEX
  5
35B
100
AcDbEntity
  8
TG
  6
CONTINUO
 62
     3
100
AcDbVertex
100
AcDb2dVertex
 10
296.222222
 20
68.105
 30
4.609
  0
VERTEX
  5
35C
100
AcDbEntity
  8
TG
  6
CONTINUO
 62
     3
100
AcDbVertex
100
AcDb2dVertex
 10
296.222222
 20
68.105
 30
4.609
  0
VERTEX
  5
35D
100
AcDbEntity
  8
TG
  6
CONTINUO
 62
     3
100
AcDbVertex
100
AcDb2dVertex
 10
300.175722
 20
65.47
 30
4.082
  0
SEQEND
  5
35E
100
AcDbEntity
  8
TG
  6
CONTINUO
 62
     3
  0
POLYLINE
  5
35F
100
AcDbEntity
  8
TG
  6
CONTINUO
 62
     7
100
AcDb2dPolyline
 66
     1
 10
0.0
 20
0.0
 30
0.0
  0
VERTEX
  5
360
100
AcDbEntity
  8
TG
  6
CONTINUO
 62
     7
100
AcDbVertex
100
AcDb2dVertex
 10
273.722222
 20
55.06
 30
0.0
  0
VERTEX
  5
361
100
AcDbEntity
  8
TG
  6
CONTINUO
 62
     7
100
AcDbVertex
100
AcDb2dVertex
 10
273.722222
 20
70.76
 30
0.0
  0
SEQEND
  5
362
100
AcDbEntity
  8
TG
  6
CONTINUO
 62
     7
  0
TEXT
  5
363
100
AcDbEntity
  8
TG
 62
     7
100
AcDbText
 10
262.508333
 20
71.26
 30
0.0
 40
1.5
  1
Cota do projeto: 4.719
 41
0.67963
  7
SIMPLEX
 72
     5
 11
284.936111
 21
71.26
 31
0.0
100
AcDbText
  0
TEXT
  5
364
100
AcDbEntity
  8
TG
 62
     7
100
AcDbText
 10
262.447222
 20
73.51
 30
0.0
 40
1.5
  1
Cota do terreno: 4.725
 41
0.683333
  7
SIMPLEX
 72
     5
 11
284.997222
 21
73.51
 31
0.0
100
AcDbText
  0
TEXT
  5
365
100
AcDbEntity
  8
TG
 62
     7
100
AcDbText
 10
266.511111
 20
75.76
 30
0.0
 40
1.5
  1
Estaca: 0+080
 41
0.739601
  7
SIMPLEX
 72
     5
 11
280.933333
 21
75.76
 31
0.0
100
AcDbText
  0
POLYLINE
  5
366
100
AcDbEntity
  8
TG
  6
CONTINUO
 62
     7
100
AcDb2dPolyline
 66
     1
 10
0.0
 20
0.0
 30
0.0
  0
VERTEX
  5
367
100
AcDbEntity
  8
TG
  6
CONTINUO
 62
     7
100
AcDbVertex
100
AcDb2dVertex
 10
236.222222
 20
55.06
 30
0.0
  0
VERTEX
  5
368
100
AcDbEntity
  8
TG
  6
CONTINUO
 62
     7
100
AcDbVertex
100
AcDb2dVertex
 10
236.222222
 20
70.76
 30
0.0
  0
SEQEND
  5
369
100
AcDbEntity
  8
TG
  6
CONTINUO
 62
     7
  0
POLYLINE
  5
36A
100
AcDbEntity
  8
TG
  6
CONTINUO
 62
     7
100
AcDb2dPolyline
 66
     1
 10
0.0
 20
0.0
 30
0.0
  0
VERTEX
  5
36B
100
AcDbEntity
  8
TG
  6
CONTINUO
 62
     7
100
AcDbVertex
100
AcDb2dVertex
 10
236.222222
 20
55.06
 30
0.0
  0
VERTEX
  5
36C
100
AcDbEntity
  8
TG
  6
CONTINUO
 62
     7
100
AcDbVertex
100
AcDb2dVertex
 10
328.722222
 20
55.06
 30
0.0
  0
SEQEND
  5
36D
100
AcDbEntity
  8
TG
  6
CONTINUO
 62
     7
  0
POLYLINE
  5
36E
100
AcDbEntity
  8
TG
  6
CONTINUO
 62
     7
100
AcDb2dPolyline
 66
     1
 10
0.0
 20
0.0
 30
0.0
  0
VERTEX
  5
36F
100
AcDbEntity
  8
TG
  6
CONTINUO
 62
     7
100
AcDbVertex
100
AcDb2dVertex
 10
231.222222
 20
55.06
 30
0.0
  0
VERTEX
  5
370
100
AcDbEntity
  8
TG
  6
CONTINUO
 62
     7
100
AcDbVertex
100
AcDb2dVertex
 10
236.222222
 20
55.06
 30
0.0
  0
SEQEND
  5
371
100
AcDbEntity
  8
TG
  6
CONTINUO
 62
     7
  0
POLYLINE
  5
372
100
AcDbEntity
  8
TG
  6
CONTINUO
 62
     7
100
AcDb2dPolyline
 66
     1
 10
0.0
 20
0.0
 30
0.0
  0
VERTEX
  5
373
100
AcDbEntity
  8
TG
  6
CONTINUO
 62
     7
100
AcDbVertex
100
AcDb2dVertex
 10
231.222222
 20
65.06
 30
0.0
  0
VERTEX
  5
374
100
AcDbEntity
  8
TG
  6
CONTINUO
 62
     7
100
AcDbVertex
100
AcDb2dVertex
 10
236.222222
 20
65.06
 30
0.0
  0
SEQEND
  5
375
100
AcDbEntity
  8
TG
  6
CONTINUO
 62
     7
  0
TEXT
  5
376
100
AcDbEntity
  8
TG
 62
     7
100
AcDbText
 10
226.222222
 20
55.56
 30
0.0
 40
1.5
  1
2
 41
0.814815
  7
SIMPLEX
 72
     5
 11
227.444444
 21
55.56
 31
0.0
100
AcDbText
  0
POLYLINE
  5
377
100
AcDbEntity
  8
TG
  6
CONTINUO
 62
     7
100
AcDb2dPolyline
 66
     1
 10
0.0
 20
0.0
 30
0.0
  0
VERTEX
  5
378
100
AcDbEntity
  8
TG
  6
CONTINUO
 62
     7
100
AcDbVertex
100
AcDb2dVertex
 10
243.722222
 20
52.56
 30
0.0
  0
VERTEX
  5
379
100
AcDbEntity
  8
TG
  6
CONTINUO
 62
     7
100
AcDbVertex
100
AcDb2dVertex
 10
243.722222
 20
55.06
 30
0.0
  0
SEQEND
  5
37A
100
AcDbEntity
  8
TG
  6
CONTINUO
 62
     7
  0
POLYLINE
  5
37B
100
AcDbEntity
  8
TG
  6
CONTINUO
 62
     7
100
AcDb2dPolyline
 66
     1
 10
0.0
 20
0.0
 30
0.0
  0
VERTEX
  5
37C
100
AcDbEntity
  8
TG
  6
CONTINUO
 62
     7
100
AcDbVertex
100
AcDb2dVertex
 10
253.722222
 20
52.56
 30
0.0
  0
VERTEX
  5
37D
100
AcDbEntity
  8
TG
  6
CONTINUO
 62
     7
100
AcDbVertex
100
AcDb2dVertex
 10
253.722222
 20
55.06
 30
0.0
  0
SEQEND
  5
37E
100
AcDbEntity
  8
TG
  6
CONTINUO
 62
     7
  0
POLYLINE
  5
37F
100
AcDbEntity
  8
TG
  6
CONTINUO
 62
     7
100
AcDb2dPolyline
 66
     1
 10
0.0
 20
0.0
 30
0.0
  0
VERTEX
  5
380
100
AcDbEntity
  8
TG
  6
CONTINUO
 62
     7
100
AcDbVertex
100
AcDb2dVertex
 10
263.722222
 20
52.56
 30
0.0
  0
VERTEX
  5
381
100
AcDbEntity
  8
TG
  6
CONTINUO
 62
     7
100
AcDbVertex
100
AcDb2dVertex
 10
263.722222
 20
55.06
 30
0.0
  0
SEQEND
  5
382
100
AcDbEntity
  8
TG
  6
CONTINUO
 62
     7
  0
TEXT
  5
383
100
AcDbEntity
  8
TG
 62
     7
100
AcDbText
 10
273.111111
 20
50.56
 30
0.0
 40
1.5
  1
0
 41
0.814815
  7
SIMPLEX
 72
     5
 11
274.333333
 21
50.56
 31
0.0
100
AcDbText
  0
POLYLINE
  5
384
100
AcDbEntity
  8
TG
  6
CONTINUO
 62
     7
100
AcDb2dPolyline
 66
     1
 10
0.0
 20
0.0
 30
0.0
  0
VERTEX
  5
385
100
AcDbEntity
  8
TG
  6
CONTINUO
 62
     7
100
AcDbVertex
100
AcDb2dVertex
 10
283.722222
 20
52.56
 30
0.0
  0
VERTEX
  5
386
100
AcDbEntity
  8
TG
  6
CONTINUO
 62
     7
100
AcDbVertex
100
AcDb2dVertex
 10
283.722222
 20
55.06
 30
0.0
  0
SEQEND
  5
387
100
AcDbEntity
  8
TG
  6
CONTINUO
 62
     7
  0
POLYLINE
  5
388
100
AcDbEntity
  8
TG
  6
CONTINUO
 62
     7
100
AcDb2dPolyline
 66
     1
 10
0.0
 20
0.0
 30
0.0
  0
VERTEX
  5
389
100
AcDbEntity
  8
TG
  6
CONTINUO
 62
     7
100
AcDbVertex
100
AcDb2dVertex
 10
293.722222
 20
52.56
 30
0.0
  0
VERTEX
  5
38A
100
AcDbEntity
  8
TG
  6
CONTINUO
 62
     7
100
AcDbVertex
100
AcDb2dVertex
 10
293.722222
 20
55.06
 30
0.0
  0
SEQEND
  5
38B
100
AcDbEntity
  8
TG
  6
CONTINUO
 62
     7
  0
POLYLINE
  5
38C
100
AcDbEntity
  8
TG
  6
CONTINUO
 62
     7
100
AcDb2dPolyline
 66
     1
 10
0.0
 20
0.0
 30
0.0
  0
VERTEX
  5
38D
100
AcDbEntity
  8
TG
  6
CONTINUO
 62
     7
100
AcDbVertex
100
AcDb2dVertex
 10
303.722222
 20
52.56
 30
0.0
  0
VERTEX
  5
38E
100
AcDbEntity
  8
TG
  6
CONTINUO
 62
     7
100
AcDbVertex
100
AcDb2dVertex
 10
303.722222
 20
55.06
 30
0.0
  0
SEQEND
  5
38F
100
AcDbEntity
  8
TG
  6
CONTINUO
 62
     7
  0
POLYLINE
  5
390
100
AcDbEntity
  8
TG
  6
CONTINUO
 62
     7
100
AcDb2dPolyline
 66
     1
 10
0.0
 20
0.0
 30
0.0
  0
VERTEX
  5
391
100
AcDbEntity
  8
TG
  6
CONTINUO
 62
     7
100
AcDbVertex
100
AcDb2dVertex
 10
313.722222
 20
52.56
 30
0.0
  0
VERTEX
  5
392
100
AcDbEntity
  8
TG
  6
CONTINUO
 62
     7
100
AcDbVertex
100
AcDb2dVertex
 10
313.722222
 20
55.06
 30
0.0
  0
SEQEND
  5
393
100
AcDbEntity
  8
TG
  6
CONTINUO
 62
     7
  0
POLYLINE
  5
394
100
AcDbEntity
  8
TG
  6
CONTINUO
 62
     7
100
AcDb2dPolyline
 66
     1
 10
0.0
 20
0.0
 30
0.0
  0
VERTEX
  5
395
100
AcDbEntity
  8
TG
  6
CONTINUO
 62
     7
100
AcDbVertex
100
AcDb2dVertex
 10
323.722222
 20
50.06
 30
0.0
  0
VERTEX
  5
396
100
AcDbEntity
  8
TG
  6
CONTINUO
 62
     7
100
AcDbVertex
100
AcDb2dVertex
 10
323.722222
 20
55.06
 30
0.0
  0
SEQEND
  5
397
100
AcDbEntity
  8
TG
  6
CONTINUO
 62
     7
  0
TEXT
  5
398
100
AcDbEntity
  8
TG
 62
     7
100
AcDbText
 10
322.5
 20
48.06
 30
0.0
 40
1.5
  1
10
 41
0.814815
  7
SIMPLEX
 72
     5
 11
324.944444
 21
48.06
 31
0.0
100
AcDbText
  0
ENDBLK
  5
399
100
AcDbEntity
  8
0
100
AcDbBlockEnd
  0
BLOCK
  5
39C
100
AcDbEntity
  8
0
100
AcDbBlockBegin
  2
1E50940
 70
     0
 10
0.0
 20
0.0
 30
0.0
  3
1E50940
  1

  0
POLYLINE
  5
39D
100
AcDbEntity
  8
TG
  6
CONTINUO
 62
     7
100
AcDb2dPolyline
 66
     1
 10
0.0
 20
0.0
 30
0.0
  0
VERTEX
  5
39E
100
AcDbEntity
  8
TG
  6
CONTINUO
 62
     7
100
AcDbVertex
100
AcDb2dVertex
 10
236.222222
 20
112.015
 30
4.051
  0
VERTEX
  5
39F
100
AcDbEntity
  8
TG
  6
CONTINUO
 62
     7
100
AcDbVertex
100
AcDb2dVertex
 10
242.222222
 20
116.575
 30
4.963
  0
VERTEX
  5
3A0
100
AcDbEntity
  8
TG
  6
CONTINUO
 62
     7
100
AcDbVertex
100
AcDb2dVertex
 10
247.722222
 20
115.505
 30
4.749
  0
VERTEX
  5
3A1
100
AcDbEntity
  8
TG
  6
CONTINUO
 62
     7
100
AcDbVertex
100
AcDb2dVertex
 10
269.722222
 20
116.49
 30
4.946
  0
VERTEX
  5
3A2
100
AcDbEntity
  8
TG
  6
CONTINUO
 62
     7
100
AcDbVertex
100
AcDb2dVertex
 10
287.722222
 20
115.99
 30
4.846
  0
VERTEX
  5
3A3
100
AcDbEntity
  8
TG
  6
CONTINUO
 62
     7
100
AcDbVertex
100
AcDb2dVertex
 10
305.222222
 20
116.665
 30
4.981
  0
SEQEND
  5
3A4
100
AcDbEntity
  8
TG
  6
CONTINUO
 62
     7
  0
POLYLINE
  5
3A5
100
AcDbEntity
  8
TG
  6
CONTINUO
 62
     3
100
AcDb2dPolyline
 66
     1
 10
0.0
 20
0.0
 30
0.0
  0
VERTEX
  5
3A6
100
AcDbEntity
  8
TG
  6
CONTINUO
 62
     3
100
AcDbVertex
100
AcDb2dVertex
 10
252.222222
 20
115.705
 30
4.789
  0
VERTEX
  5
3A7
100
AcDbEntity
  8
TG
  6
CONTINUO
 62
     3
100
AcDbVertex
100
AcDb2dVertex
 10
252.222222
 20
114.105
 30
4.469
  0
VERTEX
  5
3A8
100
AcDbEntity
  8
TG
  6
CONTINUO
 62
     3
100
AcDbVertex
100
AcDb2dVertex
 10
252.222222
 20
114.105
 30
4.469
  0
VERTEX
  5
3A9
100
AcDbEntity
  8
TG
  6
CONTINUO
 62
     3
100
AcDbVertex
100
AcDb2dVertex
 10
272.222222
 20
114.305
 30
4.509
  0
VERTEX
  5
3AA
100
AcDbEntity
  8
TG
  6
CONTINUO
 62
     3
100
AcDbVertex
100
AcDb2dVertex
 10
292.222222
 20
114.505
 30
4.549
  0
VERTEX
  5
3AB
100
AcDbEntity
  8
TG
  6
CONTINUO
 62
     3
100
AcDbVertex
100
AcDb2dVertex
 10
292.222222
 20
114.505
 30
4.549
  0
VERTEX
  5
3AC
100
AcDbEntity
  8
TG
  6
CONTINUO
 62
     3
100
AcDbVertex
100
AcDb2dVertex
 10
293.357222
 20
116.205
 30
4.889
  0
SEQEND
  5
3AD
100
AcDbEntity
  8
TG
  6
CONTINUO
 62
     3
  0
POLYLINE
  5
3AE
100
AcDbEntity
  8
TG
  6
CONTINUO
 62
     7
100
AcDb2dPolyline
 66
     1
 10
0.0
 20
0.0
 30
0.0
  0
VERTEX
  5
3AF
100
AcDbEntity
  8
TG
  6
CONTINUO
 62
     7
100
AcDbVertex
100
AcDb2dVertex
 10
269.722222
 20
101.76
 30
0.0
  0
VERTEX
  5
3B0
100
AcDbEntity
  8
TG
  6
CONTINUO
 62
     7
100
AcDbVertex
100
AcDb2dVertex
 10
269.722222
 20
116.665
 30
0.0
  0
SEQEND
  5
3B1
100
AcDbEntity
  8
TG
  6
CONTINUO
 62
     7
  0
TEXT
  5
3B2
100
AcDbEntity
  8
TG
 62
     7
100
AcDbText
 10
258.508333
 20
117.165
 30
0.0
 40
1.5
  1
Cota do projeto: 4.659
 41
0.67963
  7
SIMPLEX
 72
     5
 11
280.936111
 21
117.165
 31
0.0
100
AcDbText
  0
TEXT
  5
3B3
100
AcDbEntity
  8
TG
 62
     7
100
AcDbText
 10
258.447222
 20
119.415
 30
0.0
 40
1.5
  1
Cota do terreno: 4.946
 41
0.683333
  7
SIMPLEX
 72
     5
 11
280.997222
 21
119.415
 31
0.0
100
AcDbText
  0
TEXT
  5
3B4
100
AcDbEntity
  8
TG
 62
     7
100
AcDbText
 10
262.511111
 20
121.665
 30
0.0
 40
1.5
  1
Estaca: 0+100
 41
0.739601
  7
SIMPLEX
 72
     5
 11
276.933333
 21
121.665
 31
0.0
100
AcDbText
  0
POLYLINE
  5
3B5
100
AcDbEntity
  8
TG
  6
CONTINUO
 62
     7
100
AcDb2dPolyline
 66
     1
 10
0.0
 20
0.0
 30
0.0
  0
VERTEX
  5
3B6
100
AcDbEntity
  8
TG
  6
CONTINUO
 62
     7
100
AcDbVertex
100
AcDb2dVertex
 10
236.222222
 20
101.76
 30
0.0
  0
VERTEX
  5
3B7
100
AcDbEntity
  8
TG
  6
CONTINUO
 62
     7
100
AcDbVertex
100
AcDb2dVertex
 10
236.222222
 20
116.665
 30
0.0
  0
SEQEND
  5
3B8
100
AcDbEntity
  8
TG
  6
CONTINUO
 62
     7
  0
POLYLINE
  5
3B9
100
AcDbEntity
  8
TG
  6
CONTINUO
 62
     7
100
AcDb2dPolyline
 66
     1
 10
0.0
 20
0.0
 30
0.0
  0
VERTEX
  5
3BA
100
AcDbEntity
  8
TG
  6
CONTINUO
 62
     7
100
AcDbVertex
100
AcDb2dVertex
 10
236.222222
 20
101.76
 30
0.0
  0
VERTEX
  5
3BB
100
AcDbEntity
  8
TG
  6
CONTINUO
 62
     7
100
AcDbVertex
100
AcDb2dVertex
 10
305.222222
 20
101.76
 30
0.0
  0
SEQEND
  5
3BC
100
AcDbEntity
  8
TG
  6
CONTINUO
 62
     7
  0
POLYLINE
  5
3BD
100
AcDbEntity
  8
TG
  6
CONTINUO
 62
     7
100
AcDb2dPolyline
 66
     1
 10
0.0
 20
0.0
 30
0.0
  0
VERTEX
  5
3BE
100
AcDbEntity
  8
TG
  6
CONTINUO
 62
     7
100
AcDbVertex
100
AcDb2dVertex
 10
231.222222
 20
101.76
 30
0.0
  0
VERTEX
  5
3BF
100
AcDbEntity
  8
TG
  6
CONTINUO
 62
     7
100
AcDbVertex
100
AcDb2dVertex
 10
236.222222
 20
101.76
 30
0.0
  0
SEQEND
  5
3C0
100
AcDbEntity
  8
TG
  6
CONTINUO
 62
     7
  0
POLYLINE
  5
3C1
100
AcDbEntity
  8
TG
  6
CONTINUO
 62
     7
100
AcDb2dPolyline
 66
     1
 10
0.0
 20
0.0
 30
0.0
  0
VERTEX
  5
3C2
100
AcDbEntity
  8
TG
  6
CONTINUO
 62
     7
100
AcDbVertex
100
AcDb2dVertex
 10
231.222222
 20
111.76
 30
0.0
  0
VERTEX
  5
3C3
100
AcDbEntity
  8
TG
  6
CONTINUO
 62
     7
100
AcDbVertex
100
AcDb2dVertex
 10
236.222222
 20
111.76
 30
0.0
  0
SEQEND
  5
3C4
100
AcDbEntity
  8
TG
  6
CONTINUO
 62
     7
  0
TEXT
  5
3C5
100
AcDbEntity
  8
TG
 62
     7
100
AcDbText
 10
226.222222
 20
102.26
 30
0.0
 40
1.5
  1
2
 41
0.814815
  7
SIMPLEX
 72
     5
 11
227.444444
 21
102.26
 31
0.0
100
AcDbText
  0
POLYLINE
  5
3C6
100
AcDbEntity
  8
TG
  6
CONTINUO
 62
     7
100
AcDb2dPolyline
 66
     1
 10
0.0
 20
0.0
 30
0.0
  0
VERTEX
  5
3C7
100
AcDbEntity
  8
TG
  6
CONTINUO
 62
     7
100
AcDbVertex
100
AcDb2dVertex
 10
239.722222
 20
99.26
 30
0.0
  0
VERTEX
  5
3C8
100
AcDbEntity
  8
TG
  6
CONTINUO
 62
     7
100
AcDbVertex
100
AcDb2dVertex
 10
239.722222
 20
101.76
 30
0.0
  0
SEQEND
  5
3C9
100
AcDbEntity
  8
TG
  6
CONTINUO
 62
     7
  0
POLYLINE
  5
3CA
100
AcDbEntity
  8
TG
  6
CONTINUO
 62
     7
100
AcDb2dPolyline
 66
     1
 10
0.0
 20
0.0
 30
0.0
  0
VERTEX
  5
3CB
100
AcDbEntity
  8
TG
  6
CONTINUO
 62
     7
100
AcDbVertex
100
AcDb2dVertex
 10
249.722222
 20
99.26
 30
0.0
  0
VERTEX
  5
3CC
100
AcDbEntity
  8
TG
  6
CONTINUO
 62
     7
100
AcDbVertex
100
AcDb2dVertex
 10
249.722222
 20
101.76
 30
0.0
  0
SEQEND
  5
3CD
100
AcDbEntity
  8
TG
  6
CONTINUO
 62
     7
  0
POLYLINE
  5
3CE
100
AcDbEntity
  8
TG
  6
CONTINUO
 62
     7
100
AcDb2dPolyline
 66
     1
 10
0.0
 20
0.0
 30
0.0
  0
VERTEX
  5
3CF
100
AcDbEntity
  8
TG
  6
CONTINUO
 62
     7
100
AcDbVertex
100
AcDb2dVertex
 10
259.722222
 20
99.26
 30
0.0
  0
VERTEX
  5
3D0
100
AcDbEntity
  8
TG
  6
CONTINUO
 62
     7
100
AcDbVertex
100
AcDb2dVertex
 10
259.722222
 20
101.76
 30
0.0
  0
SEQEND
  5
3D1
100
AcDbEntity
  8
TG
  6
CONTINUO
 62
     7
  0
TEXT
  5
3D2
100
AcDbEntity
  8
TG
 62
     7
100
AcDbText
 10
269.111111
 20
97.26
 30
0.0
 40
1.5
  1
0
 41
0.814815
  7
SIMPLEX
 72
     5
 11
270.333333
 21
97.26
 31
0.0
100
AcDbText
  0
POLYLINE
  5
3D3
100
AcDbEntity
  8
TG
  6
CONTINUO
 62
     7
100
AcDb2dPolyline
 66
     1
 10
0.0
 20
0.0
 30
0.0
  0
VERTEX
  5
3D4
100
AcDbEntity
  8
TG
  6
CONTINUO
 62
     7
100
AcDbVertex
100
AcDb2dVertex
 10
279.722222
 20
99.26
 30
0.0
  0
VERTEX
  5
3D5
100
AcDbEntity
  8
TG
  6
CONTINUO
 62
     7
100
AcDbVertex
100
AcDb2dVertex
 10
279.722222
 20
101.76
 30
0.0
  0
SEQEND
  5
3D6
100
AcDbEntity
  8
TG
  6
CONTINUO
 62
     7
  0
POLYLINE
  5
3D7
100
AcDbEntity
  8
TG
  6
CONTINUO
 62
     7
100
AcDb2dPolyline
 66
     1
 10
0.0
 20
0.0
 30
0.0
  0
VERTEX
  5
3D8
100
AcDbEntity
  8
TG
  6
CONTINUO
 62
     7
100
AcDbVertex
100
AcDb2dVertex
 10
289.722222
 20
99.26
 30
0.0
  0
VERTEX
  5
3D9
100
AcDbEntity
  8
TG
  6
CONTINUO
 62
     7
100
AcDbVertex
100
AcDb2dVertex
 10
289.722222
 20
101.76
 30
0.0
  0
SEQEND
  5
3DA
100
AcDbEntity
  8
TG
  6
CONTINUO
 62
     7
  0
POLYLINE
  5
3DB
100
AcDbEntity
  8
TG
  6
CONTINUO
 62
     7
100
AcDb2dPolyline
 66
     1
 10
0.0
 20
0.0
 30
0.0
  0
VERTEX
  5
3DC
100
AcDbEntity
  8
TG
  6
CONTINUO
 62
     7
100
AcDbVertex
100
AcDb2dVertex
 10
299.722222
 20
99.26
 30
0.0
  0
VERTEX
  5
3DD
100
AcDbEntity
  8
TG
  6
CONTINUO
 62
     7
100
AcDbVertex
100
AcDb2dVertex
 10
299.722222
 20
101.76
 30
0.0
  0
SEQEND
  5
3DE
100
AcDbEntity
  8
TG
  6
CONTINUO
 62
     7
  0
ENDBLK
  5
3DF
100
AcDbEntity
  8
0
100
AcDbBlockEnd
  0
BLOCK
  5
3E2
100
AcDbEntity
  8
0
100
AcDbBlockBegin
  2
26A6D90
 70
     0
 10
0.0
 20
0.0
 30
0.0
  3
26A6D90
  1

  0
POLYLINE
  5
3E3
100
AcDbEntity
  8
TG
  6
CONTINUO
 62
     7
100
AcDb2dPolyline
 66
     1
 10
0.0
 20
0.0
 30
0.0
  0
VERTEX
  5
3E4
100
AcDbEntity
  8
TG
  6
CONTINUO
 62
     7
100
AcDbVertex
100
AcDb2dVertex
 10
358.972222
 20
12.185
 30
3.537
  0
VERTEX
  5
3E5
100
AcDbEntity
  8
TG
  6
CONTINUO
 62
     7
100
AcDbVertex
100
AcDb2dVertex
 10
369.972222
 20
17.925
 30
4.685
  0
VERTEX
  5
3E6
100
AcDbEntity
  8
TG
  6
CONTINUO
 62
     7
100
AcDbVertex
100
AcDb2dVertex
 10
390.472222
 20
18.175
 30
4.735
  0
VERTEX
  5
3E7
100
AcDbEntity
  8
TG
  6
CONTINUO
 62
     7
100
AcDbVertex
100
AcDb2dVertex
 10
404.472222
 20
18.135
 30
4.727
  0
VERTEX
  5
3E8
100
AcDbEntity
  8
TG
  6
CONTINUO
 62
     7
100
AcDbVertex
100
AcDb2dVertex
 10
432.972222
 20
19.635
 30
5.027
  0
SEQEND
  5
3E9
100
AcDbEntity
  8
TG
  6
CONTINUO
 62
     7
  0
POLYLINE
  5
3EA
100
AcDbEntity
  8
TG
  6
CONTINUO
 62
     3
100
AcDb2dPolyline
 66
     1
 10
0.0
 20
0.0
 30
0.0
  0
VERTEX
  5
3EB
100
AcDbEntity
  8
TG
  6
CONTINUO
 62
     3
100
AcDbVertex
100
AcDb2dVertex
 10
372.972222
 20
17.96
 30
4.692
  0
VERTEX
  5
3EC
100
AcDbEntity
  8
TG
  6
CONTINUO
 62
     3
100
AcDbVertex
100
AcDb2dVertex
 10
372.972222
 20
18.045
 30
4.709
  0
VERTEX
  5
3ED
100
AcDbEntity
  8
TG
  6
CONTINUO
 62
     3
100
AcDbVertex
100
AcDb2dVertex
 10
372.972222
 20
18.045
 30
4.709
  0
VERTEX
  5
3EE
100
AcDbEntity
  8
TG
  6
CONTINUO
 62
     3
100
AcDbVertex
100
AcDb2dVertex
 10
392.972222
 20
18.245
 30
4.749
  0
VERTEX
  5
3EF
100
AcDbEntity
  8
TG
  6
CONTINUO
 62
     3
100
AcDbVertex
100
AcDb2dVertex
 10
412.972222
 20
18.445
 30
4.789
  0
VERTEX
  5
3F0
100
AcDbEntity
  8
TG
  6
CONTINUO
 62
     3
100
AcDbVertex
100
AcDb2dVertex
 10
412.972222
 20
18.445
 30
4.789
  0
VERTEX
  5
3F1
100
AcDbEntity
  8
TG
  6
CONTINUO
 62
     3
100
AcDbVertex
100
AcDb2dVertex
 10
413.067222
 20
18.585
 30
4.817
  0
SEQEND
  5
3F2
100
AcDbEntity
  8
TG
  6
CONTINUO
 62
     3
  0
POLYLINE
  5
3F3
100
AcDbEntity
  8
TG
  6
CONTINUO
 62
     7
100
AcDb2dPolyline
 66
     1
 10
0.0
 20
0.0
 30
0.0
  0
VERTEX
  5
3F4
100
AcDbEntity
  8
TG
  6
CONTINUO
 62
     7
100
AcDbVertex
100
AcDb2dVertex
 10
390.472222
 20
4.5
 30
0.0
  0
VERTEX
  5
3F5
100
AcDbEntity
  8
TG
  6
CONTINUO
 62
     7
100
AcDbVertex
100
AcDb2dVertex
 10
390.472222
 20
19.635
 30
0.0
  0
SEQEND
  5
3F6
100
AcDbEntity
  8
TG
  6
CONTINUO
 62
     7
  0
TEXT
  5
3F7
100
AcDbEntity
  8
TG
 62
     7
100
AcDbText
 10
379.258333
 20
20.135
 30
0.0
 40
1.5
  1
Cota do projeto: 4.899
 41
0.67963
  7
SIMPLEX
 72
     5
 11
401.686111
 21
20.135
 31
0.0
100
AcDbText
  0
TEXT
  5
3F8
100
AcDbEntity
  8
TG
 62
     7
100
AcDbText
 10
379.197222
 20
22.385
 30
0.0
 40
1.5
  1
Cota do terreno: 4.735
 41
0.683333
  7
SIMPLEX
 72
     5
 11
401.747222
 21
22.385
 31
0.0
100
AcDbText
  0
TEXT
  5
3F9
100
AcDbEntity
  8
TG
 62
     7
100
AcDbText
 10
383.261111
 20
24.635
 30
0.0
 40
1.5
  1
Estaca: 0+120
 41
0.739601
  7
SIMPLEX
 72
     5
 11
397.683333
 21
24.635
 31
0.0
100
AcDbText
  0
POLYLINE
  5
3FA
100
AcDbEntity
  8
TG
  6
CONTINUO
 62
     7
100
AcDb2dPolyline
 66
     1
 10
0.0
 20
0.0
 30
0.0
  0
VERTEX
  5
3FB
100
AcDbEntity
  8
TG
  6
CONTINUO
 62
     7
100
AcDbVertex
100
AcDb2dVertex
 10
358.972222
 20
4.5
 30
0.0
  0
VERTEX
  5
3FC
100
AcDbEntity
  8
TG
  6
CONTINUO
 62
     7
100
AcDbVertex
100
AcDb2dVertex
 10
358.972222
 20
19.635
 30
0.0
  0
SEQEND
  5
3FD
100
AcDbEntity
  8
TG
  6
CONTINUO
 62
     7
  0
POLYLINE
  5
3FE
100
AcDbEntity
  8
TG
  6
CONTINUO
 62
     7
100
AcDb2dPolyline
 66
     1
 10
0.0
 20
0.0
 30
0.0
  0
VERTEX
  5
3FF
100
AcDbEntity
  8
TG
  6
CONTINUO
 62
     7
100
AcDbVertex
100
AcDb2dVertex
 10
358.972222
 20
4.5
 30
0.0
  0
VERTEX
  5
400
100
AcDbEntity
  8
TG
  6
CONTINUO
 62
     7
100
AcDbVertex
100
AcDb2dVertex
 10
432.972222
 20
4.5
 30
0.0
  0
SEQEND
  5
401
100
AcDbEntity
  8
TG
  6
CONTINUO
 62
     7
  0
POLYLINE
  5
402
100
AcDbEntity
  8
TG
  6
CONTINUO
 62
     7
100
AcDb2dPolyline
 66
     1
 10
0.0
 20
0.0
 30
0.0
  0
VERTEX
  5
403
100
AcDbEntity
  8
TG
  6
CONTINUO
 62
     7
100
AcDbVertex
100
AcDb2dVertex
 10
353.972222
 20
4.5
 30
0.0
  0
VERTEX
  5
404
100
AcDbEntity
  8
TG
  6
CONTINUO
 62
     7
100
AcDbVertex
100
AcDb2dVertex
 10
358.972222
 20
4.5
 30
0.0
  0
SEQEND
  5
405
100
AcDbEntity
  8
TG
  6
CONTINUO
 62
     7
  0
POLYLINE
  5
406
100
AcDbEntity
  8
TG
  6
CONTINUO
 62
     7
100
AcDb2dPolyline
 66
     1
 10
0.0
 20
0.0
 30
0.0
  0
VERTEX
  5
407
100
AcDbEntity
  8
TG
  6
CONTINUO
 62
     7
100
AcDbVertex
100
AcDb2dVertex
 10
353.972222
 20
14.5
 30
0.0
  0
VERTEX
  5
408
100
AcDbEntity
  8
TG
  6
CONTINUO
 62
     7
100
AcDbVertex
100
AcDb2dVertex
 10
358.972222
 20
14.5
 30
0.0
  0
SEQEND
  5
409
100
AcDbEntity
  8
TG
  6
CONTINUO
 62
     7
  0
TEXT
  5
40A
100
AcDbEntity
  8
TG
 62
     7
100
AcDbText
 10
348.972222
 20
5.0
 30
0.0
 40
1.5
  1
2
 41
0.814815
  7
SIMPLEX
 72
     5
 11
350.194444
 21
5.0
 31
0.0
100
AcDbText
  0
POLYLINE
  5
40B
100
AcDbEntity
  8
TG
  6
CONTINUO
 62
     7
100
AcDb2dPolyline
 66
     1
 10
0.0
 20
0.0
 30
0.0
  0
VERTEX
  5
40C
100
AcDbEntity
  8
TG
  6
CONTINUO
 62
     7
100
AcDbVertex
100
AcDb2dVertex
 10
360.472222
 20
2.0
 30
0.0
  0
VERTEX
  5
40D
100
AcDbEntity
  8
TG
  6
CONTINUO
 62
     7
100
AcDbVertex
100
AcDb2dVertex
 10
360.472222
 20
4.5
 30
0.0
  0
SEQEND
  5
40E
100
AcDbEntity
  8
TG
  6
CONTINUO
 62
     7
  0
POLYLINE
  5
40F
100
AcDbEntity
  8
TG
  6
CONTINUO
 62
     7
100
AcDb2dPolyline
 66
     1
 10
0.0
 20
0.0
 30
0.0
  0
VERTEX
  5
410
100
AcDbEntity
  8
TG
  6
CONTINUO
 62
     7
100
AcDbVertex
100
AcDb2dVertex
 10
370.472222
 20
2.0
 30
0.0
  0
VERTEX
  5
411
100
AcDbEntity
  8
TG
  6
CONTINUO
 62
     7
100
AcDbVertex
100
AcDb2dVertex
 10
370.472222
 20
4.5
 30
0.0
  0
SEQEND
  5
412
100
AcDbEntity
  8
TG
  6
CONTINUO
 62
     7
  0
POLYLINE
  5
413
100
AcDbEntity
  8
TG
  6
CONTINUO
 62
     7
100
AcDb2dPolyline
 66
     1
 10
0.0
 20
0.0
 30
0.0
  0
VERTEX
  5
414
100
AcDbEntity
  8
TG
  6
CONTINUO
 62
     7
100
AcDbVertex
100
AcDb2dVertex
 10
380.472222
 20
2.0
 30
0.0
  0
VERTEX
  5
415
100
AcDbEntity
  8
TG
  6
CONTINUO
 62
     7
100
AcDbVertex
100
AcDb2dVertex
 10
380.472222
 20
4.5
 30
0.0
  0
SEQEND
  5
416
100
AcDbEntity
  8
TG
  6
CONTINUO
 62
     7
  0
TEXT
  5
417
100
AcDbEntity
  8
TG
 62
     7
100
AcDbText
 10
389.861111
 20
0.0
 30
0.0
 40
1.5
  1
0
 41
0.814815
  7
SIMPLEX
 72
     5
 11
391.083333
 21
0.0
 31
0.0
100
AcDbText
  0
POLYLINE
  5
418
100
AcDbEntity
  8
TG
  6
CONTINUO
 62
     7
100
AcDb2dPolyline
 66
     1
 10
0.0
 20
0.0
 30
0.0
  0
VERTEX
  5
419
100
AcDbEntity
  8
TG
  6
CONTINUO
 62
     7
100
AcDbVertex
100
AcDb2dVertex
 10
400.472222
 20
2.0
 30
0.0
  0
VERTEX
  5
41A
100
AcDbEntity
  8
TG
  6
CONTINUO
 62
     7
100
AcDbVertex
100
AcDb2dVertex
 10
400.472222
 20
4.5
 30
0.0
  0
SEQEND
  5
41B
100
AcDbEntity
  8
TG
  6
CONTINUO
 62
     7
  0
POLYLINE
  5
41C
100
AcDbEntity
  8
TG
  6
CONTINUO
 62
     7
100
AcDb2dPolyline
 66
     1
 10
0.0
 20
0.0
 30
0.0
  0
VERTEX
  5
41D
100
AcDbEntity
  8
TG
  6
CONTINUO
 62
     7
100
AcDbVertex
100
AcDb2dVertex
 10
410.472222
 20
2.0
 30
0.0
  0
VERTEX
  5
41E
100
AcDbEntity
  8
TG
  6
CONTINUO
 62
     7
100
AcDbVertex
100
AcDb2dVertex
 10
410.472222
 20
4.5
 30
0.0
  0
SEQEND
  5
41F
100
AcDbEntity
  8
TG
  6
CONTINUO
 62
     7
  0
POLYLINE
  5
420
100
AcDbEntity
  8
TG
  6
CONTINUO
 62
     7
100
AcDb2dPolyline
 66
     1
 10
0.0
 20
0.0
 30
0.0
  0
VERTEX
  5
421
100
AcDbEntity
  8
TG
  6
CONTINUO
 62
     7
100
AcDbVertex
100
AcDb2dVertex
 10
420.472222
 20
2.0
 30
0.0
  0
VERTEX
  5
422
100
AcDbEntity
  8
TG
  6
CONTINUO
 62
     7
100
AcDbVertex
100
AcDb2dVertex
 10
420.472222
 20
4.5
 30
0.0
  0
SEQEND
  5
423
100
AcDbEntity
  8
TG
  6
CONTINUO
 62
     7
  0
POLYLINE
  5
424
100
AcDbEntity
  8
TG
  6
CONTINUO
 62
     7
100
AcDb2dPolyline
 66
     1
 10
0.0
 20
0.0
 30
0.0
  0
VERTEX
  5
425
100
AcDbEntity
  8
TG
  6
CONTINUO
 62
     7
100
AcDbVertex
100
AcDb2dVertex
 10
430.472222
 20
2.0
 30
0.0
  0
VERTEX
  5
426
100
AcDbEntity
  8
TG
  6
CONTINUO
 62
     7
100
AcDbVertex
100
AcDb2dVertex
 10
430.472222
 20
4.5
 30
0.0
  0
SEQEND
  5
427
100
AcDbEntity
  8
TG
  6
CONTINUO
 62
     7
  0
ENDBLK
  5
428
100
AcDbEntity
  8
0
100
AcDbBlockEnd
  0
BLOCK
  5
42B
100
AcDbEntity
  8
0
100
AcDbBlockBegin
  2
26A4930
 70
     0
 10
0.0
 20
0.0
 30
0.0
  3
26A4930
  1

  0
POLYLINE
  5
42C
100
AcDbEntity
  8
TG
  6
CONTINUO
 62
     7
100
AcDb2dPolyline
 66
     1
 10
0.0
 20
0.0
 30
0.0
  0
VERTEX
  5
42D
100
AcDbEntity
  8
TG
  6
CONTINUO
 62
     7
100
AcDbVertex
100
AcDb2dVertex
 10
358.972222
 20
66.26
 30
4.625
  0
VERTEX
  5
42E
100
AcDbEntity
  8
TG
  6
CONTINUO
 62
     7
100
AcDbVertex
100
AcDb2dVertex
 10
372.472222
 20
66.36
 30
4.645
  0
VERTEX
  5
42F
100
AcDbEntity
  8
TG
  6
CONTINUO
 62
     7
100
AcDbVertex
100
AcDb2dVertex
 10
384.972222
 20
66.51
 30
4.675
  0
VERTEX
  5
430
100
AcDbEntity
  8
TG
  6
CONTINUO
 62
     7
100
AcDbVertex
100
AcDb2dVertex
 10
415.472222
 20
63.81
 30
4.135
  0
VERTEX
  5
431
100
AcDbEntity
  8
TG
  6
CONTINUO
 62
     7
100
AcDbVertex
100
AcDb2dVertex
 10
484.972222
 20
63.96
 30
4.165
  0
SEQEND
  5
432
100
AcDbEntity
  8
TG
  6
CONTINUO
 62
     7
  0
POLYLINE
  5
433
100
AcDbEntity
  8
TG
  6
CONTINUO
 62
     3
100
AcDb2dPolyline
 66
     1
 10
0.0
 20
0.0
 30
0.0
  0
VERTEX
  5
434
100
AcDbEntity
  8
TG
  6
CONTINUO
 62
     3
100
AcDbVertex
100
AcDb2dVertex
 10
367.472222
 20
66.325
 30
4.638
  0
VERTEX
  5
435
100
AcDbEntity
  8
TG
  6
CONTINUO
 62
     3
100
AcDbVertex
100
AcDb2dVertex
 10
367.472222
 20
71.405
 30
5.654
  0
VERTEX
  5
436
100
AcDbEntity
  8
TG
  6
CONTINUO
 62
     3
100
AcDbVertex
100
AcDb2dVertex
 10
367.472222
 20
71.405
 30
5.654
  0
VERTEX
  5
437
100
AcDbEntity
  8
TG
  6
CONTINUO
 62
     3
100
AcDbVertex
100
AcDb2dVertex
 10
387.472222
 20
71.605
 30
5.694
  0
VERTEX
  5
438
100
AcDbEntity
  8
TG
  6
CONTINUO
 62
     3
100
AcDbVertex
100
AcDb2dVertex
 10
407.472222
 20
71.805
 30
5.734
  0
VERTEX
  5
439
100
AcDbEntity
  8
TG
  6
CONTINUO
 62
     3
100
AcDbVertex
100
AcDb2dVertex
 10
407.472222
 20
71.805
 30
5.734
  0
VERTEX
  5
43A
100
AcDbEntity
  8
TG
  6
CONTINUO
 62
     3
100
AcDbVertex
100
AcDb2dVertex
 10
419.452222
 20
63.82
 30
4.137
  0
SEQEND
  5
43B
100
AcDbEntity
  8
TG
  6
CONTINUO
 62
     3
  0
POLYLINE
  5
43C
100
AcDbEntity
  8
TG
  6
CONTINUO
 62
     7
100
AcDb2dPolyline
 66
     1
 10
0.0
 20
0.0
 30
0.0
  0
VERTEX
  5
43D
100
AcDbEntity
  8
TG
  6
CONTINUO
 62
     7
100
AcDbVertex
100
AcDb2dVertex
 10
384.972222
 20
53.135
 30
0.0
  0
VERTEX
  5
43E
100
AcDbEntity
  8
TG
  6
CONTINUO
 62
     7
100
AcDbVertex
100
AcDb2dVertex
 10
384.972222
 20
71.805
 30
0.0
  0
SEQEND
  5
43F
100
AcDbEntity
  8
TG
  6
CONTINUO
 62
     7
  0
TEXT
  5
440
100
AcDbEntity
  8
TG
 62
     7
100
AcDbText
 10
373.758333
 20
72.305
 30
0.0
 40
1.5
  1
Cota do projeto: 5.844
 41
0.67963
  7
SIMPLEX
 72
     5
 11
396.186111
 21
72.305
 31
0.0
100
AcDbText
  0
TEXT
  5
441
100
AcDbEntity
  8
TG
 62
     7
100
AcDbText
 10
373.697222
 20
74.555
 30
0.0
 40
1.5
  1
Cota do terreno: 4.675
 41
0.683333
  7
SIMPLEX
 72
     5
 11
396.247222
 21
74.555
 31
0.0
100
AcDbText
  0
TEXT
  5
442
100
AcDbEntity
  8
TG
 62
     7
100
AcDbText
 10
377.761111
 20
76.805
 30
0.0
 40
1.5
  1
Estaca: 0+140
 41
0.739601
  7
SIMPLEX
 72
     5
 11
392.183333
 21
76.805
 31
0.0
100
AcDbText
  0
POLYLINE
  5
443
100
AcDbEntity
  8
TG
  6
CONTINUO
 62
     7
100
AcDb2dPolyline
 66
     1
 10
0.0
 20
0.0
 30
0.0
  0
VERTEX
  5
444
100
AcDbEntity
  8
TG
  6
CONTINUO
 62
     7
100
AcDbVertex
100
AcDb2dVertex
 10
358.972222
 20
53.135
 30
0.0
  0
VERTEX
  5
445
100
AcDbEntity
  8
TG
  6
CONTINUO
 62
     7
100
AcDbVertex
100
AcDb2dVertex
 10
358.972222
 20
71.805
 30
0.0
  0
SEQEND
  5
446
100
AcDbEntity
  8
TG
  6
CONTINUO
 62
     7
  0
POLYLINE
  5
447
100
AcDbEntity
  8
TG
  6
CONTINUO
 62
     7
100
AcDb2dPolyline
 66
     1
 10
0.0
 20
0.0
 30
0.0
  0
VERTEX
  5
448
100
AcDbEntity
  8
TG
  6
CONTINUO
 62
     7
100
AcDbVertex
100
AcDb2dVertex
 10
358.972222
 20
53.135
 30
0.0
  0
VERTEX
  5
449
100
AcDbEntity
  8
TG
  6
CONTINUO
 62
     7
100
AcDbVertex
100
AcDb2dVertex
 10
484.972222
 20
53.135
 30
0.0
  0
SEQEND
  5
44A
100
AcDbEntity
  8
TG
  6
CONTINUO
 62
     7
  0
POLYLINE
  5
44B
100
AcDbEntity
  8
TG
  6
CONTINUO
 62
     7
100
AcDb2dPolyline
 66
     1
 10
0.0
 20
0.0
 30
0.0
  0
VERTEX
  5
44C
100
AcDbEntity
  8
TG
  6
CONTINUO
 62
     7
100
AcDbVertex
100
AcDb2dVertex
 10
353.972222
 20
53.135
 30
0.0
  0
VERTEX
  5
44D
100
AcDbEntity
  8
TG
  6
CONTINUO
 62
     7
100
AcDbVertex
100
AcDb2dVertex
 10
358.972222
 20
53.135
 30
0.0
  0
SEQEND
  5
44E
100
AcDbEntity
  8
TG
  6
CONTINUO
 62
     7
  0
POLYLINE
  5
44F
100
AcDbEntity
  8
TG
  6
CONTINUO
 62
     7
100
AcDb2dPolyline
 66
     1
 10
0.0
 20
0.0
 30
0.0
  0
VERTEX
  5
450
100
AcDbEntity
  8
TG
  6
CONTINUO
 62
     7
100
AcDbVertex
100
AcDb2dVertex
 10
353.972222
 20
63.135
 30
0.0
  0
VERTEX
  5
451
100
AcDbEntity
  8
TG
  6
CONTINUO
 62
     7
100
AcDbVertex
100
AcDb2dVertex
 10
358.972222
 20
63.135
 30
0.0
  0
SEQEND
  5
452
100
AcDbEntity
  8
TG
  6
CONTINUO
 62
     7
  0
TEXT
  5
453
100
AcDbEntity
  8
TG
 62
     7
100
AcDbText
 10
348.972222
 20
53.635
 30
0.0
 40
1.5
  1
2
 41
0.814815
  7
SIMPLEX
 72
     5
 11
350.194444
 21
53.635
 31
0.0
100
AcDbText
  0
POLYLINE
  5
454
100
AcDbEntity
  8
TG
  6
CONTINUO
 62
     7
100
AcDb2dPolyline
 66
     1
 10
0.0
 20
0.0
 30
0.0
  0
VERTEX
  5
455
100
AcDbEntity
  8
TG
  6
CONTINUO
 62
     7
100
AcDbVertex
100
AcDb2dVertex
 10
364.972222
 20
50.635
 30
0.0
  0
VERTEX
  5
456
100
AcDbEntity
  8
TG
  6
CONTINUO
 62
     7
100
AcDbVertex
100
AcDb2dVertex
 10
364.972222
 20
53.135
 30
0.0
  0
SEQEND
  5
457
100
AcDbEntity
  8
TG
  6
CONTINUO
 62
     7
  0
POLYLINE
  5
458
100
AcDbEntity
  8
TG
  6
CONTINUO
 62
     7
100
AcDb2dPolyline
 66
     1
 10
0.0
 20
0.0
 30
0.0
  0
VERTEX
  5
459
100
AcDbEntity
  8
TG
  6
CONTINUO
 62
     7
100
AcDbVertex
100
AcDb2dVertex
 10
374.972222
 20
50.635
 30
0.0
  0
VERTEX
  5
45A
100
AcDbEntity
  8
TG
  6
CONTINUO
 62
     7
100
AcDbVertex
100
AcDb2dVertex
 10
374.972222
 20
53.135
 30
0.0
  0
SEQEND
  5
45B
100
AcDbEntity
  8
TG
  6
CONTINUO
 62
     7
  0
TEXT
  5
45C
100
AcDbEntity
  8
TG
 62
     7
100
AcDbText
 10
384.361111
 20
48.635
 30
0.0
 40
1.5
  1
0
 41
0.814815
  7
SIMPLEX
 72
     5
 11
385.583333
 21
48.635
 31
0.0
100
AcDbText
  0
POLYLINE
  5
45D
100
AcDbEntity
  8
TG
  6
CONTINUO
 62
     7
100
AcDb2dPolyline
 66
     1
 10
0.0
 20
0.0
 30
0.0
  0
VERTEX
  5
45E
100
AcDbEntity
  8
TG
  6
CONTINUO
 62
     7
100
AcDbVertex
100
AcDb2dVertex
 10
394.972222
 20
50.635
 30
0.0
  0
VERTEX
  5
45F
100
AcDbEntity
  8
TG
  6
CONTINUO
 62
     7
100
AcDbVertex
100
AcDb2dVertex
 10
394.972222
 20
53.135
 30
0.0
  0
SEQEND
  5
460
100
AcDbEntity
  8
TG
  6
CONTINUO
 62
     7
  0
POLYLINE
  5
461
100
AcDbEntity
  8
TG
  6
CONTINUO
 62
     7
100
AcDb2dPolyline
 66
     1
 10
0.0
 20
0.0
 30
0.0
  0
VERTEX
  5
462
100
AcDbEntity
  8
TG
  6
CONTINUO
 62
     7
100
AcDbVertex
100
AcDb2dVertex
 10
404.972222
 20
50.635
 30
0.0
  0
VERTEX
  5
463
100
AcDbEntity
  8
TG
  6
CONTINUO
 62
     7
100
AcDbVertex
100
AcDb2dVertex
 10
404.972222
 20
53.135
 30
0.0
  0
SEQEND
  5
464
100
AcDbEntity
  8
TG
  6
CONTINUO
 62
     7
  0
POLYLINE
  5
465
100
AcDbEntity
  8
TG
  6
CONTINUO
 62
     7
100
AcDb2dPolyline
 66
     1
 10
0.0
 20
0.0
 30
0.0
  0
VERTEX
  5
466
100
AcDbEntity
  8
TG
  6
CONTINUO
 62
     7
100
AcDbVertex
100
AcDb2dVertex
 10
414.972222
 20
50.635
 30
0.0
  0
VERTEX
  5
467
100
AcDbEntity
  8
TG
  6
CONTINUO
 62
     7
100
AcDbVertex
100
AcDb2dVertex
 10
414.972222
 20
53.135
 30
0.0
  0
SEQEND
  5
468
100
AcDbEntity
  8
TG
  6
CONTINUO
 62
     7
  0
POLYLINE
  5
469
100
AcDbEntity
  8
TG
  6
CONTINUO
 62
     7
100
AcDb2dPolyline
 66
     1
 10
0.0
 20
0.0
 30
0.0
  0
VERTEX
  5
46A
100
AcDbEntity
  8
TG
  6
CONTINUO
 62
     7
100
AcDbVertex
100
AcDb2dVertex
 10
424.972222
 20
50.635
 30
0.0
  0
VERTEX
  5
46B
100
AcDbEntity
  8
TG
  6
CONTINUO
 62
     7
100
AcDbVertex
100
AcDb2dVertex
 10
424.972222
 20
53.135
 30
0.0
  0
SEQEND
  5
46C
100
AcDbEntity
  8
TG
  6
CONTINUO
 62
     7
  0
POLYLINE
  5
46D
100
AcDbEntity
  8
TG
  6
CONTINUO
 62
     7
100
AcDb2dPolyline
 66
     1
 10
0.0
 20
0.0
 30
0.0
  0
VERTEX
  5
46E
100
AcDbEntity
  8
TG
  6
CONTINUO
 62
     7
100
AcDbVertex
100
AcDb2dVertex
 10
434.972222
 20
48.135
 30
0.0
  0
VERTEX
  5
46F
100
AcDbEntity
  8
TG
  6
CONTINUO
 62
     7
100
AcDbVertex
100
AcDb2dVertex
 10
434.972222
 20
53.135
 30
0.0
  0
SEQEND
  5
470
100
AcDbEntity
  8
TG
  6
CONTINUO
 62
     7
  0
TEXT
  5
471
100
AcDbEntity
  8
TG
 62
     7
100
AcDbText
 10
433.75
 20
46.135
 30
0.0
 40
1.5
  1
10
 41
0.814815
  7
SIMPLEX
 72
     5
 11
436.194444
 21
46.135
 31
0.0
100
AcDbText
  0
POLYLINE
  5
472
100
AcDbEntity
  8
TG
  6
CONTINUO
 62
     7
100
AcDb2dPolyline
 66
     1
 10
0.0
 20
0.0
 30
0.0
  0
VERTEX
  5
473
100
AcDbEntity
  8
TG
  6
CONTINUO
 62
     7
100
AcDbVertex
100
AcDb2dVertex
 10
444.972222
 20
50.635
 30
0.0
  0
VERTEX
  5
474
100
AcDbEntity
  8
TG
  6
CONTINUO
 62
     7
100
AcDbVertex
100
AcDb2dVertex
 10
444.972222
 20
53.135
 30
0.0
  0
SEQEND
  5
475
100
AcDbEntity
  8
TG
  6
CONTINUO
 62
     7
  0
POLYLINE
  5
476
100
AcDbEntity
  8
TG
  6
CONTINUO
 62
     7
100
AcDb2dPolyline
 66
     1
 10
0.0
 20
0.0
 30
0.0
  0
VERTEX
  5
477
100
AcDbEntity
  8
TG
  6
CONTINUO
 62
     7
100
AcDbVertex
100
AcDb2dVertex
 10
454.972222
 20
50.635
 30
0.0
  0
VERTEX
  5
478
100
AcDbEntity
  8
TG
  6
CONTINUO
 62
     7
100
AcDbVertex
100
AcDb2dVertex
 10
454.972222
 20
53.135
 30
0.0
  0
SEQEND
  5
479
100
AcDbEntity
  8
TG
  6
CONTINUO
 62
     7
  0
POLYLINE
  5
47A
100
AcDbEntity
  8
TG
  6
CONTINUO
 62
     7
100
AcDb2dPolyline
 66
     1
 10
0.0
 20
0.0
 30
0.0
  0
VERTEX
  5
47B
100
AcDbEntity
  8
TG
  6
CONTINUO
 62
     7
100
AcDbVertex
100
AcDb2dVertex
 10
464.972222
 20
50.635
 30
0.0
  0
VERTEX
  5
47C
100
AcDbEntity
  8
TG
  6
CONTINUO
 62
     7
100
AcDbVertex
100
AcDb2dVertex
 10
464.972222
 20
53.135
 30
0.0
  0
SEQEND
  5
47D
100
AcDbEntity
  8
TG
  6
CONTINUO
 62
     7
  0
POLYLINE
  5
47E
100
AcDbEntity
  8
TG
  6
CONTINUO
 62
     7
100
AcDb2dPolyline
 66
     1
 10
0.0
 20
0.0
 30
0.0
  0
VERTEX
  5
47F
100
AcDbEntity
  8
TG
  6
CONTINUO
 62
     7
100
AcDbVertex
100
AcDb2dVertex
 10
474.972222
 20
50.635
 30
0.0
  0
VERTEX
  5
480
100
AcDbEntity
  8
TG
  6
CONTINUO
 62
     7
100
AcDbVertex
100
AcDb2dVertex
 10
474.972222
 20
53.135
 30
0.0
  0
SEQEND
  5
481
100
AcDbEntity
  8
TG
  6
CONTINUO
 62
     7
  0
POLYLINE
  5
482
100
AcDbEntity
  8
TG
  6
CONTINUO
 62
     7
100
AcDb2dPolyline
 66
     1
 10
0.0
 20
0.0
 30
0.0
  0
VERTEX
  5
483
100
AcDbEntity
  8
TG
  6
CONTINUO
 62
     7
100
AcDbVertex
100
AcDb2dVertex
 10
484.972222
 20
48.135
 30
0.0
  0
VERTEX
  5
484
100
AcDbEntity
  8
TG
  6
CONTINUO
 62
     7
100
AcDbVertex
100
AcDb2dVertex
 10
484.972222
 20
53.135
 30
0.0
  0
SEQEND
  5
485
100
AcDbEntity
  8
TG
  6
CONTINUO
 62
     7
  0
TEXT
  5
486
100
AcDbEntity
  8
TG
 62
     7
100
AcDbText
 10
483.75
 20
46.135
 30
0.0
 40
1.5
  1
20
 41
0.814815
  7
SIMPLEX
 72
     5
 11
486.194444
 21
46.135
 31
0.0
100
AcDbText
  0
ENDBLK
  5
487
100
AcDbEntity
  8
0
100
AcDbBlockEnd
  0
BLOCK
  5
48A
100
AcDbEntity
  8
0
100
AcDbBlockBegin
  2
26D2EF0
 70
     0
 10
0.0
 20
0.0
 30
0.0
  3
26D2EF0
  1

  0
POLYLINE
  5
48B
100
AcDbEntity
  8
TG
  6
CONTINUO
 62
     7
100
AcDb2dPolyline
 66
     1
 10
0.0
 20
0.0
 30
0.0
  0
VERTEX
  5
48C
100
AcDbEntity
  8
TG
  6
CONTINUO
 62
     7
100
AcDbVertex
100
AcDb2dVertex
 10
358.972222
 20
114.745
 30
4.388
  0
VERTEX
  5
48D
100
AcDbEntity
  8
TG
  6
CONTINUO
 62
     7
100
AcDbVertex
100
AcDb2dVertex
 10
364.972222
 20
118.345
 30
5.108
  0
VERTEX
  5
48E
100
AcDbEntity
  8
TG
  6
CONTINUO
 62
     7
100
AcDbVertex
100
AcDb2dVertex
 10
371.472222
 20
116.645
 30
4.768
  0
VERTEX
  5
48F
100
AcDbEntity
  8
TG
  6
CONTINUO
 62
     7
100
AcDbVertex
100
AcDb2dVertex
 10
383.972222
 20
116.745
 30
4.788
  0
VERTEX
  5
490
100
AcDbEntity
  8
TG
  6
CONTINUO
 62
     7
100
AcDbVertex
100
AcDb2dVertex
 10
396.472222
 20
116.195
 30
4.678
  0
VERTEX
  5
491
100
AcDbEntity
  8
TG
  6
CONTINUO
 62
     7
100
AcDbVertex
100
AcDb2dVertex
 10
414.972222
 20
116.445
 30
4.728
  0
SEQEND
  5
492
100
AcDbEntity
  8
TG
  6
CONTINUO
 62
     7
  0
POLYLINE
  5
493
100
AcDbEntity
  8
TG
  6
CONTINUO
 62
     3
100
AcDb2dPolyline
 66
     1
 10
0.0
 20
0.0
 30
0.0
  0
VERTEX
  5
494
100
AcDbEntity
  8
TG
  6
CONTINUO
 62
     3
100
AcDbVertex
100
AcDb2dVertex
 10
366.472222
 20
117.955
 30
5.03
  0
VERTEX
  5
495
100
AcDbEntity
  8
TG
  6
CONTINUO
 62
     3
100
AcDbVertex
100
AcDb2dVertex
 10
366.472222
 20
116.99
 30
4.837
  0
VERTEX
  5
496
100
AcDbEntity
  8
TG
  6
CONTINUO
 62
     3
100
AcDbVertex
100
AcDb2dVertex
 10
366.472222
 20
116.99
 30
4.837
  0
VERTEX
  5
497
100
AcDbEntity
  8
TG
  6
CONTINUO
 62
     3
100
AcDbVertex
100
AcDb2dVertex
 10
386.472222
 20
117.19
 30
4.877
  0
VERTEX
  5
498
100
AcDbEntity
  8
TG
  6
CONTINUO
 62
     3
100
AcDbVertex
100
AcDb2dVertex
 10
406.472222
 20
117.39
 30
4.917
  0
VERTEX
  5
499
100
AcDbEntity
  8
TG
  6
CONTINUO
 62
     3
100
AcDbVertex
100
AcDb2dVertex
 10
406.472222
 20
117.39
 30
4.917
  0
VERTEX
  5
49A
100
AcDbEntity
  8
TG
  6
CONTINUO
 62
     3
100
AcDbVertex
100
AcDb2dVertex
 10
408.030722
 20
116.35
 30
4.709
  0
SEQEND
  5
49B
100
AcDbEntity
  8
TG
  6
CONTINUO
 62
     3
  0
POLYLINE
  5
49C
100
AcDbEntity
  8
TG
  6
CONTINUO
 62
     7
100
AcDb2dPolyline
 66
     1
 10
0.0
 20
0.0
 30
0.0
  0
VERTEX
  5
49D
100
AcDbEntity
  8
TG
  6
CONTINUO
 62
     7
100
AcDbVertex
100
AcDb2dVertex
 10
383.972222
 20
102.805
 30
0.0
  0
VERTEX
  5
49E
100
AcDbEntity
  8
TG
  6
CONTINUO
 62
     7
100
AcDbVertex
100
AcDb2dVertex
 10
383.972222
 20
118.345
 30
0.0
  0
SEQEND
  5
49F
100
AcDbEntity
  8
TG
  6
CONTINUO
 62
     7
  0
TEXT
  5
4A0
100
AcDbEntity
  8
TG
 62
     7
100
AcDbText
 10
372.758333
 20
118.845
 30
0.0
 40
1.5
  1
Cota do projeto: 5.027
 41
0.67963
  7
SIMPLEX
 72
     5
 11
395.186111
 21
118.845
 31
0.0
100
AcDbText
  0
TEXT
  5
4A1
100
AcDbEntity
  8
TG
 62
     7
100
AcDbText
 10
372.697222
 20
121.095
 30
0.0
 40
1.5
  1
Cota do terreno: 4.788
 41
0.683333
  7
SIMPLEX
 72
     5
 11
395.247222
 21
121.095
 31
0.0
100
AcDbText
  0
TEXT
  5
4A2
100
AcDbEntity
  8
TG
 62
     7
100
AcDbText
 10
376.761111
 20
123.345
 30
0.0
 40
1.5
  1
Estaca: 0+160
 41
0.739601
  7
SIMPLEX
 72
     5
 11
391.183333
 21
123.345
 31
0.0
100
AcDbText
  0
POLYLINE
  5
4A3
100
AcDbEntity
  8
TG
  6
CONTINUO
 62
     7
100
AcDb2dPolyline
 66
     1
 10
0.0
 20
0.0
 30
0.0
  0
VERTEX
  5
4A4
100
AcDbEntity
  8
TG
  6
CONTINUO
 62
     7
100
AcDbVertex
100
AcDb2dVertex
 10
358.972222
 20
102.805
 30
0.0
  0
VERTEX
  5
4A5
100
AcDbEntity
  8
TG
  6
CONTINUO
 62
     7
100
AcDbVertex
100
AcDb2dVertex
 10
358.972222
 20
118.345
 30
0.0
  0
SEQEND
  5
4A6
100
AcDbEntity
  8
TG
  6
CONTINUO
 62
     7
  0
POLYLINE
  5
4A7
100
AcDbEntity
  8
TG
  6
CONTINUO
 62
     7
100
AcDb2dPolyline
 66
     1
 10
0.0
 20
0.0
 30
0.0
  0
VERTEX
  5
4A8
100
AcDbEntity
  8
TG
  6
CONTINUO
 62
     7
100
AcDbVertex
100
AcDb2dVertex
 10
358.972222
 20
102.805
 30
0.0
  0
VERTEX
  5
4A9
100
AcDbEntity
  8
TG
  6
CONTINUO
 62
     7
100
AcDbVertex
100
AcDb2dVertex
 10
414.972222
 20
102.805
 30
0.0
  0
SEQEND
  5
4AA
100
AcDbEntity
  8
TG
  6
CONTINUO
 62
     7
  0
POLYLINE
  5
4AB
100
AcDbEntity
  8
TG
  6
CONTINUO
 62
     7
100
AcDb2dPolyline
 66
     1
 10
0.0
 20
0.0
 30
0.0
  0
VERTEX
  5
4AC
100
AcDbEntity
  8
TG
  6
CONTINUO
 62
     7
100
AcDbVertex
100
AcDb2dVertex
 10
353.972222
 20
102.805
 30
0.0
  0
VERTEX
  5
4AD
100
AcDbEntity
  8
TG
  6
CONTINUO
 62
     7
100
AcDbVertex
100
AcDb2dVertex
 10
358.972222
 20
102.805
 30
0.0
  0
SEQEND
  5
4AE
100
AcDbEntity
  8
TG
  6
CONTINUO
 62
     7
  0
POLYLINE
  5
4AF
100
AcDbEntity
  8
TG
  6
CONTINUO
 62
     7
100
AcDb2dPolyline
 66
     1
 10
0.0
 20
0.0
 30
0.0
  0
VERTEX
  5
4B0
100
AcDbEntity
  8
TG
  6
CONTINUO
 62
     7
100
AcDbVertex
100
AcDb2dVertex
 10
353.972222
 20
112.805
 30
0.0
  0
VERTEX
  5
4B1
100
AcDbEntity
  8
TG
  6
CONTINUO
 62
     7
100
AcDbVertex
100
AcDb2dVertex
 10
358.972222
 20
112.805
 30
0.0
  0
SEQEND
  5
4B2
100
AcDbEntity
  8
TG
  6
CONTINUO
 62
     7
  0
TEXT
  5
4B3
100
AcDbEntity
  8
TG
 62
     7
100
AcDbText
 10
348.972222
 20
103.305
 30
0.0
 40
1.5
  1
2
 41
0.814815
  7
SIMPLEX
 72
     5
 11
350.194444
 21
103.305
 31
0.0
100
AcDbText
  0
POLYLINE
  5
4B4
100
AcDbEntity
  8
TG
  6
CONTINUO
 62
     7
100
AcDb2dPolyline
 66
     1
 10
0.0
 20
0.0
 30
0.0
  0
VERTEX
  5
4B5
100
AcDbEntity
  8
TG
  6
CONTINUO
 62
     7
100
AcDbVertex
100
AcDb2dVertex
 10
363.972222
 20
100.305
 30
0.0
  0
VERTEX
  5
4B6
100
AcDbEntity
  8
TG
  6
CONTINUO
 62
     7
100
AcDbVertex
100
AcDb2dVertex
 10
363.972222
 20
102.805
 30
0.0
  0
SEQEND
  5
4B7
100
AcDbEntity
  8
TG
  6
CONTINUO
 62
     7
  0
POLYLINE
  5
4B8
100
AcDbEntity
  8
TG
  6
CONTINUO
 62
     7
100
AcDb2dPolyline
 66
     1
 10
0.0
 20
0.0
 30
0.0
  0
VERTEX
  5
4B9
100
AcDbEntity
  8
TG
  6
CONTINUO
 62
     7
100
AcDbVertex
100
AcDb2dVertex
 10
373.972222
 20
100.305
 30
0.0
  0
VERTEX
  5
4BA
100
AcDbEntity
  8
TG
  6
CONTINUO
 62
     7
100
AcDbVertex
100
AcDb2dVertex
 10
373.972222
 20
102.805
 30
0.0
  0
SEQEND
  5
4BB
100
AcDbEntity
  8
TG
  6
CONTINUO
 62
     7
  0
TEXT
  5
4BC
100
AcDbEntity
  8
TG
 62
     7
100
AcDbText
 10
383.361111
 20
98.305
 30
0.0
 40
1.5
  1
0
 41
0.814815
  7
SIMPLEX
 72
     5
 11
384.583333
 21
98.305
 31
0.0
100
AcDbText
  0
POLYLINE
  5
4BD
100
AcDbEntity
  8
TG
  6
CONTINUO
 62
     7
100
AcDb2dPolyline
 66
     1
 10
0.0
 20
0.0
 30
0.0
  0
VERTEX
  5
4BE
100
AcDbEntity
  8
TG
  6
CONTINUO
 62
     7
100
AcDbVertex
100
AcDb2dVertex
 10
393.972222
 20
100.305
 30
0.0
  0
VERTEX
  5
4BF
100
AcDbEntity
  8
TG
  6
CONTINUO
 62
     7
100
AcDbVertex
100
AcDb2dVertex
 10
393.972222
 20
102.805
 30
0.0
  0
SEQEND
  5
4C0
100
AcDbEntity
  8
TG
  6
CONTINUO
 62
     7
  0
POLYLINE
  5
4C1
100
AcDbEntity
  8
TG
  6
CONTINUO
 62
     7
100
AcDb2dPolyline
 66
     1
 10
0.0
 20
0.0
 30
0.0
  0
VERTEX
  5
4C2
100
AcDbEntity
  8
TG
  6
CONTINUO
 62
     7
100
AcDbVertex
100
AcDb2dVertex
 10
403.972222
 20
100.305
 30
0.0
  0
VERTEX
  5
4C3
100
AcDbEntity
  8
TG
  6
CONTINUO
 62
     7
100
AcDbVertex
100
AcDb2dVertex
 10
403.972222
 20
102.805
 30
0.0
  0
SEQEND
  5
4C4
100
AcDbEntity
  8
TG
  6
CONTINUO
 62
     7
  0
POLYLINE
  5
4C5
100
AcDbEntity
  8
TG
  6
CONTINUO
 62
     7
100
AcDb2dPolyline
 66
     1
 10
0.0
 20
0.0
 30
0.0
  0
VERTEX
  5
4C6
100
AcDbEntity
  8
TG
  6
CONTINUO
 62
     7
100
AcDbVertex
100
AcDb2dVertex
 10
413.972222
 20
100.305
 30
0.0
  0
VERTEX
  5
4C7
100
AcDbEntity
  8
TG
  6
CONTINUO
 62
     7
100
AcDbVertex
100
AcDb2dVertex
 10
413.972222
 20
102.805
 30
0.0
  0
SEQEND
  5
4C8
100
AcDbEntity
  8
TG
  6
CONTINUO
 62
     7
  0
ENDBLK
  5
4C9
100
AcDbEntity
  8
0
100
AcDbBlockEnd
  0
BLOCK
  5
4CC
100
AcDbEntity
  8
0
100
AcDbBlockBegin
  2
26D4B50
 70
     0
 10
0.0
 20
0.0
 30
0.0
  3
26D4B50
  1

  0
POLYLINE
  5
4CD
100
AcDbEntity
  8
TG
  6
CONTINUO
 62
     7
100
AcDb2dPolyline
 66
     1
 10
0.0
 20
0.0
 30
0.0
  0
VERTEX
  5
4CE
100
AcDbEntity
  8
TG
  6
CONTINUO
 62
     7
100
AcDbVertex
100
AcDb2dVertex
 10
516.194444
 20
16.44
 30
4.388
  0
VERTEX
  5
4CF
100
AcDbEntity
  8
TG
  6
CONTINUO
 62
     7
100
AcDbVertex
100
AcDb2dVertex
 10
524.694444
 20
21.54
 30
5.408
  0
VERTEX
  5
4D0
100
AcDbEntity
  8
TG
  6
CONTINUO
 62
     7
100
AcDbVertex
100
AcDb2dVertex
 10
532.694444
 20
18.44
 30
4.788
  0
VERTEX
  5
4D1
100
AcDbEntity
  8
TG
  6
CONTINUO
 62
     7
100
AcDbVertex
100
AcDb2dVertex
 10
546.194444
 20
18.615
 30
4.823
  0
VERTEX
  5
4D2
100
AcDbEntity
  8
TG
  6
CONTINUO
 62
     7
100
AcDbVertex
100
AcDb2dVertex
 10
563.194444
 20
18.39
 30
4.778
  0
VERTEX
  5
4D3
100
AcDbEntity
  8
TG
  6
CONTINUO
 62
     7
100
AcDbVertex
100
AcDb2dVertex
 10
579.694444
 20
18.115
 30
4.723
  0
SEQEND
  5
4D4
100
AcDbEntity
  8
TG
  6
CONTINUO
 62
     7
  0
POLYLINE
  5
4D5
100
AcDbEntity
  8
TG
  6
CONTINUO
 62
     3
100
AcDb2dPolyline
 66
     1
 10
0.0
 20
0.0
 30
0.0
  0
VERTEX
  5
4D6
100
AcDbEntity
  8
TG
  6
CONTINUO
 62
     3
100
AcDbVertex
100
AcDb2dVertex
 10
528.694444
 20
19.99
 30
5.098
  0
VERTEX
  5
4D7
100
AcDbEntity
  8
TG
  6
CONTINUO
 62
     3
100
AcDbVertex
100
AcDb2dVertex
 10
528.694444
 20
17.465
 30
4.593
  0
VERTEX
  5
4D8
100
AcDbEntity
  8
TG
  6
CONTINUO
 62
     3
100
AcDbVertex
100
AcDb2dVertex
 10
528.694444
 20
17.465
 30
4.593
  0
VERTEX
  5
4D9
100
AcDbEntity
  8
TG
  6
CONTINUO
 62
     3
100
AcDbVertex
100
AcDb2dVertex
 10
548.694444
 20
17.665
 30
4.633
  0
VERTEX
  5
4DA
100
AcDbEntity
  8
TG
  6
CONTINUO
 62
     3
100
AcDbVertex
100
AcDb2dVertex
 10
568.694444
 20
17.865
 30
4.673
  0
VERTEX
  5
4DB
100
AcDbEntity
  8
TG
  6
CONTINUO
 62
     3
100
AcDbVertex
100
AcDb2dVertex
 10
568.694444
 20
17.865
 30
4.673
  0
VERTEX
  5
4DC
100
AcDbEntity
  8
TG
  6
CONTINUO
 62
     3
100
AcDbVertex
100
AcDb2dVertex
 10
568.979944
 20
18.295
 30
4.759
  0
SEQEND
  5
4DD
100
AcDbEntity
  8
TG
  6
CONTINUO
 62
     3
  0
POLYLINE
  5
4DE
100
AcDbEntity
  8
TG
  6
CONTINUO
 62
     7
100
AcDb2dPolyline
 66
     1
 10
0.0
 20
0.0
 30
0.0
  0
VERTEX
  5
4DF
100
AcDbEntity
  8
TG
  6
CONTINUO
 62
     7
100
AcDbVertex
100
AcDb2dVertex
 10
546.194444
 20
4.5
 30
0.0
  0
VERTEX
  5
4E0
100
AcDbEntity
  8
TG
  6
CONTINUO
 62
     7
100
AcDbVertex
100
AcDb2dVertex
 10
546.194444
 20
21.54
 30
0.0
  0
SEQEND
  5
4E1
100
AcDbEntity
  8
TG
  6
CONTINUO
 62
     7
  0
TEXT
  5
4E2
100
AcDbEntity
  8
TG
 62
     7
100
AcDbText
 10
534.980556
 20
22.04
 30
0.0
 40
1.5
  1
Cota do projeto: 4.783
 41
0.67963
  7
SIMPLEX
 72
     5
 11
557.408333
 21
22.04
 31
0.0
100
AcDbText
  0
TEXT
  5
4E3
100
AcDbEntity
  8
TG
 62
     7
100
AcDbText
 10
534.919444
 20
24.29
 30
0.0
 40
1.5
  1
Cota do terreno: 4.823
 41
0.683333
  7
SIMPLEX
 72
     5
 11
557.469444
 21
24.29
 31
0.0
100
AcDbText
  0
TEXT
  5
4E4
100
AcDbEntity
  8
TG
 62
     7
100
AcDbText
 10
538.983333
 20
26.54
 30
0.0
 40
1.5
  1
Estaca: 0+180
 41
0.739601
  7
SIMPLEX
 72
     5
 11
553.405556
 21
26.54
 31
0.0
100
AcDbText
  0
POLYLINE
  5
4E5
100
AcDbEntity
  8
TG
  6
CONTINUO
 62
     7
100
AcDb2dPolyline
 66
     1
 10
0.0
 20
0.0
 30
0.0
  0
VERTEX
  5
4E6
100
AcDbEntity
  8
TG
  6
CONTINUO
 62
     7
100
AcDbVertex
100
AcDb2dVertex
 10
516.194444
 20
4.5
 30
0.0
  0
VERTEX
  5
4E7
100
AcDbEntity
  8
TG
  6
CONTINUO
 62
     7
100
AcDbVertex
100
AcDb2dVertex
 10
516.194444
 20
21.54
 30
0.0
  0
SEQEND
  5
4E8
100
AcDbEntity
  8
TG
  6
CONTINUO
 62
     7
  0
POLYLINE
  5
4E9
100
AcDbEntity
  8
TG
  6
CONTINUO
 62
     7
100
AcDb2dPolyline
 66
     1
 10
0.0
 20
0.0
 30
0.0
  0
VERTEX
  5
4EA
100
AcDbEntity
  8
TG
  6
CONTINUO
 62
     7
100
AcDbVertex
100
AcDb2dVertex
 10
516.194444
 20
4.5
 30
0.0
  0
VERTEX
  5
4EB
100
AcDbEntity
  8
TG
  6
CONTINUO
 62
     7
100
AcDbVertex
100
AcDb2dVertex
 10
579.694444
 20
4.5
 30
0.0
  0
SEQEND
  5
4EC
100
AcDbEntity
  8
TG
  6
CONTINUO
 62
     7
  0
POLYLINE
  5
4ED
100
AcDbEntity
  8
TG
  6
CONTINUO
 62
     7
100
AcDb2dPolyline
 66
     1
 10
0.0
 20
0.0
 30
0.0
  0
VERTEX
  5
4EE
100
AcDbEntity
  8
TG
  6
CONTINUO
 62
     7
100
AcDbVertex
100
AcDb2dVertex
 10
511.194444
 20
4.5
 30
0.0
  0
VERTEX
  5
4EF
100
AcDbEntity
  8
TG
  6
CONTINUO
 62
     7
100
AcDbVertex
100
AcDb2dVertex
 10
516.194444
 20
4.5
 30
0.0
  0
SEQEND
  5
4F0
100
AcDbEntity
  8
TG
  6
CONTINUO
 62
     7
  0
POLYLINE
  5
4F1
100
AcDbEntity
  8
TG
  6
CONTINUO
 62
     7
100
AcDb2dPolyline
 66
     1
 10
0.0
 20
0.0
 30
0.0
  0
VERTEX
  5
4F2
100
AcDbEntity
  8
TG
  6
CONTINUO
 62
     7
100
AcDbVertex
100
AcDb2dVertex
 10
511.194444
 20
14.5
 30
0.0
  0
VERTEX
  5
4F3
100
AcDbEntity
  8
TG
  6
CONTINUO
 62
     7
100
AcDbVertex
100
AcDb2dVertex
 10
516.194444
 20
14.5
 30
0.0
  0
SEQEND
  5
4F4
100
AcDbEntity
  8
TG
  6
CONTINUO
 62
     7
  0
TEXT
  5
4F5
100
AcDbEntity
  8
TG
 62
     7
100
AcDbText
 10
506.194444
 20
5.0
 30
0.0
 40
1.5
  1
2
 41
0.814815
  7
SIMPLEX
 72
     5
 11
507.416667
 21
5.0
 31
0.0
100
AcDbText
  0
POLYLINE
  5
4F6
100
AcDbEntity
  8
TG
  6
CONTINUO
 62
     7
100
AcDb2dPolyline
 66
     1
 10
0.0
 20
0.0
 30
0.0
  0
VERTEX
  5
4F7
100
AcDbEntity
  8
TG
  6
CONTINUO
 62
     7
100
AcDbVertex
100
AcDb2dVertex
 10
526.194444
 20
2.0
 30
0.0
  0
VERTEX
  5
4F8
100
AcDbEntity
  8
TG
  6
CONTINUO
 62
     7
100
AcDbVertex
100
AcDb2dVertex
 10
526.194444
 20
4.5
 30
0.0
  0
SEQEND
  5
4F9
100
AcDbEntity
  8
TG
  6
CONTINUO
 62
     7
  0
POLYLINE
  5
4FA
100
AcDbEntity
  8
TG
  6
CONTINUO
 62
     7
100
AcDb2dPolyline
 66
     1
 10
0.0
 20
0.0
 30
0.0
  0
VERTEX
  5
4FB
100
AcDbEntity
  8
TG
  6
CONTINUO
 62
     7
100
AcDbVertex
100
AcDb2dVertex
 10
536.194444
 20
2.0
 30
0.0
  0
VERTEX
  5
4FC
100
AcDbEntity
  8
TG
  6
CONTINUO
 62
     7
100
AcDbVertex
100
AcDb2dVertex
 10
536.194444
 20
4.5
 30
0.0
  0
SEQEND
  5
4FD
100
AcDbEntity
  8
TG
  6
CONTINUO
 62
     7
  0
TEXT
  5
4FE
100
AcDbEntity
  8
TG
 62
     7
100
AcDbText
 10
545.583333
 20
0.0
 30
0.0
 40
1.5
  1
0
 41
0.814815
  7
SIMPLEX
 72
     5
 11
546.805556
 21
0.0
 31
0.0
100
AcDbText
  0
POLYLINE
  5
4FF
100
AcDbEntity
  8
TG
  6
CONTINUO
 62
     7
100
AcDb2dPolyline
 66
     1
 10
0.0
 20
0.0
 30
0.0
  0
VERTEX
  5
500
100
AcDbEntity
  8
TG
  6
CONTINUO
 62
     7
100
AcDbVertex
100
AcDb2dVertex
 10
556.194444
 20
2.0
 30
0.0
  0
VERTEX
  5
501
100
AcDbEntity
  8
TG
  6
CONTINUO
 62
     7
100
AcDbVertex
100
AcDb2dVertex
 10
556.194444
 20
4.5
 30
0.0
  0
SEQEND
  5
502
100
AcDbEntity
  8
TG
  6
CONTINUO
 62
     7
  0
POLYLINE
  5
503
100
AcDbEntity
  8
TG
  6
CONTINUO
 62
     7
100
AcDb2dPolyline
 66
     1
 10
0.0
 20
0.0
 30
0.0
  0
VERTEX
  5
504
100
AcDbEntity
  8
TG
  6
CONTINUO
 62
     7
100
AcDbVertex
100
AcDb2dVertex
 10
566.194444
 20
2.0
 30
0.0
  0
VERTEX
  5
505
100
AcDbEntity
  8
TG
  6
CONTINUO
 62
     7
100
AcDbVertex
100
AcDb2dVertex
 10
566.194444
 20
4.5
 30
0.0
  0
SEQEND
  5
506
100
AcDbEntity
  8
TG
  6
CONTINUO
 62
     7
  0
POLYLINE
  5
507
100
AcDbEntity
  8
TG
  6
CONTINUO
 62
     7
100
AcDb2dPolyline
 66
     1
 10
0.0
 20
0.0
 30
0.0
  0
VERTEX
  5
508
100
AcDbEntity
  8
TG
  6
CONTINUO
 62
     7
100
AcDbVertex
100
AcDb2dVertex
 10
576.194444
 20
2.0
 30
0.0
  0
VERTEX
  5
509
100
AcDbEntity
  8
TG
  6
CONTINUO
 62
     7
100
AcDbVertex
100
AcDb2dVertex
 10
576.194444
 20
4.5
 30
0.0
  0
SEQEND
  5
50A
100
AcDbEntity
  8
TG
  6
CONTINUO
 62
     7
  0
ENDBLK
  5
50B
100
AcDbEntity
  8
0
100
AcDbBlockEnd
  0
BLOCK
  5
50E
100
AcDbEntity
  8
0
100
AcDbBlockBegin
  2
1E29CE0
 70
     0
 10
0.0
 20
0.0
 30
0.0
  3
1E29CE0
  1

  0
POLYLINE
  5
50F
100
AcDbEntity
  8
TG
  6
CONTINUO
 62
     7
100
AcDb2dPolyline
 66
     1
 10
0.0
 20
0.0
 30
0.0
  0
VERTEX
  5
510
100
AcDbEntity
  8
TG
  6
CONTINUO
 62
     7
100
AcDbVertex
100
AcDb2dVertex
 10
516.194444
 20
64.485
 30
4.389
  0
VERTEX
  5
511
100
AcDbEntity
  8
TG
  6
CONTINUO
 62
     7
100
AcDbVertex
100
AcDb2dVertex
 10
524.694444
 20
68.835
 30
5.259
  0
VERTEX
  5
512
100
AcDbEntity
  8
TG
  6
CONTINUO
 62
     7
100
AcDbVertex
100
AcDb2dVertex
 10
535.694444
 20
65.785
 30
4.649
  0
VERTEX
  5
513
100
AcDbEntity
  8
TG
  6
CONTINUO
 62
     7
100
AcDbVertex
100
AcDb2dVertex
 10
555.694444
 20
65.785
 30
4.649
  0
VERTEX
  5
514
100
AcDbEntity
  8
TG
  6
CONTINUO
 62
     7
100
AcDbVertex
100
AcDb2dVertex
 10
576.194444
 20
64.385
 30
4.369
  0
VERTEX
  5
515
100
AcDbEntity
  8
TG
  6
CONTINUO
 62
     7
100
AcDbVertex
100
AcDb2dVertex
 10
590.694444
 20
65.935
 30
4.679
  0
SEQEND
  5
516
100
AcDbEntity
  8
TG
  6
CONTINUO
 62
     7
  0
POLYLINE
  5
517
100
AcDbEntity
  8
TG
  6
CONTINUO
 62
     3
100
AcDb2dPolyline
 66
     1
 10
0.0
 20
0.0
 30
0.0
  0
VERTEX
  5
518
100
AcDbEntity
  8
TG
  6
CONTINUO
 62
     3
100
AcDbVertex
100
AcDb2dVertex
 10
538.194444
 20
65.785
 30
4.649
  0
VERTEX
  5
519
100
AcDbEntity
  8
TG
  6
CONTINUO
 62
     3
100
AcDbVertex
100
AcDb2dVertex
 10
538.194444
 20
65.205
 30
4.533
  0
VERTEX
  5
51A
100
AcDbEntity
  8
TG
  6
CONTINUO
 62
     3
100
AcDbVertex
100
AcDb2dVertex
 10
538.194444
 20
65.205
 30
4.533
  0
VERTEX
  5
51B
100
AcDbEntity
  8
TG
  6
CONTINUO
 62
     3
100
AcDbVertex
100
AcDb2dVertex
 10
558.194444
 20
65.405
 30
4.573
  0
VERTEX
  5
51C
100
AcDbEntity
  8
TG
  6
CONTINUO
 62
     3
100
AcDbVertex
100
AcDb2dVertex
 10
578.194444
 20
65.605
 30
4.613
  0
VERTEX
  5
51D
100
AcDbEntity
  8
TG
  6
CONTINUO
 62
     3
100
AcDbVertex
100
AcDb2dVertex
 10
578.194444
 20
65.605
 30
4.613
  0
VERTEX
  5
51E
100
AcDbEntity
  8
TG
  6
CONTINUO
 62
     3
100
AcDbVertex
100
AcDb2dVertex
 10
579.494944
 20
64.74
 30
4.44
  0
SEQEND
  5
51F
100
AcDbEntity
  8
TG
  6
CONTINUO
 62
     3
  0
POLYLINE
  5
520
100
AcDbEntity
  8
TG
  6
CONTINUO
 62
     7
100
AcDb2dPolyline
 66
     1
 10
0.0
 20
0.0
 30
0.0
  0
VERTEX
  5
521
100
AcDbEntity
  8
TG
  6
CONTINUO
 62
     7
100
AcDbVertex
100
AcDb2dVertex
 10
555.694444
 20
52.54
 30
0.0
  0
VERTEX
  5
522
100
AcDbEntity
  8
TG
  6
CONTINUO
 62
     7
100
AcDbVertex
100
AcDb2dVertex
 10
555.694444
 20
68.835
 30
0.0
  0
SEQEND
  5
523
100
AcDbEntity
  8
TG
  6
CONTINUO
 62
     7
  0
TEXT
  5
524
100
AcDbEntity
  8
TG
 62
     7
100
AcDbText
 10
544.480556
 20
69.335
 30
0.0
 40
1.5
  1
Cota do projeto: 4.723
 41
0.67963
  7
SIMPLEX
 72
     5
 11
566.908333
 21
69.335
 31
0.0
100
AcDbText
  0
TEXT
  5
525
100
AcDbEntity
  8
TG
 62
     7
100
AcDbText
 10
544.419444
 20
71.585
 30
0.0
 40
1.5
  1
Cota do terreno: 4.649
 41
0.683333
  7
SIMPLEX
 72
     5
 11
566.969444
 21
71.585
 31
0.0
100
AcDbText
  0
TEXT
  5
526
100
AcDbEntity
  8
TG
 62
     7
100
AcDbText
 10
548.483333
 20
73.835
 30
0.0
 40
1.5
  1
Estaca: 0+200
 41
0.739601
  7
SIMPLEX
 72
     5
 11
562.905556
 21
73.835
 31
0.0
100
AcDbText
  0
POLYLINE
  5
527
100
AcDbEntity
  8
TG
  6
CONTINUO
 62
     7
100
AcDb2dPolyline
 66
     1
 10
0.0
 20
0.0
 30
0.0
  0
VERTEX
  5
528
100
AcDbEntity
  8
TG
  6
CONTINUO
 62
     7
100
AcDbVertex
100
AcDb2dVertex
 10
516.194444
 20
52.54
 30
0.0
  0
VERTEX
  5
529
100
AcDbEntity
  8
TG
  6
CONTINUO
 62
     7
100
AcDbVertex
100
AcDb2dVertex
 10
516.194444
 20
68.835
 30
0.0
  0
SEQEND
  5
52A
100
AcDbEntity
  8
TG
  6
CONTINUO
 62
     7
  0
POLYLINE
  5
52B
100
AcDbEntity
  8
TG
  6
CONTINUO
 62
     7
100
AcDb2dPolyline
 66
     1
 10
0.0
 20
0.0
 30
0.0
  0
VERTEX
  5
52C
100
AcDbEntity
  8
TG
  6
CONTINUO
 62
     7
100
AcDbVertex
100
AcDb2dVertex
 10
516.194444
 20
52.54
 30
0.0
  0
VERTEX
  5
52D
100
AcDbEntity
  8
TG
  6
CONTINUO
 62
     7
100
AcDbVertex
100
AcDb2dVertex
 10
590.694444
 20
52.54
 30
0.0
  0
SEQEND
  5
52E
100
AcDbEntity
  8
TG
  6
CONTINUO
 62
     7
  0
POLYLINE
  5
52F
100
AcDbEntity
  8
TG
  6
CONTINUO
 62
     7
100
AcDb2dPolyline
 66
     1
 10
0.0
 20
0.0
 30
0.0
  0
VERTEX
  5
530
100
AcDbEntity
  8
TG
  6
CONTINUO
 62
     7
100
AcDbVertex
100
AcDb2dVertex
 10
511.194444
 20
52.54
 30
0.0
  0
VERTEX
  5
531
100
AcDbEntity
  8
TG
  6
CONTINUO
 62
     7
100
AcDbVertex
100
AcDb2dVertex
 10
516.194444
 20
52.54
 30
0.0
  0
SEQEND
  5
532
100
AcDbEntity
  8
TG
  6
CONTINUO
 62
     7
  0
POLYLINE
  5
533
100
AcDbEntity
  8
TG
  6
CONTINUO
 62
     7
100
AcDb2dPolyline
 66
     1
 10
0.0
 20
0.0
 30
0.0
  0
VERTEX
  5
534
100
AcDbEntity
  8
TG
  6
CONTINUO
 62
     7
100
AcDbVertex
100
AcDb2dVertex
 10
511.194444
 20
62.54
 30
0.0
  0
VERTEX
  5
535
100
AcDbEntity
  8
TG
  6
CONTINUO
 62
     7
100
AcDbVertex
100
AcDb2dVertex
 10
516.194444
 20
62.54
 30
0.0
  0
SEQEND
  5
536
100
AcDbEntity
  8
TG
  6
CONTINUO
 62
     7
  0
TEXT
  5
537
100
AcDbEntity
  8
TG
 62
     7
100
AcDbText
 10
506.194444
 20
53.04
 30
0.0
 40
1.5
  1
2
 41
0.814815
  7
SIMPLEX
 72
     5
 11
507.416667
 21
53.04
 31
0.0
100
AcDbText
  0
POLYLINE
  5
538
100
AcDbEntity
  8
TG
  6
CONTINUO
 62
     7
100
AcDb2dPolyline
 66
     1
 10
0.0
 20
0.0
 30
0.0
  0
VERTEX
  5
539
100
AcDbEntity
  8
TG
  6
CONTINUO
 62
     7
100
AcDbVertex
100
AcDb2dVertex
 10
525.694444
 20
50.04
 30
0.0
  0
VERTEX
  5
53A
100
AcDbEntity
  8
TG
  6
CONTINUO
 62
     7
100
AcDbVertex
100
AcDb2dVertex
 10
525.694444
 20
52.54
 30
0.0
  0
SEQEND
  5
53B
100
AcDbEntity
  8
TG
  6
CONTINUO
 62
     7
  0
POLYLINE
  5
53C
100
AcDbEntity
  8
TG
  6
CONTINUO
 62
     7
100
AcDb2dPolyline
 66
     1
 10
0.0
 20
0.0
 30
0.0
  0
VERTEX
  5
53D
100
AcDbEntity
  8
TG
  6
CONTINUO
 62
     7
100
AcDbVertex
100
AcDb2dVertex
 10
535.694444
 20
50.04
 30
0.0
  0
VERTEX
  5
53E
100
AcDbEntity
  8
TG
  6
CONTINUO
 62
     7
100
AcDbVertex
100
AcDb2dVertex
 10
535.694444
 20
52.54
 30
0.0
  0
SEQEND
  5
53F
100
AcDbEntity
  8
TG
  6
CONTINUO
 62
     7
  0
POLYLINE
  5
540
100
AcDbEntity
  8
TG
  6
CONTINUO
 62
     7
100
AcDb2dPolyline
 66
     1
 10
0.0
 20
0.0
 30
0.0
  0
VERTEX
  5
541
100
AcDbEntity
  8
TG
  6
CONTINUO
 62
     7
100
AcDbVertex
100
AcDb2dVertex
 10
545.694444
 20
50.04
 30
0.0
  0
VERTEX
  5
542
100
AcDbEntity
  8
TG
  6
CONTINUO
 62
     7
100
AcDbVertex
100
AcDb2dVertex
 10
545.694444
 20
52.54
 30
0.0
  0
SEQEND
  5
543
100
AcDbEntity
  8
TG
  6
CONTINUO
 62
     7
  0
TEXT
  5
544
100
AcDbEntity
  8
TG
 62
     7
100
AcDbText
 10
555.083333
 20
48.04
 30
0.0
 40
1.5
  1
0
 41
0.814815
  7
SIMPLEX
 72
     5
 11
556.305556
 21
48.04
 31
0.0
100
AcDbText
  0
POLYLINE
  5
545
100
AcDbEntity
  8
TG
  6
CONTINUO
 62
     7
100
AcDb2dPolyline
 66
     1
 10
0.0
 20
0.0
 30
0.0
  0
VERTEX
  5
546
100
AcDbEntity
  8
TG
  6
CONTINUO
 62
     7
100
AcDbVertex
100
AcDb2dVertex
 10
565.694444
 20
50.04
 30
0.0
  0
VERTEX
  5
547
100
AcDbEntity
  8
TG
  6
CONTINUO
 62
     7
100
AcDbVertex
100
AcDb2dVertex
 10
565.694444
 20
52.54
 30
0.0
  0
SEQEND
  5
548
100
AcDbEntity
  8
TG
  6
CONTINUO
 62
     7
  0
POLYLINE
  5
549
100
AcDbEntity
  8
TG
  6
CONTINUO
 62
     7
100
AcDb2dPolyline
 66
     1
 10
0.0
 20
0.0
 30
0.0
  0
VERTEX
  5
54A
100
AcDbEntity
  8
TG
  6
CONTINUO
 62
     7
100
AcDbVertex
100
AcDb2dVertex
 10
575.694444
 20
50.04
 30
0.0
  0
VERTEX
  5
54B
100
AcDbEntity
  8
TG
  6
CONTINUO
 62
     7
100
AcDbVertex
100
AcDb2dVertex
 10
575.694444
 20
52.54
 30
0.0
  0
SEQEND
  5
54C
100
AcDbEntity
  8
TG
  6
CONTINUO
 62
     7
  0
POLYLINE
  5
54D
100
AcDbEntity
  8
TG
  6
CONTINUO
 62
     7
100
AcDb2dPolyline
 66
     1
 10
0.0
 20
0.0
 30
0.0
  0
VERTEX
  5
54E
100
AcDbEntity
  8
TG
  6
CONTINUO
 62
     7
100
AcDbVertex
100
AcDb2dVertex
 10
585.694444
 20
50.04
 30
0.0
  0
VERTEX
  5
54F
100
AcDbEntity
  8
TG
  6
CONTINUO
 62
     7
100
AcDbVertex
100
AcDb2dVertex
 10
585.694444
 20
52.54
 30
0.0
  0
SEQEND
  5
550
100
AcDbEntity
  8
TG
  6
CONTINUO
 62
     7
  0
ENDBLK
  5
551
100
AcDbEntity
  8
0
100
AcDbBlockEnd
  0
BLOCK
  5
554
100
AcDbEntity
  8
0
100
AcDbBlockBegin
  2
1E29EF0
 70
     0
 10
0.0
 20
0.0
 30
0.0
  3
1E29EF0
  1

  0
POLYLINE
  5
555
100
AcDbEntity
  8
TG
  6
CONTINUO
 62
     7
100
AcDb2dPolyline
 66
     1
 10
0.0
 20
0.0
 30
0.0
  0
VERTEX
  5
556
100
AcDbEntity
  8
TG
  6
CONTINUO
 62
     7
100
AcDbVertex
100
AcDb2dVertex
 10
516.194444
 20
115.735
 30
2.68
  0
VERTEX
  5
557
100
AcDbEntity
  8
TG
  6
CONTINUO
 62
     7
100
AcDbVertex
100
AcDb2dVertex
 10
518.804444
 20
119.365
 30
3.406
  0
VERTEX
  5
558
100
AcDbEntity
  8
TG
  6
CONTINUO
 62
     7
100
AcDbVertex
100
AcDb2dVertex
 10
522.719444
 20
122.465
 30
4.026
  0
VERTEX
  5
559
100
AcDbEntity
  8
TG
  6
CONTINUO
 62
     7
100
AcDbVertex
100
AcDb2dVertex
 10
527.209444
 20
124.99
 30
4.531
  0
VERTEX
  5
55A
100
AcDbEntity
  8
TG
  6
CONTINUO
 62
     7
100
AcDbVertex
100
AcDb2dVertex
 10
530.724444
 20
127.87
 30
5.107
  0
VERTEX
  5
55B
100
AcDbEntity
  8
TG
  6
CONTINUO
 62
     7
100
AcDbVertex
100
AcDb2dVertex
 10
531.969444
 20
127.855
 30
5.104
  0
VERTEX
  5
55C
100
AcDbEntity
  8
TG
  6
CONTINUO
 62
     7
100
AcDbVertex
100
AcDb2dVertex
 10
533.224444
 20
127.515
 30
5.036
  0
VERTEX
  5
55D
100
AcDbEntity
  8
TG
  6
CONTINUO
 62
     7
100
AcDbVertex
100
AcDb2dVertex
 10
535.499444
 20
126.08
 30
4.749
  0
VERTEX
  5
55E
100
AcDbEntity
  8
TG
  6
CONTINUO
 62
     7
100
AcDbVertex
100
AcDb2dVertex
 10
540.054444
 20
126.13
 30
4.759
  0
VERTEX
  5
55F
100
AcDbEntity
  8
TG
  6
CONTINUO
 62
     7
100
AcDbVertex
100
AcDb2dVertex
 10
547.539444
 20
126.11
 30
4.755
  0
VERTEX
  5
560
100
AcDbEntity
  8
TG
  6
CONTINUO
 62
     7
100
AcDbVertex
100
AcDb2dVertex
 10
553.169444
 20
125.89
 30
4.711
  0
VERTEX
  5
561
100
AcDbEntity
  8
TG
  6
CONTINUO
 62
     7
100
AcDbVertex
100
AcDb2dVertex
 10
559.459444
 20
125.785
 30
4.69
  0
VERTEX
  5
562
100
AcDbEntity
  8
TG
  6
CONTINUO
 62
     7
100
AcDbVertex
100
AcDb2dVertex
 10
561.409444
 20
126.285
 30
4.79
  0
VERTEX
  5
563
100
AcDbEntity
  8
TG
  6
CONTINUO
 62
     7
100
AcDbVertex
100
AcDb2dVertex
 10
562.144444
 20
126.47
 30
4.827
  0
VERTEX
  5
564
100
AcDbEntity
  8
TG
  6
CONTINUO
 62
     7
100
AcDbVertex
100
AcDb2dVertex
 10
563.599444
 20
126.51
 30
4.835
  0
VERTEX
  5
565
100
AcDbEntity
  8
TG
  6
CONTINUO
 62
     7
100
AcDbVertex
100
AcDb2dVertex
 10
566.174444
 20
126.54
 30
4.841
  0
VERTEX
  5
566
100
AcDbEntity
  8
TG
  6
CONTINUO
 62
     7
100
AcDbVertex
100
AcDb2dVertex
 10
575.629444
 20
126.68
 30
4.869
  0
VERTEX
  5
567
100
AcDbEntity
  8
TG
  6
CONTINUO
 62
     7
100
AcDbVertex
100
AcDb2dVertex
 10
576.449444
 20
126.67
 30
4.867
  0
VERTEX
  5
568
100
AcDbEntity
  8
TG
  6
CONTINUO
 62
     7
100
AcDbVertex
100
AcDb2dVertex
 10
581.744444
 20
126.59
 30
4.851
  0
VERTEX
  5
569
100
AcDbEntity
  8
TG
  6
CONTINUO
 62
     7
100
AcDbVertex
100
AcDb2dVertex
 10
594.584444
 20
125.61
 30
4.655
  0
VERTEX
  5
56A
100
AcDbEntity
  8
TG
  6
CONTINUO
 62
     7
100
AcDbVertex
100
AcDb2dVertex
 10
610.239444
 20
124.455
 30
4.424
  0
VERTEX
  5
56B
100
AcDbEntity
  8
TG
  6
CONTINUO
 62
     7
100
AcDbVertex
100
AcDb2dVertex
 10
611.294444
 20
124.91
 30
4.515
  0
SEQEND
  5
56C
100
AcDbEntity
  8
TG
  6
CONTINUO
 62
     7
  0
POLYLINE
  5
56D
100
AcDbEntity
  8
TG
  6
CONTINUO
 62
     3
100
AcDb2dPolyline
 66
     1
 10
0.0
 20
0.0
 30
0.0
  0
VERTEX
  5
56E
100
AcDbEntity
  8
TG
  6
CONTINUO
 62
     3
100
AcDbVertex
100
AcDb2dVertex
 10
558.949444
 20
125.795
 30
4.692
  0
VERTEX
  5
56F
100
AcDbEntity
  8
TG
  6
CONTINUO
 62
     3
100
AcDbVertex
100
AcDb2dVertex
 10
558.949444
 20
124.7
 30
4.473
  0
VERTEX
  5
570
100
AcDbEntity
  8
TG
  6
CONTINUO
 62
     3
100
AcDbVertex
100
AcDb2dVertex
 10
558.949444
 20
124.7
 30
4.473
  0
VERTEX
  5
571
100
AcDbEntity
  8
TG
  6
CONTINUO
 62
     3
100
AcDbVertex
100
AcDb2dVertex
 10
578.949444
 20
124.9
 30
4.513
  0
VERTEX
  5
572
100
AcDbEntity
  8
TG
  6
CONTINUO
 62
     3
100
AcDbVertex
100
AcDb2dVertex
 10
598.949444
 20
125.1
 30
4.553
  0
VERTEX
  5
573
100
AcDbEntity
  8
TG
  6
CONTINUO
 62
     3
100
AcDbVertex
100
AcDb2dVertex
 10
598.949444
 20
125.1
 30
4.553
  0
VERTEX
  5
574
100
AcDbEntity
  8
TG
  6
CONTINUO
 62
     3
100
AcDbVertex
100
AcDb2dVertex
 10
599.068944
 20
125.28
 30
4.589
  0
SEQEND
  5
575
100
AcDbEntity
  8
TG
  6
CONTINUO
 62
     3
  0
POLYLINE
  5
576
100
AcDbEntity
  8
TG
  6
CONTINUO
 62
     7
100
AcDb2dPolyline
 66
     1
 10
0.0
 20
0.0
 30
0.0
  0
VERTEX
  5
577
100
AcDbEntity
  8
TG
  6
CONTINUO
 62
     7
100
AcDbVertex
100
AcDb2dVertex
 10
576.449444
 20
102.335
 30
0.0
  0
VERTEX
  5
578
100
AcDbEntity
  8
TG
  6
CONTINUO
 62
     7
100
AcDbVertex
100
AcDb2dVertex
 10
576.449444
 20
127.87
 30
0.0
  0
SEQEND
  5
579
100
AcDbEntity
  8
TG
  6
CONTINUO
 62
     7
  0
TEXT
  5
57A
100
AcDbEntity
  8
TG
 62
     7
100
AcDbText
 10
565.235556
 20
128.37
 30
0.0
 40
1.5
  1
Cota do projeto: 4.663
 41
0.67963
  7
SIMPLEX
 72
     5
 11
587.663333
 21
128.37
 31
0.0
100
AcDbText
  0
TEXT
  5
57B
100
AcDbEntity
  8
TG
 62
     7
100
AcDbText
 10
565.174444
 20
130.62
 30
0.0
 40
1.5
  1
Cota do terreno: 4.867
 41
0.683333
  7
SIMPLEX
 72
     5
 11
587.724444
 21
130.62
 31
0.0
100
AcDbText
  0
TEXT
  5
57C
100
AcDbEntity
  8
TG
 62
     7
100
AcDbText
 10
569.238333
 20
132.87
 30
0.0
 40
1.5
  1
Estaca: 0+220
 41
0.739601
  7
SIMPLEX
 72
     5
 11
583.660556
 21
132.87
 31
0.0
100
AcDbText
  0
POLYLINE
  5
57D
100
AcDbEntity
  8
TG
  6
CONTINUO
 62
     7
100
AcDb2dPolyline
 66
     1
 10
0.0
 20
0.0
 30
0.0
  0
VERTEX
  5
57E
100
AcDbEntity
  8
TG
  6
CONTINUO
 62
     7
100
AcDbVertex
100
AcDb2dVertex
 10
516.194444
 20
102.335
 30
0.0
  0
VERTEX
  5
57F
100
AcDbEntity
  8
TG
  6
CONTINUO
 62
     7
100
AcDbVertex
100
AcDb2dVertex
 10
516.194444
 20
127.87
 30
0.0
  0
SEQEND
  5
580
100
AcDbEntity
  8
TG
  6
CONTINUO
 62
     7
  0
POLYLINE
  5
581
100
AcDbEntity
  8
TG
  6
CONTINUO
 62
     7
100
AcDb2dPolyline
 66
     1
 10
0.0
 20
0.0
 30
0.0
  0
VERTEX
  5
582
100
AcDbEntity
  8
TG
  6
CONTINUO
 62
     7
100
AcDbVertex
100
AcDb2dVertex
 10
516.194444
 20
102.335
 30
0.0
  0
VERTEX
  5
583
100
AcDbEntity
  8
TG
  6
CONTINUO
 62
     7
100
AcDbVertex
100
AcDb2dVertex
 10
611.294444
 20
102.335
 30
0.0
  0
SEQEND
  5
584
100
AcDbEntity
  8
TG
  6
CONTINUO
 62
     7
  0
TEXT
  5
585
100
AcDbEntity
  8
TG
 62
     7
100
AcDbText
 10
506.194444
 20
102.835
 30
0.0
 40
1.5
  1
0
 41
0.814815
  7
SIMPLEX
 72
     5
 11
507.416667
 21
102.835
 31
0.0
100
AcDbText
  0
POLYLINE
  5
586
100
AcDbEntity
  8
TG
  6
CONTINUO
 62
     7
100
AcDb2dPolyline
 66
     1
 10
0.0
 20
0.0
 30
0.0
  0
VERTEX
  5
587
100
AcDbEntity
  8
TG
  6
CONTINUO
 62
     7
100
AcDbVertex
100
AcDb2dVertex
 10
506.194444
 20
102.335
 30
0.0
  0
VERTEX
  5
588
100
AcDbEntity
  8
TG
  6
CONTINUO
 62
     7
100
AcDbVertex
100
AcDb2dVertex
 10
516.194444
 20
102.335
 30
0.0
  0
SEQEND
  5
589
100
AcDbEntity
  8
TG
  6
CONTINUO
 62
     7
  0
POLYLINE
  5
58A
100
AcDbEntity
  8
TG
  6
CONTINUO
 62
     7
100
AcDb2dPolyline
 66
     1
 10
0.0
 20
0.0
 30
0.0
  0
VERTEX
  5
58B
100
AcDbEntity
  8
TG
  6
CONTINUO
 62
     7
100
AcDbVertex
100
AcDb2dVertex
 10
511.194444
 20
112.335
 30
0.0
  0
VERTEX
  5
58C
100
AcDbEntity
  8
TG
  6
CONTINUO
 62
     7
100
AcDbVertex
100
AcDb2dVertex
 10
516.194444
 20
112.335
 30
0.0
  0
SEQEND
  5
58D
100
AcDbEntity
  8
TG
  6
CONTINUO
 62
     7
  0
POLYLINE
  5
58E
100
AcDbEntity
  8
TG
  6
CONTINUO
 62
     7
100
AcDb2dPolyline
 66
     1
 10
0.0
 20
0.0
 30
0.0
  0
VERTEX
  5
58F
100
AcDbEntity
  8
TG
  6
CONTINUO
 62
     7
100
AcDbVertex
100
AcDb2dVertex
 10
511.194444
 20
122.335
 30
0.0
  0
VERTEX
  5
590
100
AcDbEntity
  8
TG
  6
CONTINUO
 62
     7
100
AcDbVertex
100
AcDb2dVertex
 10
516.194444
 20
122.335
 30
0.0
  0
SEQEND
  5
591
100
AcDbEntity
  8
TG
  6
CONTINUO
 62
     7
  0
POLYLINE
  5
592
100
AcDbEntity
  8
TG
  6
CONTINUO
 62
     7
100
AcDb2dPolyline
 66
     1
 10
0.0
 20
0.0
 30
0.0
  0
VERTEX
  5
593
100
AcDbEntity
  8
TG
  6
CONTINUO
 62
     7
100
AcDbVertex
100
AcDb2dVertex
 10
516.449444
 20
99.835
 30
0.0
  0
VERTEX
  5
594
100
AcDbEntity
  8
TG
  6
CONTINUO
 62
     7
100
AcDbVertex
100
AcDb2dVertex
 10
516.449444
 20
102.335
 30
0.0
  0
SEQEND
  5
595
100
AcDbEntity
  8
TG
  6
CONTINUO
 62
     7
  0
POLYLINE
  5
596
100
AcDbEntity
  8
TG
  6
CONTINUO
 62
     7
100
AcDb2dPolyline
 66
     1
 10
0.0
 20
0.0
 30
0.0
  0
VERTEX
  5
597
100
AcDbEntity
  8
TG
  6
CONTINUO
 62
     7
100
AcDbVertex
100
AcDb2dVertex
 10
526.449444
 20
97.335
 30
0.0
  0
VERTEX
  5
598
100
AcDbEntity
  8
TG
  6
CONTINUO
 62
     7
100
AcDbVertex
100
AcDb2dVertex
 10
526.449444
 20
102.335
 30
0.0
  0
SEQEND
  5
599
100
AcDbEntity
  8
TG
  6
CONTINUO
 62
     7
  0
TEXT
  5
59A
100
AcDbEntity
  8
TG
 62
     7
100
AcDbText
 10
525.227222
 20
95.335
 30
0.0
 40
1.5
  1
10
 41
0.814815
  7
SIMPLEX
 72
     5
 11
527.671667
 21
95.335
 31
0.0
100
AcDbText
  0
POLYLINE
  5
59B
100
AcDbEntity
  8
TG
  6
CONTINUO
 62
     7
100
AcDb2dPolyline
 66
     1
 10
0.0
 20
0.0
 30
0.0
  0
VERTEX
  5
59C
100
AcDbEntity
  8
TG
  6
CONTINUO
 62
     7
100
AcDbVertex
100
AcDb2dVertex
 10
536.449444
 20
99.835
 30
0.0
  0
VERTEX
  5
59D
100
AcDbEntity
  8
TG
  6
CONTINUO
 62
     7
100
AcDbVertex
100
AcDb2dVertex
 10
536.449444
 20
102.335
 30
0.0
  0
SEQEND
  5
59E
100
AcDbEntity
  8
TG
  6
CONTINUO
 62
     7
  0
POLYLINE
  5
59F
100
AcDbEntity
  8
TG
  6
CONTINUO
 62
     7
100
AcDb2dPolyline
 66
     1
 10
0.0
 20
0.0
 30
0.0
  0
VERTEX
  5
5A0
100
AcDbEntity
  8
TG
  6
CONTINUO
 62
     7
100
AcDbVertex
100
AcDb2dVertex
 10
546.449444
 20
99.835
 30
0.0
  0
VERTEX
  5
5A1
100
AcDbEntity
  8
TG
  6
CONTINUO
 62
     7
100
AcDbVertex
100
AcDb2dVertex
 10
546.449444
 20
102.335
 30
0.0
  0
SEQEND
  5
5A2
100
AcDbEntity
  8
TG
  6
CONTINUO
 62
     7
  0
POLYLINE
  5
5A3
100
AcDbEntity
  8
TG
  6
CONTINUO
 62
     7
100
AcDb2dPolyline
 66
     1
 10
0.0
 20
0.0
 30
0.0
  0
VERTEX
  5
5A4
100
AcDbEntity
  8
TG
  6
CONTINUO
 62
     7
100
AcDbVertex
100
AcDb2dVertex
 10
556.449444
 20
99.835
 30
0.0
  0
VERTEX
  5
5A5
100
AcDbEntity
  8
TG
  6
CONTINUO
 62
     7
100
AcDbVertex
100
AcDb2dVertex
 10
556.449444
 20
102.335
 30
0.0
  0
SEQEND
  5
5A6
100
AcDbEntity
  8
TG
  6
CONTINUO
 62
     7
  0
POLYLINE
  5
5A7
100
AcDbEntity
  8
TG
  6
CONTINUO
 62
     7
100
AcDb2dPolyline
 66
     1
 10
0.0
 20
0.0
 30
0.0
  0
VERTEX
  5
5A8
100
AcDbEntity
  8
TG
  6
CONTINUO
 62
     7
100
AcDbVertex
100
AcDb2dVertex
 10
566.449444
 20
99.835
 30
0.0
  0
VERTEX
  5
5A9
100
AcDbEntity
  8
TG
  6
CONTINUO
 62
     7
100
AcDbVertex
100
AcDb2dVertex
 10
566.449444
 20
102.335
 30
0.0
  0
SEQEND
  5
5AA
100
AcDbEntity
  8
TG
  6
CONTINUO
 62
     7
  0
TEXT
  5
5AB
100
AcDbEntity
  8
TG
 62
     7
100
AcDbText
 10
575.838333
 20
97.835
 30
0.0
 40
1.5
  1
0
 41
0.814815
  7
SIMPLEX
 72
     5
 11
577.060556
 21
97.835
 31
0.0
100
AcDbText
  0
POLYLINE
  5
5AC
100
AcDbEntity
  8
TG
  6
CONTINUO
 62
     7
100
AcDb2dPolyline
 66
     1
 10
0.0
 20
0.0
 30
0.0
  0
VERTEX
  5
5AD
100
AcDbEntity
  8
TG
  6
CONTINUO
 62
     7
100
AcDbVertex
100
AcDb2dVertex
 10
586.449444
 20
99.835
 30
0.0
  0
VERTEX
  5
5AE
100
AcDbEntity
  8
TG
  6
CONTINUO
 62
     7
100
AcDbVertex
100
AcDb2dVertex
 10
586.449444
 20
102.335
 30
0.0
  0
SEQEND
  5
5AF
100
AcDbEntity
  8
TG
  6
CONTINUO
 62
     7
  0
POLYLINE
  5
5B0
100
AcDbEntity
  8
TG
  6
CONTINUO
 62
     7
100
AcDb2dPolyline
 66
     1
 10
0.0
 20
0.0
 30
0.0
  0
VERTEX
  5
5B1
100
AcDbEntity
  8
TG
  6
CONTINUO
 62
     7
100
AcDbVertex
100
AcDb2dVertex
 10
596.449444
 20
99.835
 30
0.0
  0
VERTEX
  5
5B2
100
AcDbEntity
  8
TG
  6
CONTINUO
 62
     7
100
AcDbVertex
100
AcDb2dVertex
 10
596.449444
 20
102.335
 30
0.0
  0
SEQEND
  5
5B3
100
AcDbEntity
  8
TG
  6
CONTINUO
 62
     7
  0
POLYLINE
  5
5B4
100
AcDbEntity
  8
TG
  6
CONTINUO
 62
     7
100
AcDb2dPolyline
 66
     1
 10
0.0
 20
0.0
 30
0.0
  0
VERTEX
  5
5B5
100
AcDbEntity
  8
TG
  6
CONTINUO
 62
     7
100
AcDbVertex
100
AcDb2dVertex
 10
606.449444
 20
99.835
 30
0.0
  0
VERTEX
  5
5B6
100
AcDbEntity
  8
TG
  6
CONTINUO
 62
     7
100
AcDbVertex
100
AcDb2dVertex
 10
606.449444
 20
102.335
 30
0.0
  0
SEQEND
  5
5B7
100
AcDbEntity
  8
TG
  6
CONTINUO
 62
     7
  0
ENDBLK
  5
5B8
100
AcDbEntity
  8
0
100
AcDbBlockEnd
  0
ENDSEC
  0
SECTION
  2
ENTITIES
  0
INSERT
  5
274
100
AcDbEntity
  8
TG
 62
   255
100
AcDbBlockReference
  2
1E465F0
 10
0.0
 20
0.0
 30
0.0
  0
INSERT
  5
2BA
100
AcDbEntity
  8
TG
 62
   255
100
AcDbBlockReference
  2
1E4BAF0
 10
0.0
 20
0.0
 30
0.0
  0
INSERT
  5
300
100
AcDbEntity
  8
TG
 62
   255
100
AcDbBlockReference
  2
1E48B50
 10
0.0
 20
0.0
 30
0.0
  0
INSERT
  5
34B
100
AcDbEntity
  8
TG
 62
   255
100
AcDbBlockReference
  2
1DB4B20
 10
0.0
 20
0.0
 30
0.0
  0
INSERT
  5
39A
100
AcDbEntity
  8
TG
 62
   255
100
AcDbBlockReference
  2
1E53D70
 10
0.0
 20
0.0
 30
0.0
  0
INSERT
  5
3E0
100
AcDbEntity
  8
TG
 62
   255
100
AcDbBlockReference
  2
1E50940
 10
0.0
 20
0.0
 30
0.0
  0
INSERT
  5
429
100
AcDbEntity
  8
TG
 62
   255
100
AcDbBlockReference
  2
26A6D90
 10
0.0
 20
0.0
 30
0.0
  0
INSERT
  5
488
100
AcDbEntity
  8
TG
 62
   255
100
AcDbBlockReference
  2
26A4930
 10
0.0
 20
0.0
 30
0.0
  0
INSERT
  5
4CA
100
AcDbEntity
  8
TG
 62
   255
100
AcDbBlockReference
  2
26D2EF0
 10
0.0
 20
0.0
 30
0.0
  0
INSERT
  5
50C
100
AcDbEntity
  8
TG
 62
   255
100
AcDbBlockReference
  2
26D4B50
 10
0.0
 20
0.0
 30
0.0
  0
INSERT
  5
552
100
AcDbEntity
  8
TG
 62
   255
100
AcDbBlockReference
  2
1E29CE0
 10
0.0
 20
0.0
 30
0.0
  0
INSERT
  5
5B9
100
AcDbEntity
  8
TG
 62
   255
100
AcDbBlockReference
  2
1E29EF0
 10
0.0
 20
0.0
 30
0.0
  0
ENDSEC
  0
SECTION
  2
OBJECTS
  0
DICTIONARY
  5
19
100
AcDbDictionary
  3
ACAD_GROUP
350
1A
  3
ACAD_MLINESTYLE
350
1B
  0
DICTIONARY
  5
1A
102
{ACAD_REACTORS
330
19
102
}
100
AcDbDictionary
  0
DICTIONARY
  5
1B
102
{ACAD_REACTORS
330
19
102
}
100
AcDbDictionary
  3
STANDARD
350
1C
  0
MLINESTYLE
  5
1C
102
{ACAD_REACTORS
330
1B
102
}
100
AcDbMlineStyle
  2
STANDARD
 70
     0
  3

 62
     0
 51
90.0
 52
90.0
 71
     2
 49
0.5
 62
   256
  6
BYLAYER
 49
-0.5
 62
   256
  6
BYLAYER
  0
ENDSEC
  0
EOF
