  0
SECTION
  2
HEADER
  9
$ACADVER
  1
AC1014
  9
$ACADMAINTVER
 70
     0
  9
$DWGCODEPAGE
  3
ANSI_1252
  9
$INSBASE
 10
0.0
 20
0.0
 30
0.0
  9
$EXTMIN
 10
190136.271024
 20
1679358.917788
 30
0.0
  9
$EXTMAX
 10
190587.563478
 20
1679647.017531
 30
0.0
  9
$LIMMIN
 10
0.0
 20
0.0
  9
$LIMMAX
 10
0.0
 20
0.0
  9
$ORTHOMODE
 70
     0
  9
$REGENMODE
 70
     1
  9
$FILLMODE
 70
     1
  9
$QTEXTMODE
 70
     0
  9
$MIRRTEXT
 70
     1
  9
$DRAGMODE
 70
     2
  9
$LTSCALE
 40
1.0
  9
$OSMODE
 70
     0
  9
$ATTMODE
 70
     1
  9
$TEXTSIZE
 40
0.2
  9
$TRACEWID
 40
0.05
  9
$TEXTSTYLE
  7
STANDARD
  9
$CLAYER
  8
0
  9
$CELTYPE
  6
CONTINUOUS
  9
$CECOLOR
 62
   256
  9
$CELTSCALE
 40
1.0
  9
$DELOBJ
 70
     1
  9
$DISPSILH
 70
     0
  9
$DIMSCALE
 40
1.0
  9
$DIMASZ
 40
0.18
  9
$DIMEXO
 40
0.0625
  9
$DIMDLI
 40
0.38
  9
$DIMRND
 40
0.0
  9
$DIMDLE
 40
0.0
  9
$DIMEXE
 40
0.18
  9
$DIMTP
 40
0.0
  9
$DIMTM
 40
0.0
  9
$DIMTXT
 40
0.18
  9
$DIMCEN
 40
0.09
  9
$DIMTSZ
 40
0.0
  9
$DIMTOL
 70
     0
  9
$DIMLIM
 70
     0
  9
$DIMTIH
 70
     1
  9
$DIMTOH
 70
     1
  9
$DIMSE1
 70
     0
  9
$DIMSE2
 70
     0
  9
$DIMTAD
 70
     0
  9
$DIMZIN
 70
     0
  9
$DIMBLK
  1

  9
$DIMASO
 70
     1
  9
$DIMSHO
 70
     1
  9
$DIMPOST
  1

  9
$DIMAPOST
  1

  9
$DIMALT
 70
     0
  9
$DIMALTD
 70
     2
  9
$DIMALTF
 40
25.4
  9
$DIMLFAC
 40
1.0
  9
$DIMTOFL
 70
     0
  9
$DIMTVP
 40
0.0
  9
$DIMTIX
 70
     0
  9
$DIMSOXD
 70
     0
  9
$DIMSAH
 70
     0
  9
$DIMBLK1
  1

  9
$DIMBLK2
  1

  9
$DIMSTYLE
  2
STANDARD
  9
$DIMCLRD
 70
     0
  9
$DIMCLRE
 70
     0
  9
$DIMCLRT
 70
     0
  9
$DIMTFAC
 40
1.0
  9
$DIMGAP
 40
0.09
  9
$DIMJUST
 70
     0
  9
$DIMSD1
 70
     0
  9
$DIMSD2
 70
     0
  9
$DIMTOLJ
 70
     1
  9
$DIMTZIN
 70
     0
  9
$DIMALTZ
 70
     0
  9
$DIMALTTZ
 70
     0
  9
$DIMFIT
 70
     3
  9
$DIMUPT
 70
     0
  9
$DIMUNIT
 70
     2
  9
$DIMDEC
 70
     4
  9
$DIMTDEC
 70
     4
  9
$DIMALTU
 70
     2
  9
$DIMALTTD
 70
     2
  9
$DIMTXSTY
  7
STANDARD
  9
$DIMAUNIT
 70
     0
  9
$LUNITS
 70
     2
  9
$LUPREC
 70
     4
  9
$SKETCHINC
 40
0.1
  9
$FILLETRAD
 40
0.0
  9
$AUNITS
 70
     0
  9
$AUPREC
 70
     0
  9
$MENU
  1
acad
  9
$ELEVATION
 40
0.0
  9
$PELEVATION
 40
0.0
  9
$THICKNESS
 40
0.0
  9
$LIMCHECK
 70
     0
  9
$BLIPMODE
 70
     1
  9
$CHAMFERA
 40
0.0
  9
$CHAMFERB
 40
0.0
  9
$CHAMFERC
 40
0.0
  9
$CHAMFERD
 40
0.0
  9
$SKPOLY
 70
     0
  9
$TDCREATE
 40
0.000000000
  9
$TDUPDATE
 40
0.000000000
  9
$TDINDWG
 40
0.0000000000
  9
$TDUSRTIMER
 40
0.0000000000
  9
$USRTIMER
 70
     1
  9
$ANGBASE
 50
0.0
  9
$ANGDIR
 70
     0
  9
$PDMODE
 70
     0
  9
$PDSIZE
 40
0.0
  9
$PLINEWID
 40
0.0
  9
$COORDS
 70
     0
  9
$SPLFRAME
 70
     0
  9
$SPLINETYPE
 70
     6
  9
$SPLINESEGS
 70
     8
  9
$ATTDIA
 70
     0
  9
$ATTREQ
 70
     1
  9
$HANDLING
 70
     1
  9
$HANDSEED
  5
153
  9
$SURFTAB1
 70
     6
  9
$SURFTAB2
 70
     6
  9
$SURFTYPE
 70
     6
  9
$SURFU
 70
     6
  9
$SURFV
 70
     6
  9
$UCSNAME
  2

  9
$UCSORG
 10
0.0
 20
0.0
 30
0.0
  9
$UCSXDIR
 10
1.0
 20
0.0
 30
0.0
  9
$UCSYDIR
 10
0.0
 20
1.0
 30
0.0
  9
$PUCSNAME
  2

  9
$PUCSORG
 10
0.0
 20
0.0
 30
0.0
  9
$PUCSXDIR
 10
1.0
 20
0.0
 30
0.0
  9
$PUCSYDIR
 10
0.0
 20
1.0
 30
0.0
  9
$USERI1
 70
     0
  9
$USERI2
 70
     0
  9
$USERI3
 70
     0
  9
$USERI4
 70
     0
  9
$USERI5
 70
     0
  9
$USERR1
 40
0.0
  9
$USERR2
 40
0.0
  9
$USERR3
 40
0.0
  9
$USERR4
 40
0.0
  9
$USERR5
 40
0.0
  9
$WORLDVIEW
 70
     1
  9
$SHADEDGE
 70
     3
  9
$SHADEDIF
 70
    70
  9
$TILEMODE
 70
     1
  9
$MAXACTVP
 70
    16
  9
$PINSBASE
 10
0.0
 20
0.0
 30
0.0
  9
$PLIMCHECK
 70
     0
  9
$PEXTMIN
 10
1.000000E+20
 20
1.000000E+20
 30
1.000000E+20
  9
$PEXTMAX
 10
-1.000000E+20
 20
-1.000000E+20
 30
-1.000000E+20
  9
$PLIMMIN
 10
0.0
 20
0.0
  9
$PLIMMAX
 10
12.0
 20
9.0
  9
$UNITMODE
 70
     0
  9
$VISRETAIN
 70
     0
  9
$PLINEGEN
 70
     1
  9
$PSLTSCALE
 70
     0
  9
$TREEDEPTH
 70
  3020
  9
$PICKSTYLE
 70
     1
  9
$CMLSTYLE
  2
STANDARD
  9
$CMLJUST
 70
     0
  9
$CMLSCALE
 40
1.0
  9
$PROXYGRAPHICS
 70
     0
  9
$MEASUREMENT
 70
     0
  0
ENDSEC
  0
SECTION
  2
CLASSES
  0
CLASS
  1
LWPOLYLINE
  2
AcDbPolyline
  3
"AutoCAD"
 90
        0
280
     0
281
     1
  0
CLASS
  1
IMAGE
  2
AcDbRasterImage
  3
ISM
 90
      127
280
     0
281
     1
  0
CLASS
  1
OLE2FRAME
  2
AcDbOle2Frame
  3
""
 90
        0
280
     0
281
     1
  0
CLASS
  1
HATCH
  2
AcDbHatch
  3
"ACAD_SEDONA"
 90
        0
280
     0
281
     1
  0
CLASS
  1
DICTIONARYVAR
  2
AcDbDictionaryVar
  3
"AutoCAD"
 90
        0
280
     0
281
     0
  0
CLASS
  1
RASTERVARIABLES
  2
AcDbRasterVariables
  3
ISM
 90
        0
280
     0
281
     0
  0
CLASS
  1
IMAGEDEF
  2
AcDbRasterImageDef
  3
ISM
 90
        0
280
     0
281
     0
  0
CLASS
  1
IMAGEDEF_REACTOR
  2
AcDbRasterImageDefReactor
  3
ISM
 90
        1
280
     0
281
     0
  0
CLASS
  1
IDBUFFER
  2
AcDbIdBuffer
  3
"Acad"
 90
        0
280
     0
281
     0
  0
CLASS
  1
SPATIAL_FILTER
  2
AcDbSpatialFilter
  3
"Acad"
 90
        0
280
     0
281
     0
  0
CLASS
  1
XRECORD
  2
AcDbXrecord
  3
"<Built In>"
 90
        0
280
     0
281
     0
  0
CLASS
  1
SORTENTSTABLE
  2
AcDbSortentsTable
  3
"AutoCAD"
 90
        0
280
     0
281
     0
  0
CLASS
  1
LAYER_INDEX
  2
AcDbLayerIndex
  3
"Acad"
 90
        0
280
     0
281
     0
  0
CLASS
  1
SPATIAL_INDEX
  2
AcDbSpatialIndex
  3
"Acad"
 90
        0
280
     0
281
     0
  0
CLASS
  1
OBJECT_PTR
  2
CAseDLPNTableRecord
  3
"ASE-LPNTableRecord"
 90
        1
280
     0
281
     0
  0
ENDSEC
  0
SECTION
  2
TABLES
  0
TABLE
  2
VPORT
  5
7
100
AcDbSymbolTable
 70
     1
  0
VPORT
  5
15
100
AcDbSymbolTableRecord
100
AcDbViewportTableRecord
  2
*ACTIVE
 70
     0
 10
0.0
 20
0.0
 11
1.0
 21
1.0
 12
6.591288
 22
4.579184
 13
0.0
 23
0.0
 14
1.0
 24
1.0
 15
0.0
 25
0.0
 16
0.0
 26
0.0
 36
1.0
 17
0.0
 27
0.0
 37
0.0
 40
9.158369
 41
0.688564
 42
50.0
 43
0.0
 44
0.0
 50
0.0
 51
0.0
 71
     0
 72
   100
 73
     1
 74
     1
 75
     0
 76
     0
 77
     0
 78
     0
  0
ENDTAB
  0
TABLE
  2
LTYPE
  5
4
100
AcDbSymbolTable
 70
    10
  0
LTYPE
  5
11
100
AcDbSymbolTableRecord
100
AcDbLinetypeTableRecord
  2
BYBLOCK
 70
     0
  3

 72
    65
 73
     0
 40
0.0
  0
LTYPE
  5
12
100
AcDbSymbolTableRecord
100
AcDbLinetypeTableRecord
  2
BYLAYER
 70
     0
  3

 72
    65
 73
     0
 40
0.0
  0
LTYPE
  5
13
100
AcDbSymbolTableRecord
100
AcDbLinetypeTableRecord
  2
CONTINUOUS
 70
     0
  3
Solid line
 72
    65
 73
     0
 40
0.0
  0
LTYPE
  5
1D
100
AcDbSymbolTableRecord
100
AcDbLinetypeTableRecord
  2
TRACEJADO
 70
     0
  3
topoGRAPH
 72
    65
 73
     2
 40
4.35
 49
4.0
 74
     0
 49
-0.35
 74
     0
  0
LTYPE
  5
1E
100
AcDbSymbolTableRecord
100
AcDbLinetypeTableRecord
  2
TRACO-PONTO
 70
     0
  3
topoGRAPH
 72
    65
 73
     4
 40
4.7
 49
4.0
 74
     0
 49
-0.35
 74
     0
 49
0.0
 74
     0
 49
-0.35
 74
     0
  0
LTYPE
  5
1F
100
AcDbSymbolTableRecord
100
AcDbLinetypeTableRecord
  2
CERCA
 70
     0
  3
topoGRAPH
 72
    65
 73
     4
 40
4.7
 49
4.0
 74
     0
 49
-0.35
 74
     0
 49
0.0
 74
     0
 49
-0.35
 74
     0
  0
LTYPE
  5
20
100
AcDbSymbolTableRecord
100
AcDbLinetypeTableRecord
  2
PONTILHADO
 70
     0
  3
topoGRAPH
 72
    65
 73
     2
 40
0.5
 49
0.0
 74
     0
 49
-0.5
 74
     0
  0
LTYPE
  5
21
100
AcDbSymbolTableRecord
100
AcDbLinetypeTableRecord
  2
CERCA_VIVA
 70
     0
  3
topoGRAPH
 72
    65
 73
     4
 40
4.7
 49
4.0
 74
     0
 49
-0.35
 74
     0
 49
0.0
 74
     0
 49
-0.35
 74
     0
  0
LTYPE
  5
22
100
AcDbSymbolTableRecord
100
AcDbLinetypeTableRecord
  2
TAPUME
 70
     0
  3
topoGRAPH
 72
    65
 73
     4
 40
4.7
 49
4.0
 74
     0
 49
-0.35
 74
     0
 49
0.0
 74
     0
 49
-0.35
 74
     0
  0
LTYPE
  5
23
100
AcDbSymbolTableRecord
100
AcDbLinetypeTableRecord
  2
CONTINUO
 70
     0
  3
topoGRAPH
 72
    65
 73
     0
 40
0.0
  0
ENDTAB
  0
TABLE
  2
LAYER
  5
2
100
AcDbSymbolTable
 70
     3
  0
LAYER
  5
14
100
AcDbSymbolTableRecord
100
AcDbLayerTableRecord
  2
0
 70
     0
 62
     7
  6
CONTINUOUS
  0
LAYER
  5
33
100
AcDbSymbolTableRecord
100
AcDbLayerTableRecord
  2
TG
 70
     0
 62
     7
  6
CONTINUO
  0
LAYER
  5
AD
100
AcDbSymbolTableRecord
100
AcDbLayerTableRecord
  2
_TG
 70
     0
 62
     7
  6
CONTINUO
  0
ENDTAB
  0
TABLE
  2
STYLE
  5
3
100
AcDbSymbolTable
 70
    16
  0
STYLE
  5
17
100
AcDbSymbolTableRecord
100
AcDbTextStyleTableRecord
  2
STANDARD
 70
     0
 40
0.0
 41
1.0
 50
0.0
 71
     0
 42
0.0
  3
txt
  4

  0
STYLE
  5
24
100
AcDbSymbolTableRecord
100
AcDbTextStyleTableRecord
  2
TXT
 70
     0
 40
0.2
 41
1.0
 50
0.0
 71
     0
 42
0.2
  3
txt
  4

  0
STYLE
  5
25
100
AcDbSymbolTableRecord
100
AcDbTextStyleTableRecord
  2
MONOTXT
 70
     0
 40
0.2
 41
1.0
 50
0.0
 71
     0
 42
0.2
  3
monotxt
  4

  0
STYLE
  5
26
100
AcDbSymbolTableRecord
100
AcDbTextStyleTableRecord
  2
SIMPLEX
 70
     0
 40
0.2
 41
1.0
 50
0.0
 71
     0
 42
0.2
  3
simplex
  4

  0
STYLE
  5
27
100
AcDbSymbolTableRecord
100
AcDbTextStyleTableRecord
  2
COMPLEX
 70
     0
 40
0.2
 41
1.0
 50
0.0
 71
     0
 42
0.2
  3
complex
  4

  0
STYLE
  5
28
100
AcDbSymbolTableRecord
100
AcDbTextStyleTableRecord
  2
ROMANS
 70
     0
 40
0.2
 41
1.0
 50
0.0
 71
     0
 42
0.2
  3
romans
  4

  0
STYLE
  5
29
100
AcDbSymbolTableRecord
100
AcDbTextStyleTableRecord
  2
ROMAND
 70
     0
 40
0.2
 41
1.0
 50
0.0
 71
     0
 42
0.2
  3
romand
  4

  0
STYLE
  5
2A
100
AcDbSymbolTableRecord
100
AcDbTextStyleTableRecord
  2
ROMANC
 70
     0
 40
0.2
 41
1.0
 50
0.0
 71
     0
 42
0.2
  3
romanc
  4

  0
STYLE
  5
2B
100
AcDbSymbolTableRecord
100
AcDbTextStyleTableRecord
  2
ROMANT
 70
     0
 40
0.2
 41
1.0
 50
0.0
 71
     0
 42
0.2
  3
romant
  4

  0
STYLE
  5
2C
100
AcDbSymbolTableRecord
100
AcDbTextStyleTableRecord
  2
ITALIC
 70
     0
 40
0.2
 41
1.0
 50
0.0
 71
     0
 42
0.2
  3
italic
  4

  0
STYLE
  5
2D
100
AcDbSymbolTableRecord
100
AcDbTextStyleTableRecord
  2
ITALICC
 70
     0
 40
0.2
 41
1.0
 50
0.0
 71
     0
 42
0.2
  3
italicc
  4

  0
STYLE
  5
2E
100
AcDbSymbolTableRecord
100
AcDbTextStyleTableRecord
  2
ITALICT
 70
     0
 40
0.2
 41
1.0
 50
0.0
 71
     0
 42
0.2
  3
italict
  4

  0
STYLE
  5
2F
100
AcDbSymbolTableRecord
100
AcDbTextStyleTableRecord
  2
SCRIPTC
 70
     0
 40
0.2
 41
1.0
 50
0.0
 71
     0
 42
0.2
  3
scriptc
  4

  0
STYLE
  5
30
100
AcDbSymbolTableRecord
100
AcDbTextStyleTableRecord
  2
SCRIPTS
 70
     0
 40
0.2
 41
1.0
 50
0.0
 71
     0
 42
0.2
  3
scripts
  4

  0
STYLE
  5
31
100
AcDbSymbolTableRecord
100
AcDbTextStyleTableRecord
  2
GOTHICE
 70
     0
 40
0.2
 41
1.0
 50
0.0
 71
     0
 42
0.2
  3
gothice
  4

  0
STYLE
  5
32
100
AcDbSymbolTableRecord
100
AcDbTextStyleTableRecord
  2
GOTHICG
 70
     0
 40
0.2
 41
1.0
 50
0.0
 71
     0
 42
0.2
  3
gothicg
  4

  0
ENDTAB
  0
TABLE
  2
VIEW
  5
5
100
AcDbSymbolTable
 70
     0
  0
ENDTAB
  0
TABLE
  2
UCS
  5
6
100
AcDbSymbolTable
 70
     0
  0
ENDTAB
  0
TABLE
  2
APPID
  5
8
100
AcDbSymbolTable
 70
     1
  0
APPID
  5
16
100
AcDbSymbolTableRecord
100
AcDbRegAppTableRecord
  2
ACAD
 70
     0
  0
ENDTAB
  0
TABLE
  2
DIMSTYLE
  5
9
100
AcDbSymbolTable
 70
     1
  0
DIMSTYLE
105
18
100
AcDbSymbolTableRecord
100
AcDbDimStyleTableRecord
  2
STANDARD
 70
     0
  3

  4

  5

  6

  7

 40
1.0
 41
0.18
 42
0.0625
 43
0.38
 44
0.18
 45
0.0
 46
0.0
 47
0.0
 48
0.0
140
0.18
141
0.09
142
0.0
143
25.4
144
1.0
145
0.0
146
1.0
147
0.09
 71
     0
 72
     0
 73
     1
 74
     1
 75
     0
 76
     0
 77
     0
 78
     0
170
     0
171
     2
172
     0
173
     0
174
     0
175
     0
176
     0
177
     0
178
     0
270
     2
271
     4
272
     4
273
     2
274
     2
340
17
275
     0
280
     0
281
     0
282
     0
283
     1
284
     0
285
     0
286
     0
287
     0
288
     0
  0
ENDTAB
  0
TABLE
  2
BLOCK_RECORD
  5
1
100
AcDbSymbolTable
 70
    10
  0
BLOCK_RECORD
  5
A
100
AcDbSymbolTableRecord
100
AcDbBlockTableRecord
  2
*MODEL_SPACE
  0
BLOCK_RECORD
  5
B
100
AcDbSymbolTableRecord
100
AcDbBlockTableRecord
  2
*PAPER_SPACE
  0
BLOCK_RECORD
  5
34
100
AcDbSymbolTableRecord
100
AcDbBlockTableRecord
  2
SIMB_XIS
  0
BLOCK_RECORD
  5
42
100
AcDbSymbolTableRecord
100
AcDbBlockTableRecord
  2
SIMB_CIRCULO
  0
BLOCK_RECORD
  5
4A
100
AcDbSymbolTableRecord
100
AcDbBlockTableRecord
  2
SIMB_ARVORE
  0
BLOCK_RECORD
  5
56
100
AcDbSymbolTableRecord
100
AcDbBlockTableRecord
  2
SIMB_QUADRADO
  0
BLOCK_RECORD
  5
63
100
AcDbSymbolTableRecord
100
AcDbBlockTableRecord
  2
SIMB_BOLINHA
  0
BLOCK_RECORD
  5
6B
100
AcDbSymbolTableRecord
100
AcDbBlockTableRecord
  2
SIMB_CRUZETA
  0
BLOCK_RECORD
  5
79
100
AcDbSymbolTableRecord
100
AcDbBlockTableRecord
  2
SIMB_BARRAS
  0
BLOCK_RECORD
  5
88
100
AcDbSymbolTableRecord
100
AcDbBlockTableRecord
  2
SIMB_PONTO
  0
BLOCK_RECORD
  5
8F
100
AcDbSymbolTableRecord
100
AcDbBlockTableRecord
  2
SIMB_TRIANGULO
  0
BLOCK_RECORD
  5
9B
100
AcDbSymbolTableRecord
100
AcDbBlockTableRecord
  2
SIMB_POSTE
  0
ENDTAB
  0
ENDSEC
  0
SECTION
  2
BLOCKS
  0
BLOCK
  5
D
100
AcDbEntity
  8
0
100
AcDbBlockBegin
  2
*MODEL_SPACE
 70
     0
 10
0.0
 20
0.0
 30
0.0
  3
*MODEL_SPACE
  1

  0
ENDBLK
  5
E
100
AcDbEntity
  8
0
100
AcDbBlockEnd
  0
BLOCK
  5
F
100
AcDbEntity
 67
     1
  8
0
100
AcDbBlockBegin
  2
*PAPER_SPACE
 70
     0
 10
0.0
 20
0.0
 30
0.0
  3
*PAPER_SPACE
  1

  0
ENDBLK
  5
10
100
AcDbEntity
 67
     1
  8
0
100
AcDbBlockEnd
  0
BLOCK
  5
35
100
AcDbEntity
  8
0
100
AcDbBlockBegin
  2
SIMB_XIS
 70
     0
 10
0.0
 20
0.0
 30
0.0
  3
SIMB_XIS
  1

  0
POLYLINE
  5
36
100
AcDbEntity
  8
0
 62
     0
100
AcDb2dPolyline
 66
     1
 10
0.0
 20
0.0
 30
0.0
  0
VERTEX
  5
37
100
AcDbEntity
  8
0
 62
     0
100
AcDbVertex
100
AcDb2dVertex
 10
-0.175
 20
-0.25
 30
0.0
  0
VERTEX
  5
38
100
AcDbEntity
  8
0
 62
     0
100
AcDbVertex
100
AcDb2dVertex
 10
0.175
 20
0.25
 30
0.0
  0
SEQEND
  5
39
100
AcDbEntity
  8
0
 62
     0
  0
POLYLINE
  5
3A
100
AcDbEntity
  8
0
 62
     0
100
AcDb2dPolyline
 66
     1
 10
0.0
 20
0.0
 30
0.0
  0
VERTEX
  5
3B
100
AcDbEntity
  8
0
 62
     0
100
AcDbVertex
100
AcDb2dVertex
 10
0.175
 20
-0.25
 30
0.0
  0
VERTEX
  5
3C
100
AcDbEntity
  8
0
 62
     0
100
AcDbVertex
100
AcDb2dVertex
 10
-0.175
 20
0.25
 30
0.0
  0
SEQEND
  5
3D
100
AcDbEntity
  8
0
 62
     0
  0
ATTDEF
  5
3E
100
AcDbEntity
  8
0
100
AcDbText
 10
0.0
 20
0.0
 30
0.0
 40
1.0
  1

100
AcDbAttributeDefinition
  3
pto:
  2
PONTO
 70
     0
  0
ATTDEF
  5
3F
100
AcDbEntity
  8
0
100
AcDbText
 10
0.0
 20
0.0
 30
0.0
 40
1.0
  1

100
AcDbAttributeDefinition
  3
desc:
  2
DESC
 70
     0
  0
ATTDEF
  5
40
100
AcDbEntity
  8
0
100
AcDbText
 10
0.0
 20
0.0
 30
0.0
 40
1.0
  1

100
AcDbAttributeDefinition
  3
ct:
  2
COTA
 70
     0
  0
ENDBLK
  5
41
100
AcDbEntity
  8
0
100
AcDbBlockEnd
  0
BLOCK
  5
43
100
AcDbEntity
  8
0
100
AcDbBlockBegin
  2
SIMB_CIRCULO
 70
     0
 10
0.0
 20
0.0
 30
0.0
  3
SIMB_CIRCULO
  1

  0
CIRCLE
  5
44
100
AcDbEntity
  8
0
 62
     0
100
AcDbCircle
 10
0.0
 20
0.0
 30
0.0
 40
0.25
  0
POINT
  5
45
100
AcDbEntity
  8
0
 62
     0
100
AcDbPoint
 10
0.0
 20
0.0
 30
0.0
  0
ATTDEF
  5
46
100
AcDbEntity
  8
0
100
AcDbText
 10
0.0
 20
0.0
 30
0.0
 40
1.0
  1

100
AcDbAttributeDefinition
  3
pto:
  2
PONTO
 70
     0
  0
ATTDEF
  5
47
100
AcDbEntity
  8
0
100
AcDbText
 10
0.0
 20
0.0
 30
0.0
 40
1.0
  1

100
AcDbAttributeDefinition
  3
desc:
  2
DESC
 70
     0
  0
ATTDEF
  5
48
100
AcDbEntity
  8
0
100
AcDbText
 10
0.0
 20
0.0
 30
0.0
 40
1.0
  1

100
AcDbAttributeDefinition
  3
ct:
  2
COTA
 70
     0
  0
ENDBLK
  5
49
100
AcDbEntity
  8
0
100
AcDbBlockEnd
  0
BLOCK
  5
4B
100
AcDbEntity
  8
0
100
AcDbBlockBegin
  2
SIMB_ARVORE
 70
     0
 10
0.0
 20
0.0
 30
0.0
  3
SIMB_ARVORE
  1

  0
ARC
  5
4C
100
AcDbEntity
  8
0
 62
     0
100
AcDbCircle
 10
-0.545
 20
0.75
 30
0.0
 40
0.575
100
AcDbArc
 50
18.749758
 51
233.130102
  0
ARC
  5
4D
100
AcDbEntity
  8
0
 62
     0
100
AcDbCircle
 10
-0.88
 20
-0.285
 30
0.0
 40
0.575
100
AcDbArc
 50
87.013363
 51
319.184916
  0
ARC
  5
4E
100
AcDbEntity
  8
0
 62
     0
100
AcDbCircle
 10
0.0
 20
-0.925
 30
0.0
 40
0.575
100
AcDbArc
 50
162.824096
 51
17.175904
  0
ARC
  5
4F
100
AcDbEntity
  8
0
 62
     0
100
AcDbCircle
 10
0.88
 20
-0.285
 30
0.0
 40
0.575
100
AcDbArc
 50
234.926246
 51
89.003652
  0
ARC
  5
50
100
AcDbEntity
  8
0
 62
     0
100
AcDbCircle
 10
0.545
 20
0.75
 30
0.0
 40
0.575
100
AcDbArc
 50
306.869898
 51
161.250242
  0
POINT
  5
51
100
AcDbEntity
  8
0
 62
     0
100
AcDbPoint
 10
0.0
 20
0.0
 30
0.0
  0
ATTDEF
  5
52
100
AcDbEntity
  8
0
100
AcDbText
 10
0.0
 20
0.0
 30
0.0
 40
1.0
  1

100
AcDbAttributeDefinition
  3
pto:
  2
PONTO
 70
     0
  0
ATTDEF
  5
53
100
AcDbEntity
  8
0
100
AcDbText
 10
0.0
 20
0.0
 30
0.0
 40
1.0
  1

100
AcDbAttributeDefinition
  3
desc:
  2
DESC
 70
     0
  0
ATTDEF
  5
54
100
AcDbEntity
  8
0
100
AcDbText
 10
0.0
 20
0.0
 30
0.0
 40
1.0
  1

100
AcDbAttributeDefinition
  3
ct:
  2
COTA
 70
     0
  0
ENDBLK
  5
55
100
AcDbEntity
  8
0
100
AcDbBlockEnd
  0
BLOCK
  5
57
100
AcDbEntity
  8
0
100
AcDbBlockBegin
  2
SIMB_QUADRADO
 70
     0
 10
0.0
 20
0.0
 30
0.0
  3
SIMB_QUADRADO
  1

  0
POLYLINE
  5
58
100
AcDbEntity
  8
0
 62
     0
100
AcDb2dPolyline
 66
     1
 10
0.0
 20
0.0
 30
0.0
 70
     1
  0
VERTEX
  5
59
100
AcDbEntity
  8
0
 62
     0
100
AcDbVertex
100
AcDb2dVertex
 10
-0.125
 20
-0.125
 30
0.0
  0
VERTEX
  5
5A
100
AcDbEntity
  8
0
 62
     0
100
AcDbVertex
100
AcDb2dVertex
 10
0.125
 20
-0.125
 30
0.0
  0
VERTEX
  5
5B
100
AcDbEntity
  8
0
 62
     0
100
AcDbVertex
100
AcDb2dVertex
 10
0.125
 20
0.125
 30
0.0
  0
VERTEX
  5
5C
100
AcDbEntity
  8
0
 62
     0
100
AcDbVertex
100
AcDb2dVertex
 10
-0.125
 20
0.125
 30
0.0
  0
SEQEND
  5
5D
100
AcDbEntity
  8
0
 62
     0
  0
POINT
  5
5E
100
AcDbEntity
  8
0
 62
     0
100
AcDbPoint
 10
0.0
 20
0.0
 30
0.0
  0
ATTDEF
  5
5F
100
AcDbEntity
  8
0
100
AcDbText
 10
0.0
 20
0.0
 30
0.0
 40
1.0
  1

100
AcDbAttributeDefinition
  3
pto:
  2
PONTO
 70
     0
  0
ATTDEF
  5
60
100
AcDbEntity
  8
0
100
AcDbText
 10
0.0
 20
0.0
 30
0.0
 40
1.0
  1

100
AcDbAttributeDefinition
  3
desc:
  2
DESC
 70
     0
  0
ATTDEF
  5
61
100
AcDbEntity
  8
0
100
AcDbText
 10
0.0
 20
0.0
 30
0.0
 40
1.0
  1

100
AcDbAttributeDefinition
  3
ct:
  2
COTA
 70
     0
  0
ENDBLK
  5
62
100
AcDbEntity
  8
0
100
AcDbBlockEnd
  0
BLOCK
  5
64
100
AcDbEntity
  8
0
100
AcDbBlockBegin
  2
SIMB_BOLINHA
 70
     0
 10
0.0
 20
0.0
 30
0.0
  3
SIMB_BOLINHA
  1

  0
CIRCLE
  5
65
100
AcDbEntity
  8
0
 62
     0
100
AcDbCircle
 10
0.0
 20
0.0
 30
0.0
 40
0.15
  0
POINT
  5
66
100
AcDbEntity
  8
0
 62
     0
100
AcDbPoint
 10
0.0
 20
0.0
 30
0.0
  0
ATTDEF
  5
67
100
AcDbEntity
  8
0
100
AcDbText
 10
0.0
 20
0.0
 30
0.0
 40
1.0
  1

100
AcDbAttributeDefinition
  3
pto:
  2
PONTO
 70
     0
  0
ATTDEF
  5
68
100
AcDbEntity
  8
0
100
AcDbText
 10
0.0
 20
0.0
 30
0.0
 40
1.0
  1

100
AcDbAttributeDefinition
  3
desc:
  2
DESC
 70
     0
  0
ATTDEF
  5
69
100
AcDbEntity
  8
0
100
AcDbText
 10
0.0
 20
0.0
 30
0.0
 40
1.0
  1

100
AcDbAttributeDefinition
  3
ct:
  2
COTA
 70
     0
  0
ENDBLK
  5
6A
100
AcDbEntity
  8
0
100
AcDbBlockEnd
  0
BLOCK
  5
6C
100
AcDbEntity
  8
0
100
AcDbBlockBegin
  2
SIMB_CRUZETA
 70
     0
 10
0.0
 20
0.0
 30
0.0
  3
SIMB_CRUZETA
  1

  0
POLYLINE
  5
6D
100
AcDbEntity
  8
0
 62
     0
100
AcDb2dPolyline
 66
     1
 10
0.0
 20
0.0
 30
0.0
  0
VERTEX
  5
6E
100
AcDbEntity
  8
0
 62
     0
100
AcDbVertex
100
AcDb2dVertex
 10
-0.25
 20
0.0
 30
0.0
  0
VERTEX
  5
6F
100
AcDbEntity
  8
0
 62
     0
100
AcDbVertex
100
AcDb2dVertex
 10
0.25
 20
0.0
 30
0.0
  0
SEQEND
  5
70
100
AcDbEntity
  8
0
 62
     0
  0
POLYLINE
  5
71
100
AcDbEntity
  8
0
 62
     0
100
AcDb2dPolyline
 66
     1
 10
0.0
 20
0.0
 30
0.0
  0
VERTEX
  5
72
100
AcDbEntity
  8
0
 62
     0
100
AcDbVertex
100
AcDb2dVertex
 10
0.0
 20
-0.25
 30
0.0
  0
VERTEX
  5
73
100
AcDbEntity
  8
0
 62
     0
100
AcDbVertex
100
AcDb2dVertex
 10
0.0
 20
0.25
 30
0.0
  0
SEQEND
  5
74
100
AcDbEntity
  8
0
 62
     0
  0
ATTDEF
  5
75
100
AcDbEntity
  8
0
100
AcDbText
 10
0.0
 20
0.0
 30
0.0
 40
1.0
  1

100
AcDbAttributeDefinition
  3
pto:
  2
PONTO
 70
     0
  0
ATTDEF
  5
76
100
AcDbEntity
  8
0
100
AcDbText
 10
0.0
 20
0.0
 30
0.0
 40
1.0
  1

100
AcDbAttributeDefinition
  3
desc:
  2
DESC
 70
     0
  0
ATTDEF
  5
77
100
AcDbEntity
  8
0
100
AcDbText
 10
0.0
 20
0.0
 30
0.0
 40
1.0
  1

100
AcDbAttributeDefinition
  3
ct:
  2
COTA
 70
     0
  0
ENDBLK
  5
78
100
AcDbEntity
  8
0
100
AcDbBlockEnd
  0
BLOCK
  5
7A
100
AcDbEntity
  8
0
100
AcDbBlockBegin
  2
SIMB_BARRAS
 70
     0
 10
0.0
 20
0.0
 30
0.0
  3
SIMB_BARRAS
  1

  0
POLYLINE
  5
7B
100
AcDbEntity
  8
0
 62
     0
100
AcDb2dPolyline
 66
     1
 10
0.0
 20
0.0
 30
0.0
  0
VERTEX
  5
7C
100
AcDbEntity
  8
0
 62
     0
100
AcDbVertex
100
AcDb2dVertex
 10
-0.175
 20
-0.25
 30
0.0
  0
VERTEX
  5
7D
100
AcDbEntity
  8
0
 62
     0
100
AcDbVertex
100
AcDb2dVertex
 10
-0.05
 20
0.25
 30
0.0
  0
SEQEND
  5
7E
100
AcDbEntity
  8
0
 62
     0
  0
POLYLINE
  5
7F
100
AcDbEntity
  8
0
 62
     0
100
AcDb2dPolyline
 66
     1
 10
0.0
 20
0.0
 30
0.0
  0
VERTEX
  5
80
100
AcDbEntity
  8
0
 62
     0
100
AcDbVertex
100
AcDb2dVertex
 10
0.175
 20
0.25
 30
0.0
  0
VERTEX
  5
81
100
AcDbEntity
  8
0
 62
     0
100
AcDbVertex
100
AcDb2dVertex
 10
0.05
 20
-0.25
 30
0.0
  0
SEQEND
  5
82
100
AcDbEntity
  8
0
 62
     0
  0
POINT
  5
83
100
AcDbEntity
  8
0
 62
     0
100
AcDbPoint
 10
0.0
 20
0.0
 30
0.0
  0
ATTDEF
  5
84
100
AcDbEntity
  8
0
100
AcDbText
 10
0.0
 20
0.0
 30
0.0
 40
1.0
  1

100
AcDbAttributeDefinition
  3
pto:
  2
PONTO
 70
     0
  0
ATTDEF
  5
85
100
AcDbEntity
  8
0
100
AcDbText
 10
0.0
 20
0.0
 30
0.0
 40
1.0
  1

100
AcDbAttributeDefinition
  3
desc:
  2
DESC
 70
     0
  0
ATTDEF
  5
86
100
AcDbEntity
  8
0
100
AcDbText
 10
0.0
 20
0.0
 30
0.0
 40
1.0
  1

100
AcDbAttributeDefinition
  3
ct:
  2
COTA
 70
     0
  0
ENDBLK
  5
87
100
AcDbEntity
  8
0
100
AcDbBlockEnd
  0
BLOCK
  5
89
100
AcDbEntity
  8
0
100
AcDbBlockBegin
  2
SIMB_PONTO
 70
     0
 10
0.0
 20
0.0
 30
0.0
  3
SIMB_PONTO
  1

  0
POINT
  5
8A
100
AcDbEntity
  8
0
 62
     0
100
AcDbPoint
 10
0.0
 20
0.0
 30
0.0
  0
ATTDEF
  5
8B
100
AcDbEntity
  8
0
100
AcDbText
 10
0.0
 20
0.0
 30
0.0
 40
1.0
  1

100
AcDbAttributeDefinition
  3
pto:
  2
PONTO
 70
     0
  0
ATTDEF
  5
8C
100
AcDbEntity
  8
0
100
AcDbText
 10
0.0
 20
0.0
 30
0.0
 40
1.0
  1

100
AcDbAttributeDefinition
  3
desc:
  2
DESC
 70
     0
  0
ATTDEF
  5
8D
100
AcDbEntity
  8
0
100
AcDbText
 10
0.0
 20
0.0
 30
0.0
 40
1.0
  1

100
AcDbAttributeDefinition
  3
ct:
  2
COTA
 70
     0
  0
ENDBLK
  5
8E
100
AcDbEntity
  8
0
100
AcDbBlockEnd
  0
BLOCK
  5
90
100
AcDbEntity
  8
0
100
AcDbBlockBegin
  2
SIMB_TRIANGULO
 70
     0
 10
0.0
 20
0.0
 30
0.0
  3
SIMB_TRIANGULO
  1

  0
POLYLINE
  5
91
100
AcDbEntity
  8
0
 62
     0
100
AcDb2dPolyline
 66
     1
 10
0.0
 20
0.0
 30
0.0
 70
     1
  0
VERTEX
  5
92
100
AcDbEntity
  8
0
 62
     0
100
AcDbVertex
100
AcDb2dVertex
 10
-0.3
 20
-0.15
 30
0.0
  0
VERTEX
  5
93
100
AcDbEntity
  8
0
 62
     0
100
AcDbVertex
100
AcDb2dVertex
 10
0.0
 20
0.35
 30
0.0
  0
VERTEX
  5
94
100
AcDbEntity
  8
0
 62
     0
100
AcDbVertex
100
AcDb2dVertex
 10
0.3
 20
-0.15
 30
0.0
  0
SEQEND
  5
95
100
AcDbEntity
  8
0
 62
     0
  0
POINT
  5
96
100
AcDbEntity
  8
0
 62
     0
100
AcDbPoint
 10
0.0
 20
0.0
 30
0.0
  0
ATTDEF
  5
97
100
AcDbEntity
  8
0
100
AcDbText
 10
0.0
 20
0.0
 30
0.0
 40
1.0
  1

100
AcDbAttributeDefinition
  3
pto:
  2
PONTO
 70
     0
  0
ATTDEF
  5
98
100
AcDbEntity
  8
0
100
AcDbText
 10
0.0
 20
0.0
 30
0.0
 40
1.0
  1

100
AcDbAttributeDefinition
  3
desc:
  2
DESC
 70
     0
  0
ATTDEF
  5
99
100
AcDbEntity
  8
0
100
AcDbText
 10
0.0
 20
0.0
 30
0.0
 40
1.0
  1

100
AcDbAttributeDefinition
  3
ct:
  2
COTA
 70
     0
  0
ENDBLK
  5
9A
100
AcDbEntity
  8
0
100
AcDbBlockEnd
  0
BLOCK
  5
9C
100
AcDbEntity
  8
0
100
AcDbBlockBegin
  2
SIMB_POSTE
 70
     0
 10
0.0
 20
0.0
 30
0.0
  3
SIMB_POSTE
  1

  0
POLYLINE
  5
9D
100
AcDbEntity
  8
0
 62
     0
100
AcDb2dPolyline
 66
     1
 10
0.0
 20
0.0
 30
0.0
  0
VERTEX
  5
9E
100
AcDbEntity
  8
0
 62
     0
100
AcDbVertex
100
AcDb2dVertex
 10
0.0
 20
0.0
 30
0.0
  0
VERTEX
  5
9F
100
AcDbEntity
  8
0
 62
     0
100
AcDbVertex
100
AcDb2dVertex
 10
0.0
 20
2.5
 30
0.0
  0
SEQEND
  5
A0
100
AcDbEntity
  8
0
 62
     0
  0
POLYLINE
  5
A1
100
AcDbEntity
  8
0
 62
     0
100
AcDb2dPolyline
 66
     1
 10
0.0
 20
0.0
 30
0.0
  0
VERTEX
  5
A2
100
AcDbEntity
  8
0
 62
     0
100
AcDbVertex
100
AcDb2dVertex
 10
-0.75
 20
1.5
 30
0.0
  0
VERTEX
  5
A3
100
AcDbEntity
  8
0
 62
     0
100
AcDbVertex
100
AcDb2dVertex
 10
0.75
 20
1.5
 30
0.0
  0
SEQEND
  5
A4
100
AcDbEntity
  8
0
 62
     0
  0
POLYLINE
  5
A5
100
AcDbEntity
  8
0
 62
     0
100
AcDb2dPolyline
 66
     1
 10
0.0
 20
0.0
 30
0.0
  0
VERTEX
  5
A6
100
AcDbEntity
  8
0
 62
     0
100
AcDbVertex
100
AcDb2dVertex
 10
-0.5
 20
2.0
 30
0.0
  0
VERTEX
  5
A7
100
AcDbEntity
  8
0
 62
     0
100
AcDbVertex
100
AcDb2dVertex
 10
0.5
 20
2.0
 30
0.0
  0
SEQEND
  5
A8
100
AcDbEntity
  8
0
 62
     0
  0
ATTDEF
  5
A9
100
AcDbEntity
  8
0
100
AcDbText
 10
0.0
 20
0.0
 30
0.0
 40
1.0
  1

100
AcDbAttributeDefinition
  3
pto:
  2
PONTO
 70
     0
  0
ATTDEF
  5
AA
100
AcDbEntity
  8
0
100
AcDbText
 10
0.0
 20
0.0
 30
0.0
 40
1.0
  1

100
AcDbAttributeDefinition
  3
desc:
  2
DESC
 70
     0
  0
ATTDEF
  5
AB
100
AcDbEntity
  8
0
100
AcDbText
 10
0.0
 20
0.0
 30
0.0
 40
1.0
  1

100
AcDbAttributeDefinition
  3
ct:
  2
COTA
 70
     0
  0
ENDBLK
  5
AC
100
AcDbEntity
  8
0
100
AcDbBlockEnd
  0
ENDSEC
  0
SECTION
  2
ENTITIES
  0
INSERT
  5
AE
100
AcDbEntity
  8
_TG
 62
     3
100
AcDbBlockReference
 66
     1
  2
SIMB_PONTO
 10
190299.852774
 20
1679581.714122
 30
0.0
  0
ATTRIB
  5
AF
100
AcDbEntity
  8
0
 62
     1
100
AcDbText
 10
190300.202774
 20
1679582.064122
 30
0.0
 40
0.75
  1
1
 41
0.954526
  7
SIMPLEX
100
AcDbAttribute
  2
PONTO
 70
     8
  0
ATTRIB
  5
B0
100
AcDbEntity
  8
0
 62
     4
100
AcDbText
 10
190300.202774
 20
1679582.964122
 30
0.0
 40
0.75
  1
I
 41
0.699986
  7
SIMPLEX
100
AcDbAttribute
  2
DESC
 70
     9
  0
ATTRIB
  5
B1
100
AcDbEntity
  8
0
 62
     2
100
AcDbText
 10
190300.202774
 20
1679580.614122
 30
0.0
 40
0.75
  1

 41
0.699986
  7
SIMPLEX
100
AcDbAttribute
  2
COTA
 70
     9
  0
SEQEND
  5
B2
100
AcDbEntity
  8
0
  0
INSERT
  5
B3
100
AcDbEntity
  8
_TG
 62
     3
100
AcDbBlockReference
 66
     1
  2
SIMB_PONTO
 10
190292.923049
 20
1679588.370908
 30
0.0
  0
ATTRIB
  5
B4
100
AcDbEntity
  8
0
 62
     1
100
AcDbText
 10
190293.273049
 20
1679588.720908
 30
0.0
 40
0.75
  1
10
 41
0.954526
  7
SIMPLEX
100
AcDbAttribute
  2
PONTO
 70
     8
  0
ATTRIB
  5
B5
100
AcDbEntity
  8
0
 62
     4
100
AcDbText
 10
190293.273049
 20
1679589.620908
 30
0.0
 40
0.75
  1
I
 41
0.699986
  7
SIMPLEX
100
AcDbAttribute
  2
DESC
 70
     9
  0
ATTRIB
  5
B6
100
AcDbEntity
  8
0
 62
     2
100
AcDbText
 10
190293.273049
 20
1679587.270908
 30
0.0
 40
0.75
  1

 41
0.699986
  7
SIMPLEX
100
AcDbAttribute
  2
COTA
 70
     9
  0
SEQEND
  5
B7
100
AcDbEntity
  8
0
  0
INSERT
  5
B8
100
AcDbEntity
  8
_TG
 62
     3
100
AcDbBlockReference
 66
     1
  2
SIMB_PONTO
 10
190288.952891
 20
1679585.810844
 30
0.0
  0
ATTRIB
  5
B9
100
AcDbEntity
  8
0
 62
     1
100
AcDbText
 10
190289.302891
 20
1679586.160844
 30
0.0
 40
0.75
  1
11
 41
0.954526
  7
SIMPLEX
100
AcDbAttribute
  2
PONTO
 70
     8
  0
ATTRIB
  5
BA
100
AcDbEntity
  8
0
 62
     4
100
AcDbText
 10
190289.302891
 20
1679587.060844
 30
0.0
 40
0.75
  1
I
 41
0.699986
  7
SIMPLEX
100
AcDbAttribute
  2
DESC
 70
     9
  0
ATTRIB
  5
BB
100
AcDbEntity
  8
0
 62
     2
100
AcDbText
 10
190289.302891
 20
1679584.710844
 30
0.0
 40
0.75
  1

 41
0.699986
  7
SIMPLEX
100
AcDbAttribute
  2
COTA
 70
     9
  0
SEQEND
  5
BC
100
AcDbEntity
  8
0
  0
INSERT
  5
BD
100
AcDbEntity
  8
_TG
 62
     3
100
AcDbBlockReference
 66
     1
  2
SIMB_PONTO
 10
190258.048471
 20
1679594.005349
 30
0.0
  0
ATTRIB
  5
BE
100
AcDbEntity
  8
0
 62
     1
100
AcDbText
 10
190258.398471
 20
1679594.355349
 30
0.0
 40
0.75
  1
12
 41
0.954526
  7
SIMPLEX
100
AcDbAttribute
  2
PONTO
 70
     8
  0
ATTRIB
  5
BF
100
AcDbEntity
  8
0
 62
     4
100
AcDbText
 10
190258.398471
 20
1679595.255349
 30
0.0
 40
0.75
  1
I
 41
0.699986
  7
SIMPLEX
100
AcDbAttribute
  2
DESC
 70
     9
  0
ATTRIB
  5
C0
100
AcDbEntity
  8
0
 62
     2
100
AcDbText
 10
190258.398471
 20
1679592.905349
 30
0.0
 40
0.75
  1

 41
0.699986
  7
SIMPLEX
100
AcDbAttribute
  2
COTA
 70
     9
  0
SEQEND
  5
C1
100
AcDbEntity
  8
0
  0
INSERT
  5
C2
100
AcDbEntity
  8
_TG
 62
     3
100
AcDbBlockReference
 66
     1
  2
SIMB_PONTO
 10
190264.103904
 20
1679601.208495
 30
0.0
  0
ATTRIB
  5
C3
100
AcDbEntity
  8
0
 62
     1
100
AcDbText
 10
190264.453904
 20
1679601.558495
 30
0.0
 40
0.75
  1
13
 41
0.954526
  7
SIMPLEX
100
AcDbAttribute
  2
PONTO
 70
     8
  0
ATTRIB
  5
C4
100
AcDbEntity
  8
0
 62
     4
100
AcDbText
 10
190264.453904
 20
1679602.458495
 30
0.0
 40
0.75
  1
I
 41
0.699986
  7
SIMPLEX
100
AcDbAttribute
  2
DESC
 70
     9
  0
ATTRIB
  5
C5
100
AcDbEntity
  8
0
 62
     2
100
AcDbText
 10
190264.453904
 20
1679600.108495
 30
0.0
 40
0.75
  1

 41
0.699986
  7
SIMPLEX
100
AcDbAttribute
  2
COTA
 70
     9
  0
SEQEND
  5
C6
100
AcDbEntity
  8
0
  0
INSERT
  5
C7
100
AcDbEntity
  8
_TG
 62
     3
100
AcDbBlockReference
 66
     1
  2
SIMB_PONTO
 10
190285.740359
 20
1679595.738735
 30
0.0
  0
ATTRIB
  5
C8
100
AcDbEntity
  8
0
 62
     1
100
AcDbText
 10
190286.090359
 20
1679596.088735
 30
0.0
 40
0.75
  1
14
 41
0.954526
  7
SIMPLEX
100
AcDbAttribute
  2
PONTO
 70
     8
  0
ATTRIB
  5
C9
100
AcDbEntity
  8
0
 62
     4
100
AcDbText
 10
190286.090359
 20
1679596.988735
 30
0.0
 40
0.75
  1
I
 41
0.699986
  7
SIMPLEX
100
AcDbAttribute
  2
DESC
 70
     9
  0
ATTRIB
  5
CA
100
AcDbEntity
  8
0
 62
     2
100
AcDbText
 10
190286.090359
 20
1679594.638735
 30
0.0
 40
0.75
  1

 41
0.699986
  7
SIMPLEX
100
AcDbAttribute
  2
COTA
 70
     9
  0
SEQEND
  5
CB
100
AcDbEntity
  8
0
  0
INSERT
  5
CC
100
AcDbEntity
  8
_TG
 62
     3
100
AcDbBlockReference
 66
     1
  2
SIMB_PONTO
 10
190278.668594
 20
1679602.861557
 30
0.0
  0
ATTRIB
  5
CD
100
AcDbEntity
  8
0
 62
     1
100
AcDbText
 10
190279.018594
 20
1679603.211557
 30
0.0
 40
0.75
  1
15
 41
0.954526
  7
SIMPLEX
100
AcDbAttribute
  2
PONTO
 70
     8
  0
ATTRIB
  5
CE
100
AcDbEntity
  8
0
 62
     4
100
AcDbText
 10
190279.018594
 20
1679604.111557
 30
0.0
 40
0.75
  1
I
 41
0.699986
  7
SIMPLEX
100
AcDbAttribute
  2
DESC
 70
     9
  0
ATTRIB
  5
CF
100
AcDbEntity
  8
0
 62
     2
100
AcDbText
 10
190279.018594
 20
1679601.761557
 30
0.0
 40
0.75
  1

 41
0.699986
  7
SIMPLEX
100
AcDbAttribute
  2
COTA
 70
     9
  0
SEQEND
  5
D0
100
AcDbEntity
  8
0
  0
INSERT
  5
D1
100
AcDbEntity
  8
_TG
 62
     3
100
AcDbBlockReference
 66
     1
  2
SIMB_PONTO
 10
190271.395964
 20
1679609.897707
 30
0.0
  0
ATTRIB
  5
D2
100
AcDbEntity
  8
0
 62
     1
100
AcDbText
 10
190271.745964
 20
1679610.247707
 30
0.0
 40
0.75
  1
16
 41
0.954526
  7
SIMPLEX
100
AcDbAttribute
  2
PONTO
 70
     8
  0
ATTRIB
  5
D3
100
AcDbEntity
  8
0
 62
     4
100
AcDbText
 10
190271.745964
 20
1679611.147707
 30
0.0
 40
0.75
  1
I
 41
0.699986
  7
SIMPLEX
100
AcDbAttribute
  2
DESC
 70
     9
  0
ATTRIB
  5
D4
100
AcDbEntity
  8
0
 62
     2
100
AcDbText
 10
190271.745964
 20
1679608.797707
 30
0.0
 40
0.75
  1

 41
0.699986
  7
SIMPLEX
100
AcDbAttribute
  2
COTA
 70
     9
  0
SEQEND
  5
D5
100
AcDbEntity
  8
0
  0
INSERT
  5
D6
100
AcDbEntity
  8
_TG
 62
     3
100
AcDbBlockReference
 66
     1
  2
SIMB_PONTO
 10
190274.861265
 20
1679613.183608
 30
0.0
  0
ATTRIB
  5
D7
100
AcDbEntity
  8
0
 62
     1
100
AcDbText
 10
190275.211265
 20
1679613.533608
 30
0.0
 40
0.75
  1
17
 41
0.954526
  7
SIMPLEX
100
AcDbAttribute
  2
PONTO
 70
     8
  0
ATTRIB
  5
D8
100
AcDbEntity
  8
0
 62
     4
100
AcDbText
 10
190275.211265
 20
1679614.433608
 30
0.0
 40
0.75
  1
I
 41
0.699986
  7
SIMPLEX
100
AcDbAttribute
  2
DESC
 70
     9
  0
ATTRIB
  5
D9
100
AcDbEntity
  8
0
 62
     2
100
AcDbText
 10
190275.211265
 20
1679612.083608
 30
0.0
 40
0.75
  1

 41
0.699986
  7
SIMPLEX
100
AcDbAttribute
  2
COTA
 70
     9
  0
SEQEND
  5
DA
100
AcDbEntity
  8
0
  0
INSERT
  5
DB
100
AcDbEntity
  8
_TG
 62
     3
100
AcDbBlockReference
 66
     1
  2
SIMB_PONTO
 10
190271.86913
 20
1679615.943842
 30
0.0
  0
ATTRIB
  5
DC
100
AcDbEntity
  8
0
 62
     1
100
AcDbText
 10
190272.21913
 20
1679616.293842
 30
0.0
 40
0.75
  1
18
 41
0.954526
  7
SIMPLEX
100
AcDbAttribute
  2
PONTO
 70
     8
  0
ATTRIB
  5
DD
100
AcDbEntity
  8
0
 62
     4
100
AcDbText
 10
190272.21913
 20
1679617.193842
 30
0.0
 40
0.75
  1
I
 41
0.699986
  7
SIMPLEX
100
AcDbAttribute
  2
DESC
 70
     9
  0
ATTRIB
  5
DE
100
AcDbEntity
  8
0
 62
     2
100
AcDbText
 10
190272.21913
 20
1679614.843842
 30
0.0
 40
0.75
  1

 41
0.699986
  7
SIMPLEX
100
AcDbAttribute
  2
COTA
 70
     9
  0
SEQEND
  5
DF
100
AcDbEntity
  8
0
  0
INSERT
  5
E0
100
AcDbEntity
  8
_TG
 62
     3
100
AcDbBlockReference
 66
     1
  2
SIMB_PONTO
 10
190271.966018
 20
1679619.315128
 30
0.0
  0
ATTRIB
  5
E1
100
AcDbEntity
  8
0
 62
     1
100
AcDbText
 10
190272.316018
 20
1679619.665128
 30
0.0
 40
0.75
  1
19
 41
0.954526
  7
SIMPLEX
100
AcDbAttribute
  2
PONTO
 70
     8
  0
ATTRIB
  5
E2
100
AcDbEntity
  8
0
 62
     4
100
AcDbText
 10
190272.316018
 20
1679620.565128
 30
0.0
 40
0.75
  1
I
 41
0.699986
  7
SIMPLEX
100
AcDbAttribute
  2
DESC
 70
     9
  0
ATTRIB
  5
E3
100
AcDbEntity
  8
0
 62
     2
100
AcDbText
 10
190272.316018
 20
1679618.215128
 30
0.0
 40
0.75
  1

 41
0.699986
  7
SIMPLEX
100
AcDbAttribute
  2
COTA
 70
     9
  0
SEQEND
  5
E4
100
AcDbEntity
  8
0
  0
INSERT
  5
E5
100
AcDbEntity
  8
_TG
 62
     3
100
AcDbBlockReference
 66
     1
  2
SIMB_PONTO
 10
190298.256274
 20
1679581.077931
 30
0.0
  0
ATTRIB
  5
E6
100
AcDbEntity
  8
0
 62
     1
100
AcDbText
 10
190298.606274
 20
1679581.427931
 30
0.0
 40
0.75
  1
2
 41
0.954526
  7
SIMPLEX
100
AcDbAttribute
  2
PONTO
 70
     8
  0
ATTRIB
  5
E7
100
AcDbEntity
  8
0
 62
     4
100
AcDbText
 10
190298.606274
 20
1679582.327931
 30
0.0
 40
0.75
  1
I
 41
0.699986
  7
SIMPLEX
100
AcDbAttribute
  2
DESC
 70
     9
  0
ATTRIB
  5
E8
100
AcDbEntity
  8
0
 62
     2
100
AcDbText
 10
190298.606274
 20
1679579.977931
 30
0.0
 40
0.75
  1

 41
0.699986
  7
SIMPLEX
100
AcDbAttribute
  2
COTA
 70
     9
  0
SEQEND
  5
E9
100
AcDbEntity
  8
0
  0
INSERT
  5
EA
100
AcDbEntity
  8
_TG
 62
     3
100
AcDbBlockReference
 66
     1
  2
SIMB_PONTO
 10
190270.127248
 20
1679621.112839
 30
0.0
  0
ATTRIB
  5
EB
100
AcDbEntity
  8
0
 62
     1
100
AcDbText
 10
190270.477248
 20
1679621.462839
 30
0.0
 40
0.75
  1
20
 41
0.954526
  7
SIMPLEX
100
AcDbAttribute
  2
PONTO
 70
     8
  0
ATTRIB
  5
EC
100
AcDbEntity
  8
0
 62
     4
100
AcDbText
 10
190270.477248
 20
1679622.362839
 30
0.0
 40
0.75
  1
I
 41
0.699986
  7
SIMPLEX
100
AcDbAttribute
  2
DESC
 70
     9
  0
ATTRIB
  5
ED
100
AcDbEntity
  8
0
 62
     2
100
AcDbText
 10
190270.477248
 20
1679620.012839
 30
0.0
 40
0.75
  1

 41
0.699986
  7
SIMPLEX
100
AcDbAttribute
  2
COTA
 70
     9
  0
SEQEND
  5
EE
100
AcDbEntity
  8
0
  0
INSERT
  5
EF
100
AcDbEntity
  8
_TG
 62
     3
100
AcDbBlockReference
 66
     1
  2
SIMB_PONTO
 10
190266.310912
 20
1679620.908418
 30
0.0
  0
ATTRIB
  5
F0
100
AcDbEntity
  8
0
 62
     1
100
AcDbText
 10
190266.660912
 20
1679621.258418
 30
0.0
 40
0.75
  1
21
 41
0.954526
  7
SIMPLEX
100
AcDbAttribute
  2
PONTO
 70
     8
  0
ATTRIB
  5
F1
100
AcDbEntity
  8
0
 62
     4
100
AcDbText
 10
190266.660912
 20
1679622.158418
 30
0.0
 40
0.75
  1
I
 41
0.699986
  7
SIMPLEX
100
AcDbAttribute
  2
DESC
 70
     9
  0
ATTRIB
  5
F2
100
AcDbEntity
  8
0
 62
     2
100
AcDbText
 10
190266.660912
 20
1679619.808418
 30
0.0
 40
0.75
  1

 41
0.699986
  7
SIMPLEX
100
AcDbAttribute
  2
COTA
 70
     9
  0
SEQEND
  5
F3
100
AcDbEntity
  8
0
  0
INSERT
  5
F4
100
AcDbEntity
  8
_TG
 62
     3
100
AcDbBlockReference
 66
     1
  2
SIMB_PONTO
 10
190260.256368
 20
1679626.841174
 30
0.0
  0
ATTRIB
  5
F5
100
AcDbEntity
  8
0
 62
     1
100
AcDbText
 10
190260.606368
 20
1679627.191174
 30
0.0
 40
0.75
  1
22
 41
0.954526
  7
SIMPLEX
100
AcDbAttribute
  2
PONTO
 70
     8
  0
ATTRIB
  5
F6
100
AcDbEntity
  8
0
 62
     4
100
AcDbText
 10
190260.606368
 20
1679628.091174
 30
0.0
 40
0.75
  1
I
 41
0.699986
  7
SIMPLEX
100
AcDbAttribute
  2
DESC
 70
     9
  0
ATTRIB
  5
F7
100
AcDbEntity
  8
0
 62
     2
100
AcDbText
 10
190260.606368
 20
1679625.741174
 30
0.0
 40
0.75
  1

 41
0.699986
  7
SIMPLEX
100
AcDbAttribute
  2
COTA
 70
     9
  0
SEQEND
  5
F8
100
AcDbEntity
  8
0
  0
INSERT
  5
F9
100
AcDbEntity
  8
_TG
 62
     3
100
AcDbBlockReference
 66
     1
  2
SIMB_PONTO
 10
190257.233209
 20
1679624.079259
 30
0.0
  0
ATTRIB
  5
FA
100
AcDbEntity
  8
0
 62
     1
100
AcDbText
 10
190257.583209
 20
1679624.429259
 30
0.0
 40
0.75
  1
23
 41
0.954526
  7
SIMPLEX
100
AcDbAttribute
  2
PONTO
 70
     8
  0
ATTRIB
  5
FB
100
AcDbEntity
  8
0
 62
     4
100
AcDbText
 10
190257.583209
 20
1679625.329259
 30
0.0
 40
0.75
  1
I
 41
0.699986
  7
SIMPLEX
100
AcDbAttribute
  2
DESC
 70
     9
  0
ATTRIB
  5
FC
100
AcDbEntity
  8
0
 62
     2
100
AcDbText
 10
190257.583209
 20
1679622.979259
 30
0.0
 40
0.75
  1

 41
0.699986
  7
SIMPLEX
100
AcDbAttribute
  2
COTA
 70
     9
  0
SEQEND
  5
FD
100
AcDbEntity
  8
0
  0
INSERT
  5
FE
100
AcDbEntity
  8
_TG
 62
     3
100
AcDbBlockReference
 66
     1
  2
SIMB_PONTO
 10
190254.080158
 20
1679621.416709
 30
0.0
  0
ATTRIB
  5
FF
100
AcDbEntity
  8
0
 62
     1
100
AcDbText
 10
190254.430158
 20
1679621.766709
 30
0.0
 40
0.75
  1
24
 41
0.954526
  7
SIMPLEX
100
AcDbAttribute
  2
PONTO
 70
     8
  0
ATTRIB
  5
100
100
AcDbEntity
  8
0
 62
     4
100
AcDbText
 10
190254.430158
 20
1679622.666709
 30
0.0
 40
0.75
  1
I
 41
0.699986
  7
SIMPLEX
100
AcDbAttribute
  2
DESC
 70
     9
  0
ATTRIB
  5
101
100
AcDbEntity
  8
0
 62
     2
100
AcDbText
 10
190254.430158
 20
1679620.316709
 30
0.0
 40
0.75
  1

 41
0.699986
  7
SIMPLEX
100
AcDbAttribute
  2
COTA
 70
     9
  0
SEQEND
  5
102
100
AcDbEntity
  8
0
  0
INSERT
  5
103
100
AcDbEntity
  8
_TG
 62
     3
100
AcDbBlockReference
 66
     1
  2
SIMB_PONTO
 10
190242.503872
 20
1679609.453442
 30
0.0
  0
ATTRIB
  5
104
100
AcDbEntity
  8
0
 62
     1
100
AcDbText
 10
190242.853872
 20
1679609.803442
 30
0.0
 40
0.75
  1
25
 41
0.954526
  7
SIMPLEX
100
AcDbAttribute
  2
PONTO
 70
     8
  0
ATTRIB
  5
105
100
AcDbEntity
  8
0
 62
     4
100
AcDbText
 10
190242.853872
 20
1679610.703442
 30
0.0
 40
0.75
  1
I
 41
0.699986
  7
SIMPLEX
100
AcDbAttribute
  2
DESC
 70
     9
  0
ATTRIB
  5
106
100
AcDbEntity
  8
0
 62
     2
100
AcDbText
 10
190242.853872
 20
1679608.353442
 30
0.0
 40
0.75
  1

 41
0.699986
  7
SIMPLEX
100
AcDbAttribute
  2
COTA
 70
     9
  0
SEQEND
  5
107
100
AcDbEntity
  8
0
  0
INSERT
  5
108
100
AcDbEntity
  8
_TG
 62
     3
100
AcDbBlockReference
 66
     1
  2
SIMB_PONTO
 10
190249.499476
 20
1679616.390769
 30
0.0
  0
ATTRIB
  5
109
100
AcDbEntity
  8
0
 62
     1
100
AcDbText
 10
190249.849476
 20
1679616.740769
 30
0.0
 40
0.75
  1
26
 41
0.954526
  7
SIMPLEX
100
AcDbAttribute
  2
PONTO
 70
     8
  0
ATTRIB
  5
10A
100
AcDbEntity
  8
0
 62
     4
100
AcDbText
 10
190249.849476
 20
1679617.640769
 30
0.0
 40
0.75
  1
I
 41
0.699986
  7
SIMPLEX
100
AcDbAttribute
  2
DESC
 70
     9
  0
ATTRIB
  5
10B
100
AcDbEntity
  8
0
 62
     2
100
AcDbText
 10
190249.849476
 20
1679615.290769
 30
0.0
 40
0.75
  1

 41
0.699986
  7
SIMPLEX
100
AcDbAttribute
  2
COTA
 70
     9
  0
SEQEND
  5
10C
100
AcDbEntity
  8
0
  0
INSERT
  5
10D
100
AcDbEntity
  8
_TG
 62
     3
100
AcDbBlockReference
 66
     1
  2
SIMB_PONTO
 10
190250.192825
 20
1679631.202733
 30
0.0
  0
ATTRIB
  5
10E
100
AcDbEntity
  8
0
 62
     1
100
AcDbText
 10
190250.542825
 20
1679631.552733
 30
0.0
 40
0.75
  1
27
 41
0.954526
  7
SIMPLEX
100
AcDbAttribute
  2
PONTO
 70
     8
  0
ATTRIB
  5
10F
100
AcDbEntity
  8
0
 62
     4
100
AcDbText
 10
190250.542825
 20
1679632.452733
 30
0.0
 40
0.75
  1
I
 41
0.699986
  7
SIMPLEX
100
AcDbAttribute
  2
DESC
 70
     9
  0
ATTRIB
  5
110
100
AcDbEntity
  8
0
 62
     2
100
AcDbText
 10
190250.542825
 20
1679630.102733
 30
0.0
 40
0.75
  1

 41
0.699986
  7
SIMPLEX
100
AcDbAttribute
  2
COTA
 70
     9
  0
SEQEND
  5
111
100
AcDbEntity
  8
0
  0
INSERT
  5
112
100
AcDbEntity
  8
_TG
 62
     3
100
AcDbBlockReference
 66
     1
  2
SIMB_PONTO
 10
190228.626839
 20
1679638.306821
 30
0.0
  0
ATTRIB
  5
113
100
AcDbEntity
  8
0
 62
     1
100
AcDbText
 10
190228.976839
 20
1679638.656821
 30
0.0
 40
0.75
  1
28
 41
0.954526
  7
SIMPLEX
100
AcDbAttribute
  2
PONTO
 70
     8
  0
ATTRIB
  5
114
100
AcDbEntity
  8
0
 62
     4
100
AcDbText
 10
190228.976839
 20
1679639.556821
 30
0.0
 40
0.75
  1
I
 41
0.699986
  7
SIMPLEX
100
AcDbAttribute
  2
DESC
 70
     9
  0
ATTRIB
  5
115
100
AcDbEntity
  8
0
 62
     2
100
AcDbText
 10
190228.976839
 20
1679637.206821
 30
0.0
 40
0.75
  1

 41
0.699986
  7
SIMPLEX
100
AcDbAttribute
  2
COTA
 70
     9
  0
SEQEND
  5
116
100
AcDbEntity
  8
0
  0
INSERT
  5
117
100
AcDbEntity
  8
_TG
 62
     3
100
AcDbBlockReference
 66
     1
  2
SIMB_PONTO
 10
190236.819361
 20
1679646.12632
 30
0.0
  0
ATTRIB
  5
118
100
AcDbEntity
  8
0
 62
     1
100
AcDbText
 10
190237.169361
 20
1679646.47632
 30
0.0
 40
0.75
  1
29
 41
0.954526
  7
SIMPLEX
100
AcDbAttribute
  2
PONTO
 70
     8
  0
ATTRIB
  5
119
100
AcDbEntity
  8
0
 62
     4
100
AcDbText
 10
190237.169361
 20
1679647.37632
 30
0.0
 40
0.75
  1
I
 41
0.699986
  7
SIMPLEX
100
AcDbAttribute
  2
DESC
 70
     9
  0
ATTRIB
  5
11A
100
AcDbEntity
  8
0
 62
     2
100
AcDbText
 10
190237.169361
 20
1679645.02632
 30
0.0
 40
0.75
  1

 41
0.699986
  7
SIMPLEX
100
AcDbAttribute
  2
COTA
 70
     9
  0
SEQEND
  5
11B
100
AcDbEntity
  8
0
  0
INSERT
  5
11C
100
AcDbEntity
  8
_TG
 62
     3
100
AcDbBlockReference
 66
     1
  2
SIMB_PONTO
 10
190297.520729
 20
1679578.171292
 30
0.0
  0
ATTRIB
  5
11D
100
AcDbEntity
  8
0
 62
     1
100
AcDbText
 10
190297.870729
 20
1679578.521292
 30
0.0
 40
0.75
  1
3
 41
0.954526
  7
SIMPLEX
100
AcDbAttribute
  2
PONTO
 70
     8
  0
ATTRIB
  5
11E
100
AcDbEntity
  8
0
 62
     4
100
AcDbText
 10
190297.870729
 20
1679579.421292
 30
0.0
 40
0.75
  1
I
 41
0.699986
  7
SIMPLEX
100
AcDbAttribute
  2
DESC
 70
     9
  0
ATTRIB
  5
11F
100
AcDbEntity
  8
0
 62
     2
100
AcDbText
 10
190297.870729
 20
1679577.071292
 30
0.0
 40
0.75
  1

 41
0.699986
  7
SIMPLEX
100
AcDbAttribute
  2
COTA
 70
     9
  0
SEQEND
  5
120
100
AcDbEntity
  8
0
  0
INSERT
  5
121
100
AcDbEntity
  8
_TG
 62
     3
100
AcDbBlockReference
 66
     1
  2
SIMB_PONTO
 10
190221.848502
 20
1679630.122147
 30
0.0
  0
ATTRIB
  5
122
100
AcDbEntity
  8
0
 62
     1
100
AcDbText
 10
190222.198502
 20
1679630.472147
 30
0.0
 40
0.75
  1
30
 41
0.954526
  7
SIMPLEX
100
AcDbAttribute
  2
PONTO
 70
     8
  0
ATTRIB
  5
123
100
AcDbEntity
  8
0
 62
     4
100
AcDbText
 10
190222.198502
 20
1679631.372147
 30
0.0
 40
0.75
  1
I
 41
0.699986
  7
SIMPLEX
100
AcDbAttribute
  2
DESC
 70
     9
  0
ATTRIB
  5
124
100
AcDbEntity
  8
0
 62
     2
100
AcDbText
 10
190222.198502
 20
1679629.022147
 30
0.0
 40
0.75
  1

 41
0.699986
  7
SIMPLEX
100
AcDbAttribute
  2
COTA
 70
     9
  0
SEQEND
  5
125
100
AcDbEntity
  8
0
  0
INSERT
  5
126
100
AcDbEntity
  8
_TG
 62
     3
100
AcDbBlockReference
 66
     1
  2
SIMB_PONTO
 10
190233.199884
 20
1679642.961919
 30
0.0
  0
ATTRIB
  5
127
100
AcDbEntity
  8
0
 62
     1
100
AcDbText
 10
190233.549884
 20
1679643.311919
 30
0.0
 40
0.75
  1
31
 41
0.954526
  7
SIMPLEX
100
AcDbAttribute
  2
PONTO
 70
     8
  0
ATTRIB
  5
128
100
AcDbEntity
  8
0
 62
     4
100
AcDbText
 10
190233.549884
 20
1679644.211919
 30
0.0
 40
0.75
  1
I
 41
0.699986
  7
SIMPLEX
100
AcDbAttribute
  2
DESC
 70
     9
  0
ATTRIB
  5
129
100
AcDbEntity
  8
0
 62
     2
100
AcDbText
 10
190233.549884
 20
1679641.861919
 30
0.0
 40
0.75
  1

 41
0.699986
  7
SIMPLEX
100
AcDbAttribute
  2
COTA
 70
     9
  0
SEQEND
  5
12A
100
AcDbEntity
  8
0
  0
INSERT
  5
12B
100
AcDbEntity
  8
_TG
 62
     3
100
AcDbBlockReference
 66
     1
  2
SIMB_PONTO
 10
190298.268593
 20
1679576.306099
 30
0.0
  0
ATTRIB
  5
12C
100
AcDbEntity
  8
0
 62
     1
100
AcDbText
 10
190298.618593
 20
1679576.656099
 30
0.0
 40
0.75
  1
4
 41
0.954526
  7
SIMPLEX
100
AcDbAttribute
  2
PONTO
 70
     8
  0
ATTRIB
  5
12D
100
AcDbEntity
  8
0
 62
     4
100
AcDbText
 10
190298.618593
 20
1679577.556099
 30
0.0
 40
0.75
  1
I
 41
0.699986
  7
SIMPLEX
100
AcDbAttribute
  2
DESC
 70
     9
  0
ATTRIB
  5
12E
100
AcDbEntity
  8
0
 62
     2
100
AcDbText
 10
190298.618593
 20
1679575.206099
 30
0.0
 40
0.75
  1

 41
0.699986
  7
SIMPLEX
100
AcDbAttribute
  2
COTA
 70
     9
  0
SEQEND
  5
12F
100
AcDbEntity
  8
0
  0
INSERT
  5
130
100
AcDbEntity
  8
_TG
 62
     3
100
AcDbBlockReference
 66
     1
  2
SIMB_PONTO
 10
190307.082471
 20
1679567.245317
 30
0.0
  0
ATTRIB
  5
131
100
AcDbEntity
  8
0
 62
     1
100
AcDbText
 10
190307.432471
 20
1679567.595317
 30
0.0
 40
0.75
  1
5
 41
0.954526
  7
SIMPLEX
100
AcDbAttribute
  2
PONTO
 70
     8
  0
ATTRIB
  5
132
100
AcDbEntity
  8
0
 62
     4
100
AcDbText
 10
190307.432471
 20
1679568.495317
 30
0.0
 40
0.75
  1
I
 41
0.699986
  7
SIMPLEX
100
AcDbAttribute
  2
DESC
 70
     9
  0
ATTRIB
  5
133
100
AcDbEntity
  8
0
 62
     2
100
AcDbText
 10
190307.432471
 20
1679566.145317
 30
0.0
 40
0.75
  1

 41
0.699986
  7
SIMPLEX
100
AcDbAttribute
  2
COTA
 70
     9
  0
SEQEND
  5
134
100
AcDbEntity
  8
0
  0
INSERT
  5
135
100
AcDbEntity
  8
_TG
 62
     3
100
AcDbBlockReference
 66
     1
  2
SIMB_PONTO
 10
190501.986
 20
1679359.809
 30
0.0
  0
ATTRIB
  5
136
100
AcDbEntity
  8
0
 62
     1
100
AcDbText
 10
190502.336
 20
1679360.159
 30
0.0
 40
0.75
  1
5000
 41
0.954526
  7
SIMPLEX
100
AcDbAttribute
  2
PONTO
 70
     8
  0
ATTRIB
  5
137
100
AcDbEntity
  8
0
 62
     4
100
AcDbText
 10
190502.336
 20
1679361.059
 30
0.0
 40
0.75
  1

 41
0.699986
  7
SIMPLEX
100
AcDbAttribute
  2
DESC
 70
     9
  0
ATTRIB
  5
138
100
AcDbEntity
  8
0
 62
     2
100
AcDbText
 10
190502.336
 20
1679358.709
 30
0.0
 40
0.75
  1

 41
0.699986
  7
SIMPLEX
100
AcDbAttribute
  2
COTA
 70
     9
  0
SEQEND
  5
139
100
AcDbEntity
  8
0
  0
INSERT
  5
13A
100
AcDbEntity
  8
_TG
 62
     3
100
AcDbBlockReference
 66
     1
  2
SIMB_PONTO
 10
190306.939606
 20
1679574.344928
 30
0.0
  0
ATTRIB
  5
13B
100
AcDbEntity
  8
0
 62
     1
100
AcDbText
 10
190307.289606
 20
1679574.694928
 30
0.0
 40
0.75
  1
6
 41
0.954526
  7
SIMPLEX
100
AcDbAttribute
  2
PONTO
 70
     8
  0
ATTRIB
  5
13C
100
AcDbEntity
  8
0
 62
     4
100
AcDbText
 10
190307.289606
 20
1679575.594928
 30
0.0
 40
0.75
  1
I
 41
0.699986
  7
SIMPLEX
100
AcDbAttribute
  2
DESC
 70
     9
  0
ATTRIB
  5
13D
100
AcDbEntity
  8
0
 62
     2
100
AcDbText
 10
190307.289606
 20
1679573.244928
 30
0.0
 40
0.75
  1

 41
0.699986
  7
SIMPLEX
100
AcDbAttribute
  2
COTA
 70
     9
  0
SEQEND
  5
13E
100
AcDbEntity
  8
0
  0
INSERT
  5
13F
100
AcDbEntity
  8
_TG
 62
     3
100
AcDbBlockReference
 66
     1
  2
SIMB_PONTO
 10
190297.767564
 20
1679567.207343
 30
0.0
  0
ATTRIB
  5
140
100
AcDbEntity
  8
0
 62
     1
100
AcDbText
 10
190298.117564
 20
1679567.557343
 30
0.0
 40
0.75
  1
7
 41
0.954526
  7
SIMPLEX
100
AcDbAttribute
  2
PONTO
 70
     8
  0
ATTRIB
  5
141
100
AcDbEntity
  8
0
 62
     4
100
AcDbText
 10
190298.117564
 20
1679568.457343
 30
0.0
 40
0.75
  1
I
 41
0.699986
  7
SIMPLEX
100
AcDbAttribute
  2
DESC
 70
     9
  0
ATTRIB
  5
142
100
AcDbEntity
  8
0
 62
     2
100
AcDbText
 10
190298.117564
 20
1679566.107343
 30
0.0
 40
0.75
  1

 41
0.699986
  7
SIMPLEX
100
AcDbAttribute
  2
COTA
 70
     9
  0
SEQEND
  5
143
100
AcDbEntity
  8
0
  0
INSERT
  5
144
100
AcDbEntity
  8
_TG
 62
     3
100
AcDbBlockReference
 66
     1
  2
SIMB_PONTO
 10
190291.076582
 20
1679561.334753
 30
0.0
  0
ATTRIB
  5
145
100
AcDbEntity
  8
0
 62
     1
100
AcDbText
 10
190291.426582
 20
1679561.684753
 30
0.0
 40
0.75
  1
8
 41
0.954526
  7
SIMPLEX
100
AcDbAttribute
  2
PONTO
 70
     8
  0
ATTRIB
  5
146
100
AcDbEntity
  8
0
 62
     4
100
AcDbText
 10
190291.426582
 20
1679562.584753
 30
0.0
 40
0.75
  1
I
 41
0.699986
  7
SIMPLEX
100
AcDbAttribute
  2
DESC
 70
     9
  0
ATTRIB
  5
147
100
AcDbEntity
  8
0
 62
     2
100
AcDbText
 10
190291.426582
 20
1679560.234753
 30
0.0
 40
0.75
  1

 41
0.699986
  7
SIMPLEX
100
AcDbAttribute
  2
COTA
 70
     9
  0
SEQEND
  5
148
100
AcDbEntity
  8
0
  0
INSERT
  5
149
100
AcDbEntity
  8
_TG
 62
     3
100
AcDbBlockReference
 66
     1
  2
SIMB_PONTO
 10
190293.159101
 20
1679585.964774
 30
0.0
  0
ATTRIB
  5
14A
100
AcDbEntity
  8
0
 62
     1
100
AcDbText
 10
190293.509101
 20
1679586.314774
 30
0.0
 40
0.75
  1
9
 41
0.954526
  7
SIMPLEX
100
AcDbAttribute
  2
PONTO
 70
     8
  0
ATTRIB
  5
14B
100
AcDbEntity
  8
0
 62
     4
100
AcDbText
 10
190293.509101
 20
1679587.214774
 30
0.0
 40
0.75
  1
I
 41
0.699986
  7
SIMPLEX
100
AcDbAttribute
  2
DESC
 70
     9
  0
ATTRIB
  5
14C
100
AcDbEntity
  8
0
 62
     2
100
AcDbText
 10
190293.509101
 20
1679584.864774
 30
0.0
 40
0.75
  1

 41
0.699986
  7
SIMPLEX
100
AcDbAttribute
  2
COTA
 70
     9
  0
SEQEND
  5
14D
100
AcDbEntity
  8
0
  0
INSERT
  5
14E
100
AcDbEntity
  8
_TG
 62
     3
100
AcDbBlockReference
 66
     1
  2
SIMB_PONTO
 10
190264.918359
 20
1679611.282626
 30
0.0
  0
ATTRIB
  5
14F
100
AcDbEntity
  8
0
 62
     1
100
AcDbText
 10
190265.268359
 20
1679611.632626
 30
0.0
 40
0.75
  1
E2
 41
0.954526
  7
SIMPLEX
100
AcDbAttribute
  2
PONTO
 70
     8
  0
ATTRIB
  5
150
100
AcDbEntity
  8
0
 62
     4
100
AcDbText
 10
190265.268359
 20
1679612.532626
 30
0.0
 40
0.75
  1

 41
0.699986
  7
SIMPLEX
100
AcDbAttribute
  2
DESC
 70
     9
  0
ATTRIB
  5
151
100
AcDbEntity
  8
0
 62
     2
100
AcDbText
 10
190265.268359
 20
1679610.182626
 30
0.0
 40
0.75
  1

 41
0.699986
  7
SIMPLEX
100
AcDbAttribute
  2
COTA
 70
     9
  0
SEQEND
  5
152
100
AcDbEntity
  8
0
  0
ENDSEC
  0
SECTION
  2
OBJECTS
  0
DICTIONARY
  5
19
100
AcDbDictionary
  3
ACAD_GROUP
350
1A
  3
ACAD_MLINESTYLE
350
1B
  0
DICTIONARY
  5
1A
102
{ACAD_REACTORS
330
19
102
}
100
AcDbDictionary
  0
DICTIONARY
  5
1B
102
{ACAD_REACTORS
330
19
102
}
100
AcDbDictionary
  3
STANDARD
350
1C
  0
MLINESTYLE
  5
1C
102
{ACAD_REACTORS
330
1B
102
}
100
AcDbMlineStyle
  2
STANDARD
 70
     0
  3

 62
     0
 51
90.0
 52
90.0
 71
     2
 49
0.5
 62
   256
  6
BYLAYER
 49
-0.5
 62
   256
  6
BYLAYER
  0
ENDSEC
  0
EOF
