  0
SECTION
  2
HEADER
  9
$ACADVER
  1
AC1014
  9
$ACADMAINTVER
 70
     0
  9
$DWGCODEPAGE
  3
ANSI_1252
  9
$INSBASE
 10
0.0
 20
0.0
 30
0.0
  9
$EXTMIN
 10
176622.067976
 20
1676119.683995
 30
0.0
  9
$EXTMAX
 10
176904.483453
 20
1676295.653583
 30
0.0
  9
$LIMMIN
 10
0.0
 20
0.0
  9
$LIMMAX
 10
0.0
 20
0.0
  9
$ORTHOMODE
 70
     0
  9
$REGENMODE
 70
     1
  9
$FILLMODE
 70
     1
  9
$QTEXTMODE
 70
     0
  9
$MIRRTEXT
 70
     1
  9
$DRAGMODE
 70
     2
  9
$LTSCALE
 40
1.0
  9
$OSMODE
 70
     0
  9
$ATTMODE
 70
     1
  9
$TEXTSIZE
 40
0.2
  9
$TRACEWID
 40
0.05
  9
$TEXTSTYLE
  7
STANDARD
  9
$CLAYER
  8
0
  9
$CELTYPE
  6
CONTINUOUS
  9
$CECOLOR
 62
   256
  9
$CELTSCALE
 40
1.0
  9
$DELOBJ
 70
     1
  9
$DISPSILH
 70
     0
  9
$DIMSCALE
 40
1.0
  9
$DIMASZ
 40
0.18
  9
$DIMEXO
 40
0.0625
  9
$DIMDLI
 40
0.38
  9
$DIMRND
 40
0.0
  9
$DIMDLE
 40
0.0
  9
$DIMEXE
 40
0.18
  9
$DIMTP
 40
0.0
  9
$DIMTM
 40
0.0
  9
$DIMTXT
 40
0.18
  9
$DIMCEN
 40
0.09
  9
$DIMTSZ
 40
0.0
  9
$DIMTOL
 70
     0
  9
$DIMLIM
 70
     0
  9
$DIMTIH
 70
     1
  9
$DIMTOH
 70
     1
  9
$DIMSE1
 70
     0
  9
$DIMSE2
 70
     0
  9
$DIMTAD
 70
     0
  9
$DIMZIN
 70
     0
  9
$DIMBLK
  1

  9
$DIMASO
 70
     1
  9
$DIMSHO
 70
     1
  9
$DIMPOST
  1

  9
$DIMAPOST
  1

  9
$DIMALT
 70
     0
  9
$DIMALTD
 70
     2
  9
$DIMALTF
 40
25.4
  9
$DIMLFAC
 40
1.0
  9
$DIMTOFL
 70
     0
  9
$DIMTVP
 40
0.0
  9
$DIMTIX
 70
     0
  9
$DIMSOXD
 70
     0
  9
$DIMSAH
 70
     0
  9
$DIMBLK1
  1

  9
$DIMBLK2
  1

  9
$DIMSTYLE
  2
STANDARD
  9
$DIMCLRD
 70
     0
  9
$DIMCLRE
 70
     0
  9
$DIMCLRT
 70
     0
  9
$DIMTFAC
 40
1.0
  9
$DIMGAP
 40
0.09
  9
$DIMJUST
 70
     0
  9
$DIMSD1
 70
     0
  9
$DIMSD2
 70
     0
  9
$DIMTOLJ
 70
     1
  9
$DIMTZIN
 70
     0
  9
$DIMALTZ
 70
     0
  9
$DIMALTTZ
 70
     0
  9
$DIMFIT
 70
     3
  9
$DIMUPT
 70
     0
  9
$DIMUNIT
 70
     2
  9
$DIMDEC
 70
     4
  9
$DIMTDEC
 70
     4
  9
$DIMALTU
 70
     2
  9
$DIMALTTD
 70
     2
  9
$DIMTXSTY
  7
STANDARD
  9
$DIMAUNIT
 70
     0
  9
$LUNITS
 70
     2
  9
$LUPREC
 70
     4
  9
$SKETCHINC
 40
0.1
  9
$FILLETRAD
 40
0.0
  9
$AUNITS
 70
     0
  9
$AUPREC
 70
     0
  9
$MENU
  1
acad
  9
$ELEVATION
 40
0.0
  9
$PELEVATION
 40
0.0
  9
$THICKNESS
 40
0.0
  9
$LIMCHECK
 70
     0
  9
$BLIPMODE
 70
     1
  9
$CHAMFERA
 40
0.0
  9
$CHAMFERB
 40
0.0
  9
$CHAMFERC
 40
0.0
  9
$CHAMFERD
 40
0.0
  9
$SKPOLY
 70
     0
  9
$TDCREATE
 40
0.000000000
  9
$TDUPDATE
 40
0.000000000
  9
$TDINDWG
 40
0.0000000000
  9
$TDUSRTIMER
 40
0.0000000000
  9
$USRTIMER
 70
     1
  9
$ANGBASE
 50
0.0
  9
$ANGDIR
 70
     0
  9
$PDMODE
 70
     0
  9
$PDSIZE
 40
0.0
  9
$PLINEWID
 40
0.0
  9
$COORDS
 70
     0
  9
$SPLFRAME
 70
     0
  9
$SPLINETYPE
 70
     6
  9
$SPLINESEGS
 70
     8
  9
$ATTDIA
 70
     0
  9
$ATTREQ
 70
     1
  9
$HANDLING
 70
     1
  9
$HANDSEED
  5
6DD
  9
$SURFTAB1
 70
     6
  9
$SURFTAB2
 70
     6
  9
$SURFTYPE
 70
     6
  9
$SURFU
 70
     6
  9
$SURFV
 70
     6
  9
$UCSNAME
  2

  9
$UCSORG
 10
0.0
 20
0.0
 30
0.0
  9
$UCSXDIR
 10
1.0
 20
0.0
 30
0.0
  9
$UCSYDIR
 10
0.0
 20
1.0
 30
0.0
  9
$PUCSNAME
  2

  9
$PUCSORG
 10
0.0
 20
0.0
 30
0.0
  9
$PUCSXDIR
 10
1.0
 20
0.0
 30
0.0
  9
$PUCSYDIR
 10
0.0
 20
1.0
 30
0.0
  9
$USERI1
 70
     0
  9
$USERI2
 70
     0
  9
$USERI3
 70
     0
  9
$USERI4
 70
     0
  9
$USERI5
 70
     0
  9
$USERR1
 40
0.0
  9
$USERR2
 40
0.0
  9
$USERR3
 40
0.0
  9
$USERR4
 40
0.0
  9
$USERR5
 40
0.0
  9
$WORLDVIEW
 70
     1
  9
$SHADEDGE
 70
     3
  9
$SHADEDIF
 70
    70
  9
$TILEMODE
 70
     1
  9
$MAXACTVP
 70
    16
  9
$PINSBASE
 10
0.0
 20
0.0
 30
0.0
  9
$PLIMCHECK
 70
     0
  9
$PEXTMIN
 10
1.000000E+20
 20
1.000000E+20
 30
1.000000E+20
  9
$PEXTMAX
 10
-1.000000E+20
 20
-1.000000E+20
 30
-1.000000E+20
  9
$PLIMMIN
 10
0.0
 20
0.0
  9
$PLIMMAX
 10
12.0
 20
9.0
  9
$UNITMODE
 70
     0
  9
$VISRETAIN
 70
     0
  9
$PLINEGEN
 70
     1
  9
$PSLTSCALE
 70
     0
  9
$TREEDEPTH
 70
  3020
  9
$PICKSTYLE
 70
     1
  9
$CMLSTYLE
  2
STANDARD
  9
$CMLJUST
 70
     0
  9
$CMLSCALE
 40
1.0
  9
$PROXYGRAPHICS
 70
     0
  9
$MEASUREMENT
 70
     0
  0
ENDSEC
  0
SECTION
  2
CLASSES
  0
CLASS
  1
LWPOLYLINE
  2
AcDbPolyline
  3
"AutoCAD"
 90
        0
280
     0
281
     1
  0
CLASS
  1
IMAGE
  2
AcDbRasterImage
  3
ISM
 90
      127
280
     0
281
     1
  0
CLASS
  1
OLE2FRAME
  2
AcDbOle2Frame
  3
""
 90
        0
280
     0
281
     1
  0
CLASS
  1
HATCH
  2
AcDbHatch
  3
"ACAD_SEDONA"
 90
        0
280
     0
281
     1
  0
CLASS
  1
DICTIONARYVAR
  2
AcDbDictionaryVar
  3
"AutoCAD"
 90
        0
280
     0
281
     0
  0
CLASS
  1
RASTERVARIABLES
  2
AcDbRasterVariables
  3
ISM
 90
        0
280
     0
281
     0
  0
CLASS
  1
IMAGEDEF
  2
AcDbRasterImageDef
  3
ISM
 90
        0
280
     0
281
     0
  0
CLASS
  1
IMAGEDEF_REACTOR
  2
AcDbRasterImageDefReactor
  3
ISM
 90
        1
280
     0
281
     0
  0
CLASS
  1
IDBUFFER
  2
AcDbIdBuffer
  3
"Acad"
 90
        0
280
     0
281
     0
  0
CLASS
  1
SPATIAL_FILTER
  2
AcDbSpatialFilter
  3
"Acad"
 90
        0
280
     0
281
     0
  0
CLASS
  1
XRECORD
  2
AcDbXrecord
  3
"<Built In>"
 90
        0
280
     0
281
     0
  0
CLASS
  1
SORTENTSTABLE
  2
AcDbSortentsTable
  3
"AutoCAD"
 90
        0
280
     0
281
     0
  0
CLASS
  1
LAYER_INDEX
  2
AcDbLayerIndex
  3
"Acad"
 90
        0
280
     0
281
     0
  0
CLASS
  1
SPATIAL_INDEX
  2
AcDbSpatialIndex
  3
"Acad"
 90
        0
280
     0
281
     0
  0
CLASS
  1
OBJECT_PTR
  2
CAseDLPNTableRecord
  3
"ASE-LPNTableRecord"
 90
        1
280
     0
281
     0
  0
ENDSEC
  0
SECTION
  2
TABLES
  0
TABLE
  2
VPORT
  5
7
100
AcDbSymbolTable
 70
     1
  0
VPORT
  5
15
100
AcDbSymbolTableRecord
100
AcDbViewportTableRecord
  2
*ACTIVE
 70
     0
 10
0.0
 20
0.0
 11
1.0
 21
1.0
 12
6.591288
 22
4.579184
 13
0.0
 23
0.0
 14
1.0
 24
1.0
 15
0.0
 25
0.0
 16
0.0
 26
0.0
 36
1.0
 17
0.0
 27
0.0
 37
0.0
 40
9.158369
 41
0.688564
 42
50.0
 43
0.0
 44
0.0
 50
0.0
 51
0.0
 71
     0
 72
   100
 73
     1
 74
     1
 75
     0
 76
     0
 77
     0
 78
     0
  0
ENDTAB
  0
TABLE
  2
LTYPE
  5
4
100
AcDbSymbolTable
 70
    10
  0
LTYPE
  5
11
100
AcDbSymbolTableRecord
100
AcDbLinetypeTableRecord
  2
BYBLOCK
 70
     0
  3

 72
    65
 73
     0
 40
0.0
  0
LTYPE
  5
12
100
AcDbSymbolTableRecord
100
AcDbLinetypeTableRecord
  2
BYLAYER
 70
     0
  3

 72
    65
 73
     0
 40
0.0
  0
LTYPE
  5
13
100
AcDbSymbolTableRecord
100
AcDbLinetypeTableRecord
  2
CONTINUOUS
 70
     0
  3
Solid line
 72
    65
 73
     0
 40
0.0
  0
LTYPE
  5
1D
100
AcDbSymbolTableRecord
100
AcDbLinetypeTableRecord
  2
TRACEJADO
 70
     0
  3
topoGRAPH
 72
    65
 73
     2
 40
4.35
 49
4.0
 74
     0
 49
-0.35
 74
     0
  0
LTYPE
  5
1E
100
AcDbSymbolTableRecord
100
AcDbLinetypeTableRecord
  2
TRACO-PONTO
 70
     0
  3
topoGRAPH
 72
    65
 73
     4
 40
4.7
 49
4.0
 74
     0
 49
-0.35
 74
     0
 49
0.0
 74
     0
 49
-0.35
 74
     0
  0
LTYPE
  5
1F
100
AcDbSymbolTableRecord
100
AcDbLinetypeTableRecord
  2
CERCA
 70
     0
  3
topoGRAPH
 72
    65
 73
     4
 40
4.7
 49
4.0
 74
     0
 49
-0.35
 74
     0
 49
0.0
 74
     0
 49
-0.35
 74
     0
  0
LTYPE
  5
20
100
AcDbSymbolTableRecord
100
AcDbLinetypeTableRecord
  2
PONTILHADO
 70
     0
  3
topoGRAPH
 72
    65
 73
     2
 40
0.5
 49
0.0
 74
     0
 49
-0.5
 74
     0
  0
LTYPE
  5
21
100
AcDbSymbolTableRecord
100
AcDbLinetypeTableRecord
  2
CERCA_VIVA
 70
     0
  3
topoGRAPH
 72
    65
 73
     4
 40
4.7
 49
4.0
 74
     0
 49
-0.35
 74
     0
 49
0.0
 74
     0
 49
-0.35
 74
     0
  0
LTYPE
  5
22
100
AcDbSymbolTableRecord
100
AcDbLinetypeTableRecord
  2
TAPUME
 70
     0
  3
topoGRAPH
 72
    65
 73
     4
 40
4.7
 49
4.0
 74
     0
 49
-0.35
 74
     0
 49
0.0
 74
     0
 49
-0.35
 74
     0
  0
LTYPE
  5
23
100
AcDbSymbolTableRecord
100
AcDbLinetypeTableRecord
  2
CONTINUO
 70
     0
  3
topoGRAPH
 72
    65
 73
     0
 40
0.0
  0
ENDTAB
  0
TABLE
  2
LAYER
  5
2
100
AcDbSymbolTable
 70
     5
  0
LAYER
  5
14
100
AcDbSymbolTableRecord
100
AcDbLayerTableRecord
  2
0
 70
     0
 62
     7
  6
CONTINUOUS
  0
LAYER
  5
33
100
AcDbSymbolTableRecord
100
AcDbLayerTableRecord
  2
TG
 70
     0
 62
     7
  6
CONTINUO
  0
LAYER
  5
34
100
AcDbSymbolTableRecord
100
AcDbLayerTableRecord
  2
MALHATRITG
 70
     0
 62
     7
  6
CONTINUO
  0
LAYER
  5
35
100
AcDbSymbolTableRecord
100
AcDbLayerTableRecord
  2
CURVASTG
 70
     0
 62
     7
  6
CONTINUO
  0
LAYER
  5
AF
100
AcDbSymbolTableRecord
100
AcDbLayerTableRecord
  2
_TG
 70
     0
 62
     7
  6
CONTINUO
  0
ENDTAB
  0
TABLE
  2
STYLE
  5
3
100
AcDbSymbolTable
 70
    16
  0
STYLE
  5
17
100
AcDbSymbolTableRecord
100
AcDbTextStyleTableRecord
  2
STANDARD
 70
     0
 40
0.0
 41
1.0
 50
0.0
 71
     0
 42
0.0
  3
txt
  4

  0
STYLE
  5
24
100
AcDbSymbolTableRecord
100
AcDbTextStyleTableRecord
  2
TXT
 70
     0
 40
0.2
 41
1.0
 50
0.0
 71
     0
 42
0.2
  3
txt
  4

  0
STYLE
  5
25
100
AcDbSymbolTableRecord
100
AcDbTextStyleTableRecord
  2
MONOTXT
 70
     0
 40
0.2
 41
1.0
 50
0.0
 71
     0
 42
0.2
  3
monotxt
  4

  0
STYLE
  5
26
100
AcDbSymbolTableRecord
100
AcDbTextStyleTableRecord
  2
SIMPLEX
 70
     0
 40
0.2
 41
1.0
 50
0.0
 71
     0
 42
0.2
  3
simplex
  4

  0
STYLE
  5
27
100
AcDbSymbolTableRecord
100
AcDbTextStyleTableRecord
  2
COMPLEX
 70
     0
 40
0.2
 41
1.0
 50
0.0
 71
     0
 42
0.2
  3
complex
  4

  0
STYLE
  5
28
100
AcDbSymbolTableRecord
100
AcDbTextStyleTableRecord
  2
ROMANS
 70
     0
 40
0.2
 41
1.0
 50
0.0
 71
     0
 42
0.2
  3
romans
  4

  0
STYLE
  5
29
100
AcDbSymbolTableRecord
100
AcDbTextStyleTableRecord
  2
ROMAND
 70
     0
 40
0.2
 41
1.0
 50
0.0
 71
     0
 42
0.2
  3
romand
  4

  0
STYLE
  5
2A
100
AcDbSymbolTableRecord
100
AcDbTextStyleTableRecord
  2
ROMANC
 70
     0
 40
0.2
 41
1.0
 50
0.0
 71
     0
 42
0.2
  3
romanc
  4

  0
STYLE
  5
2B
100
AcDbSymbolTableRecord
100
AcDbTextStyleTableRecord
  2
ROMANT
 70
     0
 40
0.2
 41
1.0
 50
0.0
 71
     0
 42
0.2
  3
romant
  4

  0
STYLE
  5
2C
100
AcDbSymbolTableRecord
100
AcDbTextStyleTableRecord
  2
ITALIC
 70
     0
 40
0.2
 41
1.0
 50
0.0
 71
     0
 42
0.2
  3
italic
  4

  0
STYLE
  5
2D
100
AcDbSymbolTableRecord
100
AcDbTextStyleTableRecord
  2
ITALICC
 70
     0
 40
0.2
 41
1.0
 50
0.0
 71
     0
 42
0.2
  3
italicc
  4

  0
STYLE
  5
2E
100
AcDbSymbolTableRecord
100
AcDbTextStyleTableRecord
  2
ITALICT
 70
     0
 40
0.2
 41
1.0
 50
0.0
 71
     0
 42
0.2
  3
italict
  4

  0
STYLE
  5
2F
100
AcDbSymbolTableRecord
100
AcDbTextStyleTableRecord
  2
SCRIPTC
 70
     0
 40
0.2
 41
1.0
 50
0.0
 71
     0
 42
0.2
  3
scriptc
  4

  0
STYLE
  5
30
100
AcDbSymbolTableRecord
100
AcDbTextStyleTableRecord
  2
SCRIPTS
 70
     0
 40
0.2
 41
1.0
 50
0.0
 71
     0
 42
0.2
  3
scripts
  4

  0
STYLE
  5
31
100
AcDbSymbolTableRecord
100
AcDbTextStyleTableRecord
  2
GOTHICE
 70
     0
 40
0.2
 41
1.0
 50
0.0
 71
     0
 42
0.2
  3
gothice
  4

  0
STYLE
  5
32
100
AcDbSymbolTableRecord
100
AcDbTextStyleTableRecord
  2
GOTHICG
 70
     0
 40
0.2
 41
1.0
 50
0.0
 71
     0
 42
0.2
  3
gothicg
  4

  0
ENDTAB
  0
TABLE
  2
VIEW
  5
5
100
AcDbSymbolTable
 70
     0
  0
ENDTAB
  0
TABLE
  2
UCS
  5
6
100
AcDbSymbolTable
 70
     0
  0
ENDTAB
  0
TABLE
  2
APPID
  5
8
100
AcDbSymbolTable
 70
     1
  0
APPID
  5
16
100
AcDbSymbolTableRecord
100
AcDbRegAppTableRecord
  2
ACAD
 70
     0
  0
ENDTAB
  0
TABLE
  2
DIMSTYLE
  5
9
100
AcDbSymbolTable
 70
     1
  0
DIMSTYLE
105
18
100
AcDbSymbolTableRecord
100
AcDbDimStyleTableRecord
  2
STANDARD
 70
     0
  3

  4

  5

  6

  7

 40
1.0
 41
0.18
 42
0.0625
 43
0.38
 44
0.18
 45
0.0
 46
0.0
 47
0.0
 48
0.0
140
0.18
141
0.09
142
0.0
143
25.4
144
1.0
145
0.0
146
1.0
147
0.09
 71
     0
 72
     0
 73
     1
 74
     1
 75
     0
 76
     0
 77
     0
 78
     0
170
     0
171
     2
172
     0
173
     0
174
     0
175
     0
176
     0
177
     0
178
     0
270
     2
271
     4
272
     4
273
     2
274
     2
340
17
275
     0
280
     0
281
     0
282
     0
283
     1
284
     0
285
     0
286
     0
287
     0
288
     0
  0
ENDTAB
  0
TABLE
  2
BLOCK_RECORD
  5
1
100
AcDbSymbolTable
 70
    10
  0
BLOCK_RECORD
  5
A
100
AcDbSymbolTableRecord
100
AcDbBlockTableRecord
  2
*MODEL_SPACE
  0
BLOCK_RECORD
  5
B
100
AcDbSymbolTableRecord
100
AcDbBlockTableRecord
  2
*PAPER_SPACE
  0
BLOCK_RECORD
  5
36
100
AcDbSymbolTableRecord
100
AcDbBlockTableRecord
  2
SIMB_XIS
  0
BLOCK_RECORD
  5
44
100
AcDbSymbolTableRecord
100
AcDbBlockTableRecord
  2
SIMB_CIRCULO
  0
BLOCK_RECORD
  5
4C
100
AcDbSymbolTableRecord
100
AcDbBlockTableRecord
  2
SIMB_ARVORE
  0
BLOCK_RECORD
  5
58
100
AcDbSymbolTableRecord
100
AcDbBlockTableRecord
  2
SIMB_QUADRADO
  0
BLOCK_RECORD
  5
65
100
AcDbSymbolTableRecord
100
AcDbBlockTableRecord
  2
SIMB_BOLINHA
  0
BLOCK_RECORD
  5
6D
100
AcDbSymbolTableRecord
100
AcDbBlockTableRecord
  2
SIMB_CRUZETA
  0
BLOCK_RECORD
  5
7B
100
AcDbSymbolTableRecord
100
AcDbBlockTableRecord
  2
SIMB_BARRAS
  0
BLOCK_RECORD
  5
8A
100
AcDbSymbolTableRecord
100
AcDbBlockTableRecord
  2
SIMB_PONTO
  0
BLOCK_RECORD
  5
91
100
AcDbSymbolTableRecord
100
AcDbBlockTableRecord
  2
SIMB_TRIANGULO
  0
BLOCK_RECORD
  5
9D
100
AcDbSymbolTableRecord
100
AcDbBlockTableRecord
  2
SIMB_POSTE
  0
ENDTAB
  0
ENDSEC
  0
SECTION
  2
BLOCKS
  0
BLOCK
  5
D
100
AcDbEntity
  8
0
100
AcDbBlockBegin
  2
*MODEL_SPACE
 70
     0
 10
0.0
 20
0.0
 30
0.0
  3
*MODEL_SPACE
  1

  0
ENDBLK
  5
E
100
AcDbEntity
  8
0
100
AcDbBlockEnd
  0
BLOCK
  5
F
100
AcDbEntity
 67
     1
  8
0
100
AcDbBlockBegin
  2
*PAPER_SPACE
 70
     0
 10
0.0
 20
0.0
 30
0.0
  3
*PAPER_SPACE
  1

  0
ENDBLK
  5
10
100
AcDbEntity
 67
     1
  8
0
100
AcDbBlockEnd
  0
BLOCK
  5
37
100
AcDbEntity
  8
0
100
AcDbBlockBegin
  2
SIMB_XIS
 70
     0
 10
0.0
 20
0.0
 30
0.0
  3
SIMB_XIS
  1

  0
POLYLINE
  5
38
100
AcDbEntity
  8
0
 62
     0
100
AcDb2dPolyline
 66
     1
 10
0.0
 20
0.0
 30
0.0
  0
VERTEX
  5
39
100
AcDbEntity
  8
0
 62
     0
100
AcDbVertex
100
AcDb2dVertex
 10
-0.175
 20
-0.25
 30
0.0
  0
VERTEX
  5
3A
100
AcDbEntity
  8
0
 62
     0
100
AcDbVertex
100
AcDb2dVertex
 10
0.175
 20
0.25
 30
0.0
  0
SEQEND
  5
3B
100
AcDbEntity
  8
0
 62
     0
  0
POLYLINE
  5
3C
100
AcDbEntity
  8
0
 62
     0
100
AcDb2dPolyline
 66
     1
 10
0.0
 20
0.0
 30
0.0
  0
VERTEX
  5
3D
100
AcDbEntity
  8
0
 62
     0
100
AcDbVertex
100
AcDb2dVertex
 10
0.175
 20
-0.25
 30
0.0
  0
VERTEX
  5
3E
100
AcDbEntity
  8
0
 62
     0
100
AcDbVertex
100
AcDb2dVertex
 10
-0.175
 20
0.25
 30
0.0
  0
SEQEND
  5
3F
100
AcDbEntity
  8
0
 62
     0
  0
ATTDEF
  5
40
100
AcDbEntity
  8
0
100
AcDbText
 10
0.0
 20
0.0
 30
0.0
 40
1.0
  1

100
AcDbAttributeDefinition
  3
pto:
  2
PONTO
 70
     0
  0
ATTDEF
  5
41
100
AcDbEntity
  8
0
100
AcDbText
 10
0.0
 20
0.0
 30
0.0
 40
1.0
  1

100
AcDbAttributeDefinition
  3
desc:
  2
DESC
 70
     0
  0
ATTDEF
  5
42
100
AcDbEntity
  8
0
100
AcDbText
 10
0.0
 20
0.0
 30
0.0
 40
1.0
  1

100
AcDbAttributeDefinition
  3
ct:
  2
COTA
 70
     0
  0
ENDBLK
  5
43
100
AcDbEntity
  8
0
100
AcDbBlockEnd
  0
BLOCK
  5
45
100
AcDbEntity
  8
0
100
AcDbBlockBegin
  2
SIMB_CIRCULO
 70
     0
 10
0.0
 20
0.0
 30
0.0
  3
SIMB_CIRCULO
  1

  0
CIRCLE
  5
46
100
AcDbEntity
  8
0
 62
     0
100
AcDbCircle
 10
0.0
 20
0.0
 30
0.0
 40
0.25
  0
POINT
  5
47
100
AcDbEntity
  8
0
 62
     0
100
AcDbPoint
 10
0.0
 20
0.0
 30
0.0
  0
ATTDEF
  5
48
100
AcDbEntity
  8
0
100
AcDbText
 10
0.0
 20
0.0
 30
0.0
 40
1.0
  1

100
AcDbAttributeDefinition
  3
pto:
  2
PONTO
 70
     0
  0
ATTDEF
  5
49
100
AcDbEntity
  8
0
100
AcDbText
 10
0.0
 20
0.0
 30
0.0
 40
1.0
  1

100
AcDbAttributeDefinition
  3
desc:
  2
DESC
 70
     0
  0
ATTDEF
  5
4A
100
AcDbEntity
  8
0
100
AcDbText
 10
0.0
 20
0.0
 30
0.0
 40
1.0
  1

100
AcDbAttributeDefinition
  3
ct:
  2
COTA
 70
     0
  0
ENDBLK
  5
4B
100
AcDbEntity
  8
0
100
AcDbBlockEnd
  0
BLOCK
  5
4D
100
AcDbEntity
  8
0
100
AcDbBlockBegin
  2
SIMB_ARVORE
 70
     0
 10
0.0
 20
0.0
 30
0.0
  3
SIMB_ARVORE
  1

  0
ARC
  5
4E
100
AcDbEntity
  8
0
 62
     0
100
AcDbCircle
 10
-0.545
 20
0.75
 30
0.0
 40
0.575
100
AcDbArc
 50
18.749758
 51
233.130102
  0
ARC
  5
4F
100
AcDbEntity
  8
0
 62
     0
100
AcDbCircle
 10
-0.88
 20
-0.285
 30
0.0
 40
0.575
100
AcDbArc
 50
87.013363
 51
319.184916
  0
ARC
  5
50
100
AcDbEntity
  8
0
 62
     0
100
AcDbCircle
 10
0.0
 20
-0.925
 30
0.0
 40
0.575
100
AcDbArc
 50
162.824096
 51
17.175904
  0
ARC
  5
51
100
AcDbEntity
  8
0
 62
     0
100
AcDbCircle
 10
0.88
 20
-0.285
 30
0.0
 40
0.575
100
AcDbArc
 50
234.926246
 51
89.003652
  0
ARC
  5
52
100
AcDbEntity
  8
0
 62
     0
100
AcDbCircle
 10
0.545
 20
0.75
 30
0.0
 40
0.575
100
AcDbArc
 50
306.869898
 51
161.250242
  0
POINT
  5
53
100
AcDbEntity
  8
0
 62
     0
100
AcDbPoint
 10
0.0
 20
0.0
 30
0.0
  0
ATTDEF
  5
54
100
AcDbEntity
  8
0
100
AcDbText
 10
0.0
 20
0.0
 30
0.0
 40
1.0
  1

100
AcDbAttributeDefinition
  3
pto:
  2
PONTO
 70
     0
  0
ATTDEF
  5
55
100
AcDbEntity
  8
0
100
AcDbText
 10
0.0
 20
0.0
 30
0.0
 40
1.0
  1

100
AcDbAttributeDefinition
  3
desc:
  2
DESC
 70
     0
  0
ATTDEF
  5
56
100
AcDbEntity
  8
0
100
AcDbText
 10
0.0
 20
0.0
 30
0.0
 40
1.0
  1

100
AcDbAttributeDefinition
  3
ct:
  2
COTA
 70
     0
  0
ENDBLK
  5
57
100
AcDbEntity
  8
0
100
AcDbBlockEnd
  0
BLOCK
  5
59
100
AcDbEntity
  8
0
100
AcDbBlockBegin
  2
SIMB_QUADRADO
 70
     0
 10
0.0
 20
0.0
 30
0.0
  3
SIMB_QUADRADO
  1

  0
POLYLINE
  5
5A
100
AcDbEntity
  8
0
 62
     0
100
AcDb2dPolyline
 66
     1
 10
0.0
 20
0.0
 30
0.0
 70
     1
  0
VERTEX
  5
5B
100
AcDbEntity
  8
0
 62
     0
100
AcDbVertex
100
AcDb2dVertex
 10
-0.125
 20
-0.125
 30
0.0
  0
VERTEX
  5
5C
100
AcDbEntity
  8
0
 62
     0
100
AcDbVertex
100
AcDb2dVertex
 10
0.125
 20
-0.125
 30
0.0
  0
VERTEX
  5
5D
100
AcDbEntity
  8
0
 62
     0
100
AcDbVertex
100
AcDb2dVertex
 10
0.125
 20
0.125
 30
0.0
  0
VERTEX
  5
5E
100
AcDbEntity
  8
0
 62
     0
100
AcDbVertex
100
AcDb2dVertex
 10
-0.125
 20
0.125
 30
0.0
  0
SEQEND
  5
5F
100
AcDbEntity
  8
0
 62
     0
  0
POINT
  5
60
100
AcDbEntity
  8
0
 62
     0
100
AcDbPoint
 10
0.0
 20
0.0
 30
0.0
  0
ATTDEF
  5
61
100
AcDbEntity
  8
0
100
AcDbText
 10
0.0
 20
0.0
 30
0.0
 40
1.0
  1

100
AcDbAttributeDefinition
  3
pto:
  2
PONTO
 70
     0
  0
ATTDEF
  5
62
100
AcDbEntity
  8
0
100
AcDbText
 10
0.0
 20
0.0
 30
0.0
 40
1.0
  1

100
AcDbAttributeDefinition
  3
desc:
  2
DESC
 70
     0
  0
ATTDEF
  5
63
100
AcDbEntity
  8
0
100
AcDbText
 10
0.0
 20
0.0
 30
0.0
 40
1.0
  1

100
AcDbAttributeDefinition
  3
ct:
  2
COTA
 70
     0
  0
ENDBLK
  5
64
100
AcDbEntity
  8
0
100
AcDbBlockEnd
  0
BLOCK
  5
66
100
AcDbEntity
  8
0
100
AcDbBlockBegin
  2
SIMB_BOLINHA
 70
     0
 10
0.0
 20
0.0
 30
0.0
  3
SIMB_BOLINHA
  1

  0
CIRCLE
  5
67
100
AcDbEntity
  8
0
 62
     0
100
AcDbCircle
 10
0.0
 20
0.0
 30
0.0
 40
0.15
  0
POINT
  5
68
100
AcDbEntity
  8
0
 62
     0
100
AcDbPoint
 10
0.0
 20
0.0
 30
0.0
  0
ATTDEF
  5
69
100
AcDbEntity
  8
0
100
AcDbText
 10
0.0
 20
0.0
 30
0.0
 40
1.0
  1

100
AcDbAttributeDefinition
  3
pto:
  2
PONTO
 70
     0
  0
ATTDEF
  5
6A
100
AcDbEntity
  8
0
100
AcDbText
 10
0.0
 20
0.0
 30
0.0
 40
1.0
  1

100
AcDbAttributeDefinition
  3
desc:
  2
DESC
 70
     0
  0
ATTDEF
  5
6B
100
AcDbEntity
  8
0
100
AcDbText
 10
0.0
 20
0.0
 30
0.0
 40
1.0
  1

100
AcDbAttributeDefinition
  3
ct:
  2
COTA
 70
     0
  0
ENDBLK
  5
6C
100
AcDbEntity
  8
0
100
AcDbBlockEnd
  0
BLOCK
  5
6E
100
AcDbEntity
  8
0
100
AcDbBlockBegin
  2
SIMB_CRUZETA
 70
     0
 10
0.0
 20
0.0
 30
0.0
  3
SIMB_CRUZETA
  1

  0
POLYLINE
  5
6F
100
AcDbEntity
  8
0
 62
     0
100
AcDb2dPolyline
 66
     1
 10
0.0
 20
0.0
 30
0.0
  0
VERTEX
  5
70
100
AcDbEntity
  8
0
 62
     0
100
AcDbVertex
100
AcDb2dVertex
 10
-0.25
 20
0.0
 30
0.0
  0
VERTEX
  5
71
100
AcDbEntity
  8
0
 62
     0
100
AcDbVertex
100
AcDb2dVertex
 10
0.25
 20
0.0
 30
0.0
  0
SEQEND
  5
72
100
AcDbEntity
  8
0
 62
     0
  0
POLYLINE
  5
73
100
AcDbEntity
  8
0
 62
     0
100
AcDb2dPolyline
 66
     1
 10
0.0
 20
0.0
 30
0.0
  0
VERTEX
  5
74
100
AcDbEntity
  8
0
 62
     0
100
AcDbVertex
100
AcDb2dVertex
 10
0.0
 20
-0.25
 30
0.0
  0
VERTEX
  5
75
100
AcDbEntity
  8
0
 62
     0
100
AcDbVertex
100
AcDb2dVertex
 10
0.0
 20
0.25
 30
0.0
  0
SEQEND
  5
76
100
AcDbEntity
  8
0
 62
     0
  0
ATTDEF
  5
77
100
AcDbEntity
  8
0
100
AcDbText
 10
0.0
 20
0.0
 30
0.0
 40
1.0
  1

100
AcDbAttributeDefinition
  3
pto:
  2
PONTO
 70
     0
  0
ATTDEF
  5
78
100
AcDbEntity
  8
0
100
AcDbText
 10
0.0
 20
0.0
 30
0.0
 40
1.0
  1

100
AcDbAttributeDefinition
  3
desc:
  2
DESC
 70
     0
  0
ATTDEF
  5
79
100
AcDbEntity
  8
0
100
AcDbText
 10
0.0
 20
0.0
 30
0.0
 40
1.0
  1

100
AcDbAttributeDefinition
  3
ct:
  2
COTA
 70
     0
  0
ENDBLK
  5
7A
100
AcDbEntity
  8
0
100
AcDbBlockEnd
  0
BLOCK
  5
7C
100
AcDbEntity
  8
0
100
AcDbBlockBegin
  2
SIMB_BARRAS
 70
     0
 10
0.0
 20
0.0
 30
0.0
  3
SIMB_BARRAS
  1

  0
POLYLINE
  5
7D
100
AcDbEntity
  8
0
 62
     0
100
AcDb2dPolyline
 66
     1
 10
0.0
 20
0.0
 30
0.0
  0
VERTEX
  5
7E
100
AcDbEntity
  8
0
 62
     0
100
AcDbVertex
100
AcDb2dVertex
 10
-0.175
 20
-0.25
 30
0.0
  0
VERTEX
  5
7F
100
AcDbEntity
  8
0
 62
     0
100
AcDbVertex
100
AcDb2dVertex
 10
-0.05
 20
0.25
 30
0.0
  0
SEQEND
  5
80
100
AcDbEntity
  8
0
 62
     0
  0
POLYLINE
  5
81
100
AcDbEntity
  8
0
 62
     0
100
AcDb2dPolyline
 66
     1
 10
0.0
 20
0.0
 30
0.0
  0
VERTEX
  5
82
100
AcDbEntity
  8
0
 62
     0
100
AcDbVertex
100
AcDb2dVertex
 10
0.175
 20
0.25
 30
0.0
  0
VERTEX
  5
83
100
AcDbEntity
  8
0
 62
     0
100
AcDbVertex
100
AcDb2dVertex
 10
0.05
 20
-0.25
 30
0.0
  0
SEQEND
  5
84
100
AcDbEntity
  8
0
 62
     0
  0
POINT
  5
85
100
AcDbEntity
  8
0
 62
     0
100
AcDbPoint
 10
0.0
 20
0.0
 30
0.0
  0
ATTDEF
  5
86
100
AcDbEntity
  8
0
100
AcDbText
 10
0.0
 20
0.0
 30
0.0
 40
1.0
  1

100
AcDbAttributeDefinition
  3
pto:
  2
PONTO
 70
     0
  0
ATTDEF
  5
87
100
AcDbEntity
  8
0
100
AcDbText
 10
0.0
 20
0.0
 30
0.0
 40
1.0
  1

100
AcDbAttributeDefinition
  3
desc:
  2
DESC
 70
     0
  0
ATTDEF
  5
88
100
AcDbEntity
  8
0
100
AcDbText
 10
0.0
 20
0.0
 30
0.0
 40
1.0
  1

100
AcDbAttributeDefinition
  3
ct:
  2
COTA
 70
     0
  0
ENDBLK
  5
89
100
AcDbEntity
  8
0
100
AcDbBlockEnd
  0
BLOCK
  5
8B
100
AcDbEntity
  8
0
100
AcDbBlockBegin
  2
SIMB_PONTO
 70
     0
 10
0.0
 20
0.0
 30
0.0
  3
SIMB_PONTO
  1

  0
POINT
  5
8C
100
AcDbEntity
  8
0
 62
     0
100
AcDbPoint
 10
0.0
 20
0.0
 30
0.0
  0
ATTDEF
  5
8D
100
AcDbEntity
  8
0
100
AcDbText
 10
0.0
 20
0.0
 30
0.0
 40
1.0
  1

100
AcDbAttributeDefinition
  3
pto:
  2
PONTO
 70
     0
  0
ATTDEF
  5
8E
100
AcDbEntity
  8
0
100
AcDbText
 10
0.0
 20
0.0
 30
0.0
 40
1.0
  1

100
AcDbAttributeDefinition
  3
desc:
  2
DESC
 70
     0
  0
ATTDEF
  5
8F
100
AcDbEntity
  8
0
100
AcDbText
 10
0.0
 20
0.0
 30
0.0
 40
1.0
  1

100
AcDbAttributeDefinition
  3
ct:
  2
COTA
 70
     0
  0
ENDBLK
  5
90
100
AcDbEntity
  8
0
100
AcDbBlockEnd
  0
BLOCK
  5
92
100
AcDbEntity
  8
0
100
AcDbBlockBegin
  2
SIMB_TRIANGULO
 70
     0
 10
0.0
 20
0.0
 30
0.0
  3
SIMB_TRIANGULO
  1

  0
POLYLINE
  5
93
100
AcDbEntity
  8
0
 62
     0
100
AcDb2dPolyline
 66
     1
 10
0.0
 20
0.0
 30
0.0
 70
     1
  0
VERTEX
  5
94
100
AcDbEntity
  8
0
 62
     0
100
AcDbVertex
100
AcDb2dVertex
 10
-0.3
 20
-0.15
 30
0.0
  0
VERTEX
  5
95
100
AcDbEntity
  8
0
 62
     0
100
AcDbVertex
100
AcDb2dVertex
 10
0.0
 20
0.35
 30
0.0
  0
VERTEX
  5
96
100
AcDbEntity
  8
0
 62
     0
100
AcDbVertex
100
AcDb2dVertex
 10
0.3
 20
-0.15
 30
0.0
  0
SEQEND
  5
97
100
AcDbEntity
  8
0
 62
     0
  0
POINT
  5
98
100
AcDbEntity
  8
0
 62
     0
100
AcDbPoint
 10
0.0
 20
0.0
 30
0.0
  0
ATTDEF
  5
99
100
AcDbEntity
  8
0
100
AcDbText
 10
0.0
 20
0.0
 30
0.0
 40
1.0
  1

100
AcDbAttributeDefinition
  3
pto:
  2
PONTO
 70
     0
  0
ATTDEF
  5
9A
100
AcDbEntity
  8
0
100
AcDbText
 10
0.0
 20
0.0
 30
0.0
 40
1.0
  1

100
AcDbAttributeDefinition
  3
desc:
  2
DESC
 70
     0
  0
ATTDEF
  5
9B
100
AcDbEntity
  8
0
100
AcDbText
 10
0.0
 20
0.0
 30
0.0
 40
1.0
  1

100
AcDbAttributeDefinition
  3
ct:
  2
COTA
 70
     0
  0
ENDBLK
  5
9C
100
AcDbEntity
  8
0
100
AcDbBlockEnd
  0
BLOCK
  5
9E
100
AcDbEntity
  8
0
100
AcDbBlockBegin
  2
SIMB_POSTE
 70
     0
 10
0.0
 20
0.0
 30
0.0
  3
SIMB_POSTE
  1

  0
POLYLINE
  5
9F
100
AcDbEntity
  8
0
 62
     0
100
AcDb2dPolyline
 66
     1
 10
0.0
 20
0.0
 30
0.0
  0
VERTEX
  5
A0
100
AcDbEntity
  8
0
 62
     0
100
AcDbVertex
100
AcDb2dVertex
 10
0.0
 20
0.0
 30
0.0
  0
VERTEX
  5
A1
100
AcDbEntity
  8
0
 62
     0
100
AcDbVertex
100
AcDb2dVertex
 10
0.0
 20
2.5
 30
0.0
  0
SEQEND
  5
A2
100
AcDbEntity
  8
0
 62
     0
  0
POLYLINE
  5
A3
100
AcDbEntity
  8
0
 62
     0
100
AcDb2dPolyline
 66
     1
 10
0.0
 20
0.0
 30
0.0
  0
VERTEX
  5
A4
100
AcDbEntity
  8
0
 62
     0
100
AcDbVertex
100
AcDb2dVertex
 10
-0.75
 20
1.5
 30
0.0
  0
VERTEX
  5
A5
100
AcDbEntity
  8
0
 62
     0
100
AcDbVertex
100
AcDb2dVertex
 10
0.75
 20
1.5
 30
0.0
  0
SEQEND
  5
A6
100
AcDbEntity
  8
0
 62
     0
  0
POLYLINE
  5
A7
100
AcDbEntity
  8
0
 62
     0
100
AcDb2dPolyline
 66
     1
 10
0.0
 20
0.0
 30
0.0
  0
VERTEX
  5
A8
100
AcDbEntity
  8
0
 62
     0
100
AcDbVertex
100
AcDb2dVertex
 10
-0.5
 20
2.0
 30
0.0
  0
VERTEX
  5
A9
100
AcDbEntity
  8
0
 62
     0
100
AcDbVertex
100
AcDb2dVertex
 10
0.5
 20
2.0
 30
0.0
  0
SEQEND
  5
AA
100
AcDbEntity
  8
0
 62
     0
  0
ATTDEF
  5
AB
100
AcDbEntity
  8
0
100
AcDbText
 10
0.0
 20
0.0
 30
0.0
 40
1.0
  1

100
AcDbAttributeDefinition
  3
pto:
  2
PONTO
 70
     0
  0
ATTDEF
  5
AC
100
AcDbEntity
  8
0
100
AcDbText
 10
0.0
 20
0.0
 30
0.0
 40
1.0
  1

100
AcDbAttributeDefinition
  3
desc:
  2
DESC
 70
     0
  0
ATTDEF
  5
AD
100
AcDbEntity
  8
0
100
AcDbText
 10
0.0
 20
0.0
 30
0.0
 40
1.0
  1

100
AcDbAttributeDefinition
  3
ct:
  2
COTA
 70
     0
  0
ENDBLK
  5
AE
100
AcDbEntity
  8
0
100
AcDbBlockEnd
  0
ENDSEC
  0
SECTION
  2
ENTITIES
  0
INSERT
  5
B0
100
AcDbEntity
  8
_TG
 62
     3
100
AcDbBlockReference
 66
     1
  2
SIMB_PONTO
 10
176782.535203
 20
1676153.715426
 30
4.529423
  0
ATTRIB
  5
B1
100
AcDbEntity
  8
0
 62
     1
100
AcDbText
 10
176782.885203
 20
1676154.065426
 30
0.0
 40
0.75
  1
1
 41
0.954526
  7
SIMPLEX
100
AcDbAttribute
  2
PONTO
 70
     8
  0
ATTRIB
  5
B2
100
AcDbEntity
  8
0
 62
     4
100
AcDbText
 10
176782.885203
 20
1676154.965426
 30
0.0
 40
0.75
  1

 41
0.699986
  7
SIMPLEX
100
AcDbAttribute
  2
DESC
 70
     9
  0
ATTRIB
  5
B3
100
AcDbEntity
  8
0
 62
     2
100
AcDbText
 10
176781.760203
 20
1676152.615426
 30
0.0
 40
0.75
  1
4,529
 41
0.699986
  7
SIMPLEX
100
AcDbAttribute
  2
COTA
 70
     8
  0
SEQEND
  5
B4
100
AcDbEntity
  8
0
  0
INSERT
  5
B5
100
AcDbEntity
  8
_TG
 62
     3
100
AcDbBlockReference
 66
     1
  2
SIMB_PONTO
 10
176763.471935
 20
1676256.431818
 30
3.723664
  0
ATTRIB
  5
B6
100
AcDbEntity
  8
0
 62
     1
100
AcDbText
 10
176763.821935
 20
1676256.781818
 30
0.0
 40
0.75
  1
10
 41
0.954526
  7
SIMPLEX
100
AcDbAttribute
  2
PONTO
 70
     8
  0
ATTRIB
  5
B7
100
AcDbEntity
  8
0
 62
     4
100
AcDbText
 10
176763.821935
 20
1676257.681818
 30
0.0
 40
0.75
  1

 41
0.699986
  7
SIMPLEX
100
AcDbAttribute
  2
DESC
 70
     9
  0
ATTRIB
  5
B8
100
AcDbEntity
  8
0
 62
     2
100
AcDbText
 10
176762.696935
 20
1676255.331818
 30
0.0
 40
0.75
  1
3,724
 41
0.699986
  7
SIMPLEX
100
AcDbAttribute
  2
COTA
 70
     8
  0
SEQEND
  5
B9
100
AcDbEntity
  8
0
  0
INSERT
  5
BA
100
AcDbEntity
  8
_TG
 62
     3
100
AcDbBlockReference
 66
     1
  2
SIMB_PONTO
 10
176819.718317
 20
1676221.923776
 30
4.299187
  0
ATTRIB
  5
BB
100
AcDbEntity
  8
0
 62
     1
100
AcDbText
 10
176820.068317
 20
1676222.273776
 30
0.0
 40
0.75
  1
11
 41
0.954526
  7
SIMPLEX
100
AcDbAttribute
  2
PONTO
 70
     8
  0
ATTRIB
  5
BC
100
AcDbEntity
  8
0
 62
     4
100
AcDbText
 10
176820.068317
 20
1676223.173776
 30
0.0
 40
0.75
  1

 41
0.699986
  7
SIMPLEX
100
AcDbAttribute
  2
DESC
 70
     9
  0
ATTRIB
  5
BD
100
AcDbEntity
  8
0
 62
     2
100
AcDbText
 10
176818.943317
 20
1676220.823776
 30
0.0
 40
0.75
  1
4,299
 41
0.699986
  7
SIMPLEX
100
AcDbAttribute
  2
COTA
 70
     8
  0
SEQEND
  5
BE
100
AcDbEntity
  8
0
  0
INSERT
  5
BF
100
AcDbEntity
  8
_TG
 62
     3
100
AcDbBlockReference
 66
     1
  2
SIMB_PONTO
 10
176824.667246
 20
1676228.758358
 30
4.355345
  0
ATTRIB
  5
C0
100
AcDbEntity
  8
0
 62
     1
100
AcDbText
 10
176825.017246
 20
1676229.108358
 30
0.0
 40
0.75
  1
12
 41
0.954526
  7
SIMPLEX
100
AcDbAttribute
  2
PONTO
 70
     8
  0
ATTRIB
  5
C1
100
AcDbEntity
  8
0
 62
     4
100
AcDbText
 10
176825.017246
 20
1676230.008358
 30
0.0
 40
0.75
  1

 41
0.699986
  7
SIMPLEX
100
AcDbAttribute
  2
DESC
 70
     9
  0
ATTRIB
  5
C2
100
AcDbEntity
  8
0
 62
     2
100
AcDbText
 10
176823.892246
 20
1676227.658358
 30
0.0
 40
0.75
  1
4,355
 41
0.699986
  7
SIMPLEX
100
AcDbAttribute
  2
COTA
 70
     8
  0
SEQEND
  5
C3
100
AcDbEntity
  8
0
  0
INSERT
  5
C4
100
AcDbEntity
  8
_TG
 62
     3
100
AcDbBlockReference
 66
     1
  2
SIMB_PONTO
 10
176752.74423
 20
1676256.988284
 30
4.264888
  0
ATTRIB
  5
C5
100
AcDbEntity
  8
0
 62
     1
100
AcDbText
 10
176753.09423
 20
1676257.338284
 30
0.0
 40
0.75
  1
13
 41
0.954526
  7
SIMPLEX
100
AcDbAttribute
  2
PONTO
 70
     8
  0
ATTRIB
  5
C6
100
AcDbEntity
  8
0
 62
     4
100
AcDbText
 10
176753.09423
 20
1676258.238284
 30
0.0
 40
0.75
  1

 41
0.699986
  7
SIMPLEX
100
AcDbAttribute
  2
DESC
 70
     9
  0
ATTRIB
  5
C7
100
AcDbEntity
  8
0
 62
     2
100
AcDbText
 10
176751.96923
 20
1676255.888284
 30
0.0
 40
0.75
  1
4,265
 41
0.699986
  7
SIMPLEX
100
AcDbAttribute
  2
COTA
 70
     8
  0
SEQEND
  5
C8
100
AcDbEntity
  8
0
  0
INSERT
  5
C9
100
AcDbEntity
  8
_TG
 62
     3
100
AcDbBlockReference
 66
     1
  2
SIMB_PONTO
 10
176743.364252
 20
1676271.584591
 30
4.098224
  0
ATTRIB
  5
CA
100
AcDbEntity
  8
0
 62
     1
100
AcDbText
 10
176743.714252
 20
1676271.934591
 30
0.0
 40
0.75
  1
14
 41
0.954526
  7
SIMPLEX
100
AcDbAttribute
  2
PONTO
 70
     8
  0
ATTRIB
  5
CB
100
AcDbEntity
  8
0
 62
     4
100
AcDbText
 10
176743.714252
 20
1676272.834591
 30
0.0
 40
0.75
  1

 41
0.699986
  7
SIMPLEX
100
AcDbAttribute
  2
DESC
 70
     9
  0
ATTRIB
  5
CC
100
AcDbEntity
  8
0
 62
     2
100
AcDbText
 10
176742.589252
 20
1676270.484591
 30
0.0
 40
0.75
  1
4,098
 41
0.699986
  7
SIMPLEX
100
AcDbAttribute
  2
COTA
 70
     8
  0
SEQEND
  5
CD
100
AcDbEntity
  8
0
  0
INSERT
  5
CE
100
AcDbEntity
  8
_TG
 62
     3
100
AcDbBlockReference
 66
     1
  2
SIMB_PONTO
 10
176739.058188
 20
1676268.813538
 30
4.004542
  0
ATTRIB
  5
CF
100
AcDbEntity
  8
0
 62
     1
100
AcDbText
 10
176739.408188
 20
1676269.163538
 30
0.0
 40
0.75
  1
15
 41
0.954526
  7
SIMPLEX
100
AcDbAttribute
  2
PONTO
 70
     8
  0
ATTRIB
  5
D0
100
AcDbEntity
  8
0
 62
     4
100
AcDbText
 10
176739.408188
 20
1676270.063538
 30
0.0
 40
0.75
  1

 41
0.699986
  7
SIMPLEX
100
AcDbAttribute
  2
DESC
 70
     9
  0
ATTRIB
  5
D1
100
AcDbEntity
  8
0
 62
     2
100
AcDbText
 10
176738.283188
 20
1676267.713538
 30
0.0
 40
0.75
  1
4,005
 41
0.699986
  7
SIMPLEX
100
AcDbAttribute
  2
COTA
 70
     8
  0
SEQEND
  5
D2
100
AcDbEntity
  8
0
  0
INSERT
  5
D3
100
AcDbEntity
  8
_TG
 62
     3
100
AcDbBlockReference
 66
     1
  2
SIMB_PONTO
 10
176809.949775
 20
1676218.993812
 30
4.309608
  0
ATTRIB
  5
D4
100
AcDbEntity
  8
0
 62
     1
100
AcDbText
 10
176810.299775
 20
1676219.343812
 30
0.0
 40
0.75
  1
16
 41
0.954526
  7
SIMPLEX
100
AcDbAttribute
  2
PONTO
 70
     8
  0
ATTRIB
  5
D5
100
AcDbEntity
  8
0
 62
     4
100
AcDbText
 10
176810.299775
 20
1676220.243812
 30
0.0
 40
0.75
  1

 41
0.699986
  7
SIMPLEX
100
AcDbAttribute
  2
DESC
 70
     9
  0
ATTRIB
  5
D6
100
AcDbEntity
  8
0
 62
     2
100
AcDbText
 10
176809.224775
 20
1676217.893812
 30
0.0
 40
0.75
  1
4,310
 41
0.699986
  7
SIMPLEX
100
AcDbAttribute
  2
COTA
 70
     8
  0
SEQEND
  5
D7
100
AcDbEntity
  8
0
  0
INSERT
  5
D8
100
AcDbEntity
  8
_TG
 62
     3
100
AcDbBlockReference
 66
     1
  2
SIMB_PONTO
 10
176712.798451
 20
1676293.845578
 30
4.6409
  0
ATTRIB
  5
D9
100
AcDbEntity
  8
0
 62
     1
100
AcDbText
 10
176713.148451
 20
1676294.195578
 30
0.0
 40
0.75
  1
17
 41
0.954526
  7
SIMPLEX
100
AcDbAttribute
  2
PONTO
 70
     8
  0
ATTRIB
  5
DA
100
AcDbEntity
  8
0
 62
     4
100
AcDbText
 10
176713.148451
 20
1676295.095578
 30
0.0
 40
0.75
  1

 41
0.699986
  7
SIMPLEX
100
AcDbAttribute
  2
DESC
 70
     9
  0
ATTRIB
  5
DB
100
AcDbEntity
  8
0
 62
     2
100
AcDbText
 10
176712.073451
 20
1676292.745578
 30
0.0
 40
0.75
  1
4,641
 41
0.699986
  7
SIMPLEX
100
AcDbAttribute
  2
COTA
 70
     8
  0
SEQEND
  5
DC
100
AcDbEntity
  8
0
  0
INSERT
  5
DD
100
AcDbEntity
  8
_TG
 62
     3
100
AcDbBlockReference
 66
     1
  2
SIMB_PONTO
 10
176710.076208
 20
1676290.054979
 30
4.136098
  0
ATTRIB
  5
DE
100
AcDbEntity
  8
0
 62
     1
100
AcDbText
 10
176710.426208
 20
1676290.404979
 30
0.0
 40
0.75
  1
18
 41
0.954526
  7
SIMPLEX
100
AcDbAttribute
  2
PONTO
 70
     8
  0
ATTRIB
  5
DF
100
AcDbEntity
  8
0
 62
     4
100
AcDbText
 10
176710.426208
 20
1676291.304979
 30
0.0
 40
0.75
  1

 41
0.699986
  7
SIMPLEX
100
AcDbAttribute
  2
DESC
 70
     9
  0
ATTRIB
  5
E0
100
AcDbEntity
  8
0
 62
     2
100
AcDbText
 10
176709.351208
 20
1676288.954979
 30
0.0
 40
0.75
  1
4,136
 41
0.699986
  7
SIMPLEX
100
AcDbAttribute
  2
COTA
 70
     8
  0
SEQEND
  5
E1
100
AcDbEntity
  8
0
  0
INSERT
  5
E2
100
AcDbEntity
  8
_TG
 62
     3
100
AcDbBlockReference
 66
     1
  2
SIMB_PONTO
 10
176726.852639
 20
1676248.423644
 30
4.3682
  0
ATTRIB
  5
E3
100
AcDbEntity
  8
0
 62
     1
100
AcDbText
 10
176727.202639
 20
1676248.773644
 30
0.0
 40
0.75
  1
19
 41
0.954526
  7
SIMPLEX
100
AcDbAttribute
  2
PONTO
 70
     8
  0
ATTRIB
  5
E4
100
AcDbEntity
  8
0
 62
     4
100
AcDbText
 10
176727.202639
 20
1676249.673644
 30
0.0
 40
0.75
  1

 41
0.699986
  7
SIMPLEX
100
AcDbAttribute
  2
DESC
 70
     9
  0
ATTRIB
  5
E5
100
AcDbEntity
  8
0
 62
     2
100
AcDbText
 10
176726.077639
 20
1676247.323644
 30
0.0
 40
0.75
  1
4,368
 41
0.699986
  7
SIMPLEX
100
AcDbAttribute
  2
COTA
 70
     8
  0
SEQEND
  5
E6
100
AcDbEntity
  8
0
  0
INSERT
  5
E7
100
AcDbEntity
  8
_TG
 62
     3
100
AcDbBlockReference
 66
     1
  2
SIMB_PONTO
 10
176805.502561
 20
1676187.259904
 30
4.240677
  0
ATTRIB
  5
E8
100
AcDbEntity
  8
0
 62
     1
100
AcDbText
 10
176805.852561
 20
1676187.609904
 30
0.0
 40
0.75
  1
2
 41
0.954526
  7
SIMPLEX
100
AcDbAttribute
  2
PONTO
 70
     8
  0
ATTRIB
  5
E9
100
AcDbEntity
  8
0
 62
     4
100
AcDbText
 10
176805.852561
 20
1676188.509904
 30
0.0
 40
0.75
  1

 41
0.699986
  7
SIMPLEX
100
AcDbAttribute
  2
DESC
 70
     9
  0
ATTRIB
  5
EA
100
AcDbEntity
  8
0
 62
     2
100
AcDbText
 10
176804.777561
 20
1676186.159904
 30
0.0
 40
0.75
  1
4,241
 41
0.699986
  7
SIMPLEX
100
AcDbAttribute
  2
COTA
 70
     8
  0
SEQEND
  5
EB
100
AcDbEntity
  8
0
  0
INSERT
  5
EC
100
AcDbEntity
  8
_TG
 62
     3
100
AcDbBlockReference
 66
     1
  2
SIMB_PONTO
 10
176737.621389
 20
1676269.864376
 30
3.778832
  0
ATTRIB
  5
ED
100
AcDbEntity
  8
0
 62
     1
100
AcDbText
 10
176737.971389
 20
1676270.214376
 30
0.0
 40
0.75
  1
20
 41
0.954526
  7
SIMPLEX
100
AcDbAttribute
  2
PONTO
 70
     8
  0
ATTRIB
  5
EE
100
AcDbEntity
  8
0
 62
     4
100
AcDbText
 10
176737.971389
 20
1676271.114376
 30
0.0
 40
0.75
  1

 41
0.699986
  7
SIMPLEX
100
AcDbAttribute
  2
DESC
 70
     9
  0
ATTRIB
  5
EF
100
AcDbEntity
  8
0
 62
     2
100
AcDbText
 10
176736.846389
 20
1676268.764376
 30
0.0
 40
0.75
  1
3,779
 41
0.699986
  7
SIMPLEX
100
AcDbAttribute
  2
COTA
 70
     8
  0
SEQEND
  5
F0
100
AcDbEntity
  8
0
  0
INSERT
  5
F1
100
AcDbEntity
  8
_TG
 62
     3
100
AcDbBlockReference
 66
     1
  2
SIMB_PONTO
 10
176738.347665
 20
1676269.352504
 30
3.811405
  0
ATTRIB
  5
F2
100
AcDbEntity
  8
0
 62
     1
100
AcDbText
 10
176738.697665
 20
1676269.702504
 30
0.0
 40
0.75
  1
21
 41
0.954526
  7
SIMPLEX
100
AcDbAttribute
  2
PONTO
 70
     8
  0
ATTRIB
  5
F3
100
AcDbEntity
  8
0
 62
     4
100
AcDbText
 10
176738.697665
 20
1676270.602504
 30
0.0
 40
0.75
  1

 41
0.699986
  7
SIMPLEX
100
AcDbAttribute
  2
DESC
 70
     9
  0
ATTRIB
  5
F4
100
AcDbEntity
  8
0
 62
     2
100
AcDbText
 10
176737.672665
 20
1676268.252504
 30
0.0
 40
0.75
  1
3,811
 41
0.699986
  7
SIMPLEX
100
AcDbAttribute
  2
COTA
 70
     8
  0
SEQEND
  5
F5
100
AcDbEntity
  8
0
  0
INSERT
  5
F6
100
AcDbEntity
  8
_TG
 62
     3
100
AcDbBlockReference
 66
     1
  2
SIMB_PONTO
 10
176708.392342
 20
1676258.596918
 30
3.651033
  0
ATTRIB
  5
F7
100
AcDbEntity
  8
0
 62
     1
100
AcDbText
 10
176708.742342
 20
1676258.946918
 30
0.0
 40
0.75
  1
22
 41
0.954526
  7
SIMPLEX
100
AcDbAttribute
  2
PONTO
 70
     8
  0
ATTRIB
  5
F8
100
AcDbEntity
  8
0
 62
     4
100
AcDbText
 10
176708.742342
 20
1676259.846918
 30
0.0
 40
0.75
  1

 41
0.699986
  7
SIMPLEX
100
AcDbAttribute
  2
DESC
 70
     9
  0
ATTRIB
  5
F9
100
AcDbEntity
  8
0
 62
     2
100
AcDbText
 10
176707.667342
 20
1676257.496918
 30
0.0
 40
0.75
  1
3,651
 41
0.699986
  7
SIMPLEX
100
AcDbAttribute
  2
COTA
 70
     8
  0
SEQEND
  5
FA
100
AcDbEntity
  8
0
  0
INSERT
  5
FB
100
AcDbEntity
  8
_TG
 62
     3
100
AcDbBlockReference
 66
     1
  2
SIMB_PONTO
 10
176708.958285
 20
1676257.795084
 30
3.666827
  0
ATTRIB
  5
FC
100
AcDbEntity
  8
0
 62
     1
100
AcDbText
 10
176709.308285
 20
1676258.145084
 30
0.0
 40
0.75
  1
23
 41
0.954526
  7
SIMPLEX
100
AcDbAttribute
  2
PONTO
 70
     8
  0
ATTRIB
  5
FD
100
AcDbEntity
  8
0
 62
     4
100
AcDbText
 10
176709.308285
 20
1676259.045084
 30
0.0
 40
0.75
  1

 41
0.699986
  7
SIMPLEX
100
AcDbAttribute
  2
DESC
 70
     9
  0
ATTRIB
  5
FE
100
AcDbEntity
  8
0
 62
     2
100
AcDbText
 10
176708.183285
 20
1676256.695084
 30
0.0
 40
0.75
  1
3,667
 41
0.699986
  7
SIMPLEX
100
AcDbAttribute
  2
COTA
 70
     8
  0
SEQEND
  5
FF
100
AcDbEntity
  8
0
  0
INSERT
  5
100
100
AcDbEntity
  8
_TG
 62
     3
100
AcDbBlockReference
 66
     1
  2
SIMB_PONTO
 10
176710.024664
 20
1676253.695427
 30
3.753514
  0
ATTRIB
  5
101
100
AcDbEntity
  8
0
 62
     1
100
AcDbText
 10
176710.374664
 20
1676254.045427
 30
0.0
 40
0.75
  1
24
 41
0.954526
  7
SIMPLEX
100
AcDbAttribute
  2
PONTO
 70
     8
  0
ATTRIB
  5
102
100
AcDbEntity
  8
0
 62
     4
100
AcDbText
 10
176710.374664
 20
1676254.945427
 30
0.0
 40
0.75
  1

 41
0.699986
  7
SIMPLEX
100
AcDbAttribute
  2
DESC
 70
     9
  0
ATTRIB
  5
103
100
AcDbEntity
  8
0
 62
     2
100
AcDbText
 10
176709.249664
 20
1676252.595427
 30
0.0
 40
0.75
  1
3,754
 41
0.699986
  7
SIMPLEX
100
AcDbAttribute
  2
COTA
 70
     8
  0
SEQEND
  5
104
100
AcDbEntity
  8
0
  0
INSERT
  5
105
100
AcDbEntity
  8
_TG
 62
     3
100
AcDbBlockReference
 66
     1
  2
SIMB_PONTO
 10
176698.383737
 20
1676249.802167
 30
3.696602
  0
ATTRIB
  5
106
100
AcDbEntity
  8
0
 62
     1
100
AcDbText
 10
176698.733737
 20
1676250.152167
 30
0.0
 40
0.75
  1
25
 41
0.954526
  7
SIMPLEX
100
AcDbAttribute
  2
PONTO
 70
     8
  0
ATTRIB
  5
107
100
AcDbEntity
  8
0
 62
     4
100
AcDbText
 10
176698.733737
 20
1676251.052167
 30
0.0
 40
0.75
  1

 41
0.699986
  7
SIMPLEX
100
AcDbAttribute
  2
DESC
 70
     9
  0
ATTRIB
  5
108
100
AcDbEntity
  8
0
 62
     2
100
AcDbText
 10
176697.608737
 20
1676248.702167
 30
0.0
 40
0.75
  1
3,697
 41
0.699986
  7
SIMPLEX
100
AcDbAttribute
  2
COTA
 70
     8
  0
SEQEND
  5
109
100
AcDbEntity
  8
0
  0
INSERT
  5
10A
100
AcDbEntity
  8
_TG
 62
     3
100
AcDbBlockReference
 66
     1
  2
SIMB_PONTO
 10
176718.281209
 20
1676223.123082
 30
4.196215
  0
ATTRIB
  5
10B
100
AcDbEntity
  8
0
 62
     1
100
AcDbText
 10
176718.631209
 20
1676223.473082
 30
0.0
 40
0.75
  1
26
 41
0.954526
  7
SIMPLEX
100
AcDbAttribute
  2
PONTO
 70
     8
  0
ATTRIB
  5
10C
100
AcDbEntity
  8
0
 62
     4
100
AcDbText
 10
176718.631209
 20
1676224.373082
 30
0.0
 40
0.75
  1

 41
0.699986
  7
SIMPLEX
100
AcDbAttribute
  2
DESC
 70
     9
  0
ATTRIB
  5
10D
100
AcDbEntity
  8
0
 62
     2
100
AcDbText
 10
176717.556209
 20
1676222.023082
 30
0.0
 40
0.75
  1
4,196
 41
0.699986
  7
SIMPLEX
100
AcDbAttribute
  2
COTA
 70
     8
  0
SEQEND
  5
10E
100
AcDbEntity
  8
0
  0
INSERT
  5
10F
100
AcDbEntity
  8
_TG
 62
     3
100
AcDbBlockReference
 66
     1
  2
SIMB_PONTO
 10
176717.159877
 20
1676225.245107
 30
4.239448
  0
ATTRIB
  5
110
100
AcDbEntity
  8
0
 62
     1
100
AcDbText
 10
176717.509877
 20
1676225.595107
 30
0.0
 40
0.75
  1
27
 41
0.954526
  7
SIMPLEX
100
AcDbAttribute
  2
PONTO
 70
     8
  0
ATTRIB
  5
111
100
AcDbEntity
  8
0
 62
     4
100
AcDbText
 10
176717.509877
 20
1676226.495107
 30
0.0
 40
0.75
  1

 41
0.699986
  7
SIMPLEX
100
AcDbAttribute
  2
DESC
 70
     9
  0
ATTRIB
  5
112
100
AcDbEntity
  8
0
 62
     2
100
AcDbText
 10
176716.384877
 20
1676224.145107
 30
0.0
 40
0.75
  1
4,239
 41
0.699986
  7
SIMPLEX
100
AcDbAttribute
  2
COTA
 70
     8
  0
SEQEND
  5
113
100
AcDbEntity
  8
0
  0
INSERT
  5
114
100
AcDbEntity
  8
_TG
 62
     3
100
AcDbBlockReference
 66
     1
  2
SIMB_PONTO
 10
176717.046741
 20
1676225.018091
 30
4.23957
  0
ATTRIB
  5
115
100
AcDbEntity
  8
0
 62
     1
100
AcDbText
 10
176717.396741
 20
1676225.368091
 30
0.0
 40
0.75
  1
28
 41
0.954526
  7
SIMPLEX
100
AcDbAttribute
  2
PONTO
 70
     8
  0
ATTRIB
  5
116
100
AcDbEntity
  8
0
 62
     4
100
AcDbText
 10
176717.396741
 20
1676226.268091
 30
0.0
 40
0.75
  1

 41
0.699986
  7
SIMPLEX
100
AcDbAttribute
  2
DESC
 70
     9
  0
ATTRIB
  5
117
100
AcDbEntity
  8
0
 62
     2
100
AcDbText
 10
176716.271741
 20
1676223.918091
 30
0.0
 40
0.75
  1
4,240
 41
0.699986
  7
SIMPLEX
100
AcDbAttribute
  2
COTA
 70
     8
  0
SEQEND
  5
118
100
AcDbEntity
  8
0
  0
INSERT
  5
119
100
AcDbEntity
  8
_TG
 62
     3
100
AcDbBlockReference
 66
     1
  2
SIMB_PONTO
 10
176715.509384
 20
1676182.949011
 30
2.806621
  0
ATTRIB
  5
11A
100
AcDbEntity
  8
0
 62
     1
100
AcDbText
 10
176715.859384
 20
1676183.299011
 30
0.0
 40
0.75
  1
29
 41
0.954526
  7
SIMPLEX
100
AcDbAttribute
  2
PONTO
 70
     8
  0
ATTRIB
  5
11B
100
AcDbEntity
  8
0
 62
     4
100
AcDbText
 10
176715.859384
 20
1676184.199011
 30
0.0
 40
0.75
  1

 41
0.699986
  7
SIMPLEX
100
AcDbAttribute
  2
DESC
 70
     9
  0
ATTRIB
  5
11C
100
AcDbEntity
  8
0
 62
     2
100
AcDbText
 10
176714.734384
 20
1676181.849011
 30
0.0
 40
0.75
  1
2,807
 41
0.699986
  7
SIMPLEX
100
AcDbAttribute
  2
COTA
 70
     8
  0
SEQEND
  5
11D
100
AcDbEntity
  8
0
  0
INSERT
  5
11E
100
AcDbEntity
  8
_TG
 62
     3
100
AcDbBlockReference
 66
     1
  2
SIMB_PONTO
 10
176808.09761
 20
1676190.977933
 30
4.262759
  0
ATTRIB
  5
11F
100
AcDbEntity
  8
0
 62
     1
100
AcDbText
 10
176808.44761
 20
1676191.327933
 30
0.0
 40
0.75
  1
3
 41
0.954526
  7
SIMPLEX
100
AcDbAttribute
  2
PONTO
 70
     8
  0
ATTRIB
  5
120
100
AcDbEntity
  8
0
 62
     4
100
AcDbText
 10
176808.44761
 20
1676192.227933
 30
0.0
 40
0.75
  1

 41
0.699986
  7
SIMPLEX
100
AcDbAttribute
  2
DESC
 70
     9
  0
ATTRIB
  5
121
100
AcDbEntity
  8
0
 62
     2
100
AcDbText
 10
176807.32261
 20
1676189.877933
 30
0.0
 40
0.75
  1
4,263
 41
0.699986
  7
SIMPLEX
100
AcDbAttribute
  2
COTA
 70
     8
  0
SEQEND
  5
122
100
AcDbEntity
  8
0
  0
INSERT
  5
123
100
AcDbEntity
  8
_TG
 62
     3
100
AcDbBlockReference
 66
     1
  2
SIMB_PONTO
 10
176729.85829
 20
1676193.547545
 30
4.091609
  0
ATTRIB
  5
124
100
AcDbEntity
  8
0
 62
     1
100
AcDbText
 10
176730.20829
 20
1676193.897545
 30
0.0
 40
0.75
  1
30
 41
0.954526
  7
SIMPLEX
100
AcDbAttribute
  2
PONTO
 70
     8
  0
ATTRIB
  5
125
100
AcDbEntity
  8
0
 62
     4
100
AcDbText
 10
176730.20829
 20
1676194.797545
 30
0.0
 40
0.75
  1

 41
0.699986
  7
SIMPLEX
100
AcDbAttribute
  2
DESC
 70
     9
  0
ATTRIB
  5
126
100
AcDbEntity
  8
0
 62
     2
100
AcDbText
 10
176729.08329
 20
1676192.447545
 30
0.0
 40
0.75
  1
4,092
 41
0.699986
  7
SIMPLEX
100
AcDbAttribute
  2
COTA
 70
     8
  0
SEQEND
  5
127
100
AcDbEntity
  8
0
  0
INSERT
  5
128
100
AcDbEntity
  8
_TG
 62
     3
100
AcDbBlockReference
 66
     1
  2
SIMB_PONTO
 10
176731.674725
 20
1676191.449398
 30
4.240417
  0
ATTRIB
  5
129
100
AcDbEntity
  8
0
 62
     1
100
AcDbText
 10
176732.024725
 20
1676191.799398
 30
0.0
 40
0.75
  1
31
 41
0.954526
  7
SIMPLEX
100
AcDbAttribute
  2
PONTO
 70
     8
  0
ATTRIB
  5
12A
100
AcDbEntity
  8
0
 62
     4
100
AcDbText
 10
176732.024725
 20
1676192.699398
 30
0.0
 40
0.75
  1

 41
0.699986
  7
SIMPLEX
100
AcDbAttribute
  2
DESC
 70
     9
  0
ATTRIB
  5
12B
100
AcDbEntity
  8
0
 62
     2
100
AcDbText
 10
176730.899725
 20
1676190.349398
 30
0.0
 40
0.75
  1
4,240
 41
0.699986
  7
SIMPLEX
100
AcDbAttribute
  2
COTA
 70
     8
  0
SEQEND
  5
12C
100
AcDbEntity
  8
0
  0
INSERT
  5
12D
100
AcDbEntity
  8
_TG
 62
     3
100
AcDbBlockReference
 66
     1
  2
SIMB_PONTO
 10
176752.075477
 20
1676205.164128
 30
4.554422
  0
ATTRIB
  5
12E
100
AcDbEntity
  8
0
 62
     1
100
AcDbText
 10
176752.425477
 20
1676205.514128
 30
0.0
 40
0.75
  1
32
 41
0.954526
  7
SIMPLEX
100
AcDbAttribute
  2
PONTO
 70
     8
  0
ATTRIB
  5
12F
100
AcDbEntity
  8
0
 62
     4
100
AcDbText
 10
176752.425477
 20
1676206.414128
 30
0.0
 40
0.75
  1

 41
0.699986
  7
SIMPLEX
100
AcDbAttribute
  2
DESC
 70
     9
  0
ATTRIB
  5
130
100
AcDbEntity
  8
0
 62
     2
100
AcDbText
 10
176751.300477
 20
1676204.064128
 30
0.0
 40
0.75
  1
4,554
 41
0.699986
  7
SIMPLEX
100
AcDbAttribute
  2
COTA
 70
     8
  0
SEQEND
  5
131
100
AcDbEntity
  8
0
  0
INSERT
  5
132
100
AcDbEntity
  8
_TG
 62
     3
100
AcDbBlockReference
 66
     1
  2
SIMB_PONTO
 10
176753.776353
 20
1676200.607734
 30
4.693585
  0
ATTRIB
  5
133
100
AcDbEntity
  8
0
 62
     1
100
AcDbText
 10
176754.126353
 20
1676200.957734
 30
0.0
 40
0.75
  1
33
 41
0.954526
  7
SIMPLEX
100
AcDbAttribute
  2
PONTO
 70
     8
  0
ATTRIB
  5
134
100
AcDbEntity
  8
0
 62
     4
100
AcDbText
 10
176754.126353
 20
1676201.857734
 30
0.0
 40
0.75
  1

 41
0.699986
  7
SIMPLEX
100
AcDbAttribute
  2
DESC
 70
     9
  0
ATTRIB
  5
135
100
AcDbEntity
  8
0
 62
     2
100
AcDbText
 10
176753.001353
 20
1676199.507734
 30
0.0
 40
0.75
  1
4,694
 41
0.699986
  7
SIMPLEX
100
AcDbAttribute
  2
COTA
 70
     8
  0
SEQEND
  5
136
100
AcDbEntity
  8
0
  0
INSERT
  5
137
100
AcDbEntity
  8
_TG
 62
     3
100
AcDbBlockReference
 66
     1
  2
SIMB_PONTO
 10
176728.538647
 20
1676165.974937
 30
2.51791
  0
ATTRIB
  5
138
100
AcDbEntity
  8
0
 62
     1
100
AcDbText
 10
176728.888647
 20
1676166.324937
 30
0.0
 40
0.75
  1
34
 41
0.954526
  7
SIMPLEX
100
AcDbAttribute
  2
PONTO
 70
     8
  0
ATTRIB
  5
139
100
AcDbEntity
  8
0
 62
     4
100
AcDbText
 10
176728.888647
 20
1676167.224937
 30
0.0
 40
0.75
  1

 41
0.699986
  7
SIMPLEX
100
AcDbAttribute
  2
DESC
 70
     9
  0
ATTRIB
  5
13A
100
AcDbEntity
  8
0
 62
     2
100
AcDbText
 10
176727.813647
 20
1676164.874937
 30
0.0
 40
0.75
  1
2,518
 41
0.699986
  7
SIMPLEX
100
AcDbAttribute
  2
COTA
 70
     8
  0
SEQEND
  5
13B
100
AcDbEntity
  8
0
  0
INSERT
  5
13C
100
AcDbEntity
  8
_TG
 62
     3
100
AcDbBlockReference
 66
     1
  2
SIMB_PONTO
 10
176778.509003
 20
1676170.582579
 30
4.106612
  0
ATTRIB
  5
13D
100
AcDbEntity
  8
0
 62
     1
100
AcDbText
 10
176778.859003
 20
1676170.932579
 30
0.0
 40
0.75
  1
35
 41
0.954526
  7
SIMPLEX
100
AcDbAttribute
  2
PONTO
 70
     8
  0
ATTRIB
  5
13E
100
AcDbEntity
  8
0
 62
     4
100
AcDbText
 10
176778.859003
 20
1676171.832579
 30
0.0
 40
0.75
  1

 41
0.699986
  7
SIMPLEX
100
AcDbAttribute
  2
DESC
 70
     9
  0
ATTRIB
  5
13F
100
AcDbEntity
  8
0
 62
     2
100
AcDbText
 10
176777.784003
 20
1676169.482579
 30
0.0
 40
0.75
  1
4,107
 41
0.699986
  7
SIMPLEX
100
AcDbAttribute
  2
COTA
 70
     8
  0
SEQEND
  5
140
100
AcDbEntity
  8
0
  0
INSERT
  5
141
100
AcDbEntity
  8
_TG
 62
     3
100
AcDbBlockReference
 66
     1
  2
SIMB_PONTO
 10
176788.069743
 20
1676174.204317
 30
4.143724
  0
ATTRIB
  5
142
100
AcDbEntity
  8
0
 62
     1
100
AcDbText
 10
176788.419743
 20
1676174.554317
 30
0.0
 40
0.75
  1
36
 41
0.954526
  7
SIMPLEX
100
AcDbAttribute
  2
PONTO
 70
     8
  0
ATTRIB
  5
143
100
AcDbEntity
  8
0
 62
     4
100
AcDbText
 10
176788.419743
 20
1676175.454317
 30
0.0
 40
0.75
  1

 41
0.699986
  7
SIMPLEX
100
AcDbAttribute
  2
DESC
 70
     9
  0
ATTRIB
  5
144
100
AcDbEntity
  8
0
 62
     2
100
AcDbText
 10
176787.344743
 20
1676173.104317
 30
0.0
 40
0.75
  1
4,144
 41
0.699986
  7
SIMPLEX
100
AcDbAttribute
  2
COTA
 70
     8
  0
SEQEND
  5
145
100
AcDbEntity
  8
0
  0
INSERT
  5
146
100
AcDbEntity
  8
_TG
 62
     3
100
AcDbBlockReference
 66
     1
  2
SIMB_PONTO
 10
176790.305604
 20
1676177.564407
 30
4.170791
  0
ATTRIB
  5
147
100
AcDbEntity
  8
0
 62
     1
100
AcDbText
 10
176790.655604
 20
1676177.914407
 30
0.0
 40
0.75
  1
37
 41
0.954526
  7
SIMPLEX
100
AcDbAttribute
  2
PONTO
 70
     8
  0
ATTRIB
  5
148
100
AcDbEntity
  8
0
 62
     4
100
AcDbText
 10
176790.655604
 20
1676178.814407
 30
0.0
 40
0.75
  1

 41
0.699986
  7
SIMPLEX
100
AcDbAttribute
  2
DESC
 70
     9
  0
ATTRIB
  5
149
100
AcDbEntity
  8
0
 62
     2
100
AcDbText
 10
176789.630604
 20
1676176.464407
 30
0.0
 40
0.75
  1
4,171
 41
0.699986
  7
SIMPLEX
100
AcDbAttribute
  2
COTA
 70
     8
  0
SEQEND
  5
14A
100
AcDbEntity
  8
0
  0
INSERT
  5
14B
100
AcDbEntity
  8
_TG
 62
     3
100
AcDbBlockReference
 66
     1
  2
SIMB_PONTO
 10
176785.718624
 20
1676173.046802
 30
4.211823
  0
ATTRIB
  5
14C
100
AcDbEntity
  8
0
 62
     1
100
AcDbText
 10
176786.068624
 20
1676173.396802
 30
0.0
 40
0.75
  1
38
 41
0.954526
  7
SIMPLEX
100
AcDbAttribute
  2
PONTO
 70
     8
  0
ATTRIB
  5
14D
100
AcDbEntity
  8
0
 62
     4
100
AcDbText
 10
176786.068624
 20
1676174.296802
 30
0.0
 40
0.75
  1

 41
0.699986
  7
SIMPLEX
100
AcDbAttribute
  2
DESC
 70
     9
  0
ATTRIB
  5
14E
100
AcDbEntity
  8
0
 62
     2
100
AcDbText
 10
176784.993624
 20
1676171.946802
 30
0.0
 40
0.75
  1
4,212
 41
0.699986
  7
SIMPLEX
100
AcDbAttribute
  2
COTA
 70
     8
  0
SEQEND
  5
14F
100
AcDbEntity
  8
0
  0
INSERT
  5
150
100
AcDbEntity
  8
_TG
 62
     3
100
AcDbBlockReference
 66
     1
  2
SIMB_PONTO
 10
176736.086173
 20
1676216.407649
 30
4.451479
  0
ATTRIB
  5
151
100
AcDbEntity
  8
0
 62
     1
100
AcDbText
 10
176736.436173
 20
1676216.757649
 30
0.0
 40
0.75
  1
39
 41
0.954526
  7
SIMPLEX
100
AcDbAttribute
  2
PONTO
 70
     8
  0
ATTRIB
  5
152
100
AcDbEntity
  8
0
 62
     4
100
AcDbText
 10
176736.436173
 20
1676217.657649
 30
0.0
 40
0.75
  1

 41
0.699986
  7
SIMPLEX
100
AcDbAttribute
  2
DESC
 70
     9
  0
ATTRIB
  5
153
100
AcDbEntity
  8
0
 62
     2
100
AcDbText
 10
176735.361173
 20
1676215.307649
 30
0.0
 40
0.75
  1
4,451
 41
0.699986
  7
SIMPLEX
100
AcDbAttribute
  2
COTA
 70
     8
  0
SEQEND
  5
154
100
AcDbEntity
  8
0
  0
INSERT
  5
155
100
AcDbEntity
  8
_TG
 62
     3
100
AcDbBlockReference
 66
     1
  2
SIMB_PONTO
 10
176846.693334
 20
1676248.738367
 30
4.709807
  0
ATTRIB
  5
156
100
AcDbEntity
  8
0
 62
     1
100
AcDbText
 10
176847.043334
 20
1676249.088367
 30
0.0
 40
0.75
  1
4
 41
0.954526
  7
SIMPLEX
100
AcDbAttribute
  2
PONTO
 70
     8
  0
ATTRIB
  5
157
100
AcDbEntity
  8
0
 62
     4
100
AcDbText
 10
176847.043334
 20
1676249.988367
 30
0.0
 40
0.75
  1

 41
0.699986
  7
SIMPLEX
100
AcDbAttribute
  2
DESC
 70
     9
  0
ATTRIB
  5
158
100
AcDbEntity
  8
0
 62
     2
100
AcDbText
 10
176845.968334
 20
1676247.638367
 30
0.0
 40
0.75
  1
4,710
 41
0.699986
  7
SIMPLEX
100
AcDbAttribute
  2
COTA
 70
     8
  0
SEQEND
  5
159
100
AcDbEntity
  8
0
  0
INSERT
  5
15A
100
AcDbEntity
  8
_TG
 62
     3
100
AcDbBlockReference
 66
     1
  2
SIMB_PONTO
 10
176773.30512
 20
1676168.00983
 30
4.114003
  0
ATTRIB
  5
15B
100
AcDbEntity
  8
0
 62
     1
100
AcDbText
 10
176773.65512
 20
1676168.35983
 30
0.0
 40
0.75
  1
40
 41
0.954526
  7
SIMPLEX
100
AcDbAttribute
  2
PONTO
 70
     8
  0
ATTRIB
  5
15C
100
AcDbEntity
  8
0
 62
     4
100
AcDbText
 10
176773.65512
 20
1676169.25983
 30
0.0
 40
0.75
  1

 41
0.699986
  7
SIMPLEX
100
AcDbAttribute
  2
DESC
 70
     9
  0
ATTRIB
  5
15D
100
AcDbEntity
  8
0
 62
     2
100
AcDbText
 10
176772.63012
 20
1676166.90983
 30
0.0
 40
0.75
  1
4,114
 41
0.699986
  7
SIMPLEX
100
AcDbAttribute
  2
COTA
 70
     8
  0
SEQEND
  5
15E
100
AcDbEntity
  8
0
  0
INSERT
  5
15F
100
AcDbEntity
  8
_TG
 62
     3
100
AcDbBlockReference
 66
     1
  2
SIMB_PONTO
 10
176763.562777
 20
1676164.182457
 30
4.135867
  0
ATTRIB
  5
160
100
AcDbEntity
  8
0
 62
     1
100
AcDbText
 10
176763.912777
 20
1676164.532457
 30
0.0
 40
0.75
  1
41
 41
0.954526
  7
SIMPLEX
100
AcDbAttribute
  2
PONTO
 70
     8
  0
ATTRIB
  5
161
100
AcDbEntity
  8
0
 62
     4
100
AcDbText
 10
176763.912777
 20
1676165.432457
 30
0.0
 40
0.75
  1

 41
0.699986
  7
SIMPLEX
100
AcDbAttribute
  2
DESC
 70
     9
  0
ATTRIB
  5
162
100
AcDbEntity
  8
0
 62
     2
100
AcDbText
 10
176762.837777
 20
1676163.082457
 30
0.0
 40
0.75
  1
4,136
 41
0.699986
  7
SIMPLEX
100
AcDbAttribute
  2
COTA
 70
     8
  0
SEQEND
  5
163
100
AcDbEntity
  8
0
  0
INSERT
  5
164
100
AcDbEntity
  8
_TG
 62
     3
100
AcDbBlockReference
 66
     1
  2
SIMB_PONTO
 10
176754.10291
 20
1676160.569162
 30
4.137394
  0
ATTRIB
  5
165
100
AcDbEntity
  8
0
 62
     1
100
AcDbText
 10
176754.45291
 20
1676160.919162
 30
0.0
 40
0.75
  1
42
 41
0.954526
  7
SIMPLEX
100
AcDbAttribute
  2
PONTO
 70
     8
  0
ATTRIB
  5
166
100
AcDbEntity
  8
0
 62
     4
100
AcDbText
 10
176754.45291
 20
1676161.819162
 30
0.0
 40
0.75
  1

 41
0.699986
  7
SIMPLEX
100
AcDbAttribute
  2
DESC
 70
     9
  0
ATTRIB
  5
167
100
AcDbEntity
  8
0
 62
     2
100
AcDbText
 10
176753.37791
 20
1676159.469162
 30
0.0
 40
0.75
  1
4,137
 41
0.699986
  7
SIMPLEX
100
AcDbAttribute
  2
COTA
 70
     8
  0
SEQEND
  5
168
100
AcDbEntity
  8
0
  0
INSERT
  5
169
100
AcDbEntity
  8
_TG
 62
     3
100
AcDbBlockReference
 66
     1
  2
SIMB_PONTO
 10
176743.688786
 20
1676156.873951
 30
3.983258
  0
ATTRIB
  5
16A
100
AcDbEntity
  8
0
 62
     1
100
AcDbText
 10
176744.038786
 20
1676157.223951
 30
0.0
 40
0.75
  1
43
 41
0.954526
  7
SIMPLEX
100
AcDbAttribute
  2
PONTO
 70
     8
  0
ATTRIB
  5
16B
100
AcDbEntity
  8
0
 62
     4
100
AcDbText
 10
176744.038786
 20
1676158.123951
 30
0.0
 40
0.75
  1

 41
0.699986
  7
SIMPLEX
100
AcDbAttribute
  2
DESC
 70
     9
  0
ATTRIB
  5
16C
100
AcDbEntity
  8
0
 62
     2
100
AcDbText
 10
176742.913786
 20
1676155.773951
 30
0.0
 40
0.75
  1
3,983
 41
0.699986
  7
SIMPLEX
100
AcDbAttribute
  2
COTA
 70
     8
  0
SEQEND
  5
16D
100
AcDbEntity
  8
0
  0
INSERT
  5
16E
100
AcDbEntity
  8
_TG
 62
     3
100
AcDbBlockReference
 66
     1
  2
SIMB_PONTO
 10
176745.352197
 20
1676150.09104
 30
4.05476
  0
ATTRIB
  5
16F
100
AcDbEntity
  8
0
 62
     1
100
AcDbText
 10
176745.702197
 20
1676150.44104
 30
0.0
 40
0.75
  1
44
 41
0.954526
  7
SIMPLEX
100
AcDbAttribute
  2
PONTO
 70
     8
  0
ATTRIB
  5
170
100
AcDbEntity
  8
0
 62
     4
100
AcDbText
 10
176745.702197
 20
1676151.34104
 30
0.0
 40
0.75
  1

 41
0.699986
  7
SIMPLEX
100
AcDbAttribute
  2
DESC
 70
     9
  0
ATTRIB
  5
171
100
AcDbEntity
  8
0
 62
     2
100
AcDbText
 10
176744.577197
 20
1676148.99104
 30
0.0
 40
0.75
  1
4,055
 41
0.699986
  7
SIMPLEX
100
AcDbAttribute
  2
COTA
 70
     8
  0
SEQEND
  5
172
100
AcDbEntity
  8
0
  0
INSERT
  5
173
100
AcDbEntity
  8
_TG
 62
     3
100
AcDbBlockReference
 66
     1
  2
SIMB_PONTO
 10
176729.566772
 20
1676145.017809
 30
4.054935
  0
ATTRIB
  5
174
100
AcDbEntity
  8
0
 62
     1
100
AcDbText
 10
176729.916772
 20
1676145.367809
 30
0.0
 40
0.75
  1
45
 41
0.954526
  7
SIMPLEX
100
AcDbAttribute
  2
PONTO
 70
     8
  0
ATTRIB
  5
175
100
AcDbEntity
  8
0
 62
     4
100
AcDbText
 10
176729.916772
 20
1676146.267809
 30
0.0
 40
0.75
  1

 41
0.699986
  7
SIMPLEX
100
AcDbAttribute
  2
DESC
 70
     9
  0
ATTRIB
  5
176
100
AcDbEntity
  8
0
 62
     2
100
AcDbText
 10
176728.791772
 20
1676143.917809
 30
0.0
 40
0.75
  1
4,055
 41
0.699986
  7
SIMPLEX
100
AcDbAttribute
  2
COTA
 70
     8
  0
SEQEND
  5
177
100
AcDbEntity
  8
0
  0
INSERT
  5
178
100
AcDbEntity
  8
_TG
 62
     3
100
AcDbBlockReference
 66
     1
  2
SIMB_PONTO
 10
176728.612792
 20
1676147.850008
 30
3.897121
  0
ATTRIB
  5
179
100
AcDbEntity
  8
0
 62
     1
100
AcDbText
 10
176728.962792
 20
1676148.200008
 30
0.0
 40
0.75
  1
46
 41
0.954526
  7
SIMPLEX
100
AcDbAttribute
  2
PONTO
 70
     8
  0
ATTRIB
  5
17A
100
AcDbEntity
  8
0
 62
     4
100
AcDbText
 10
176728.962792
 20
1676149.100008
 30
0.0
 40
0.75
  1

 41
0.699986
  7
SIMPLEX
100
AcDbAttribute
  2
DESC
 70
     9
  0
ATTRIB
  5
17B
100
AcDbEntity
  8
0
 62
     2
100
AcDbText
 10
176727.837792
 20
1676146.750008
 30
0.0
 40
0.75
  1
3,897
 41
0.699986
  7
SIMPLEX
100
AcDbAttribute
  2
COTA
 70
     8
  0
SEQEND
  5
17C
100
AcDbEntity
  8
0
  0
INSERT
  5
17D
100
AcDbEntity
  8
_TG
 62
     3
100
AcDbBlockReference
 66
     1
  2
SIMB_PONTO
 10
176720.081133
 20
1676141.892238
 30
4.038411
  0
ATTRIB
  5
17E
100
AcDbEntity
  8
0
 62
     1
100
AcDbText
 10
176720.431133
 20
1676142.242238
 30
0.0
 40
0.75
  1
47
 41
0.954526
  7
SIMPLEX
100
AcDbAttribute
  2
PONTO
 70
     8
  0
ATTRIB
  5
17F
100
AcDbEntity
  8
0
 62
     4
100
AcDbText
 10
176720.431133
 20
1676143.142238
 30
0.0
 40
0.75
  1

 41
0.699986
  7
SIMPLEX
100
AcDbAttribute
  2
DESC
 70
     9
  0
ATTRIB
  5
180
100
AcDbEntity
  8
0
 62
     2
100
AcDbText
 10
176719.306133
 20
1676140.792238
 30
0.0
 40
0.75
  1
4,038
 41
0.699986
  7
SIMPLEX
100
AcDbAttribute
  2
COTA
 70
     8
  0
SEQEND
  5
181
100
AcDbEntity
  8
0
  0
INSERT
  5
182
100
AcDbEntity
  8
_TG
 62
     3
100
AcDbBlockReference
 66
     1
  2
SIMB_PONTO
 10
176721.40818
 20
1676145.563571
 30
4.009537
  0
ATTRIB
  5
183
100
AcDbEntity
  8
0
 62
     1
100
AcDbText
 10
176721.75818
 20
1676145.913571
 30
0.0
 40
0.75
  1
48
 41
0.954526
  7
SIMPLEX
100
AcDbAttribute
  2
PONTO
 70
     8
  0
ATTRIB
  5
184
100
AcDbEntity
  8
0
 62
     4
100
AcDbText
 10
176721.75818
 20
1676146.813571
 30
0.0
 40
0.75
  1

 41
0.699986
  7
SIMPLEX
100
AcDbAttribute
  2
DESC
 70
     9
  0
ATTRIB
  5
185
100
AcDbEntity
  8
0
 62
     2
100
AcDbText
 10
176720.68318
 20
1676144.463571
 30
0.0
 40
0.75
  1
4,010
 41
0.699986
  7
SIMPLEX
100
AcDbAttribute
  2
COTA
 70
     8
  0
SEQEND
  5
186
100
AcDbEntity
  8
0
  0
INSERT
  5
187
100
AcDbEntity
  8
_TG
 62
     3
100
AcDbBlockReference
 66
     1
  2
SIMB_PONTO
 10
176703.017505
 20
1676136.130912
 30
4.041607
  0
ATTRIB
  5
188
100
AcDbEntity
  8
0
 62
     1
100
AcDbText
 10
176703.367505
 20
1676136.480912
 30
0.0
 40
0.75
  1
49
 41
0.954526
  7
SIMPLEX
100
AcDbAttribute
  2
PONTO
 70
     8
  0
ATTRIB
  5
189
100
AcDbEntity
  8
0
 62
     4
100
AcDbText
 10
176703.367505
 20
1676137.380912
 30
0.0
 40
0.75
  1

 41
0.699986
  7
SIMPLEX
100
AcDbAttribute
  2
DESC
 70
     9
  0
ATTRIB
  5
18A
100
AcDbEntity
  8
0
 62
     2
100
AcDbText
 10
176702.242505
 20
1676135.030912
 30
0.0
 40
0.75
  1
4,042
 41
0.699986
  7
SIMPLEX
100
AcDbAttribute
  2
COTA
 70
     8
  0
SEQEND
  5
18B
100
AcDbEntity
  8
0
  0
INSERT
  5
18C
100
AcDbEntity
  8
_TG
 62
     3
100
AcDbBlockReference
 66
     1
  2
SIMB_PONTO
 10
176810.526236
 20
1676208.014248
 30
6.090344
  0
ATTRIB
  5
18D
100
AcDbEntity
  8
0
 62
     1
100
AcDbText
 10
176810.876236
 20
1676208.364248
 30
0.0
 40
0.75
  1
5
 41
0.954526
  7
SIMPLEX
100
AcDbAttribute
  2
PONTO
 70
     8
  0
ATTRIB
  5
18E
100
AcDbEntity
  8
0
 62
     4
100
AcDbText
 10
176810.876236
 20
1676209.264248
 30
0.0
 40
0.75
  1

 41
0.699986
  7
SIMPLEX
100
AcDbAttribute
  2
DESC
 70
     9
  0
ATTRIB
  5
18F
100
AcDbEntity
  8
0
 62
     2
100
AcDbText
 10
176809.751236
 20
1676206.914248
 30
0.0
 40
0.75
  1
6,090
 41
0.699986
  7
SIMPLEX
100
AcDbAttribute
  2
COTA
 70
     8
  0
SEQEND
  5
190
100
AcDbEntity
  8
0
  0
INSERT
  5
191
100
AcDbEntity
  8
_TG
 62
     3
100
AcDbBlockReference
 66
     1
  2
SIMB_PONTO
 10
176706.822578
 20
1676128.465416
 30
4.092156
  0
ATTRIB
  5
192
100
AcDbEntity
  8
0
 62
     1
100
AcDbText
 10
176707.172578
 20
1676128.815416
 30
0.0
 40
0.75
  1
50
 41
0.954526
  7
SIMPLEX
100
AcDbAttribute
  2
PONTO
 70
     8
  0
ATTRIB
  5
193
100
AcDbEntity
  8
0
 62
     4
100
AcDbText
 10
176707.172578
 20
1676129.715416
 30
0.0
 40
0.75
  1

 41
0.699986
  7
SIMPLEX
100
AcDbAttribute
  2
DESC
 70
     9
  0
ATTRIB
  5
194
100
AcDbEntity
  8
0
 62
     2
100
AcDbText
 10
176706.047578
 20
1676127.365416
 30
0.0
 40
0.75
  1
4,092
 41
0.699986
  7
SIMPLEX
100
AcDbAttribute
  2
COTA
 70
     8
  0
SEQEND
  5
195
100
AcDbEntity
  8
0
  0
INSERT
  5
196
100
AcDbEntity
  8
_TG
 62
     3
100
AcDbBlockReference
 66
     1
  2
SIMB_PONTO
 10
176743.701551
 20
1676163.011985
 30
4.416905
  0
ATTRIB
  5
197
100
AcDbEntity
  8
0
 62
     1
100
AcDbText
 10
176744.051551
 20
1676163.361985
 30
0.0
 40
0.75
  1
51
 41
0.954526
  7
SIMPLEX
100
AcDbAttribute
  2
PONTO
 70
     8
  0
ATTRIB
  5
198
100
AcDbEntity
  8
0
 62
     4
100
AcDbText
 10
176744.051551
 20
1676164.261985
 30
0.0
 40
0.75
  1

 41
0.699986
  7
SIMPLEX
100
AcDbAttribute
  2
DESC
 70
     9
  0
ATTRIB
  5
199
100
AcDbEntity
  8
0
 62
     2
100
AcDbText
 10
176742.976551
 20
1676161.911985
 30
0.0
 40
0.75
  1
4,417
 41
0.699986
  7
SIMPLEX
100
AcDbAttribute
  2
COTA
 70
     8
  0
SEQEND
  5
19A
100
AcDbEntity
  8
0
  0
INSERT
  5
19B
100
AcDbEntity
  8
_TG
 62
     3
100
AcDbBlockReference
 66
     1
  2
SIMB_PONTO
 10
176741.810079
 20
1676161.884155
 30
3.720192
  0
ATTRIB
  5
19C
100
AcDbEntity
  8
0
 62
     1
100
AcDbText
 10
176742.160079
 20
1676162.234155
 30
0.0
 40
0.75
  1
52
 41
0.954526
  7
SIMPLEX
100
AcDbAttribute
  2
PONTO
 70
     8
  0
ATTRIB
  5
19D
100
AcDbEntity
  8
0
 62
     4
100
AcDbText
 10
176742.160079
 20
1676163.134155
 30
0.0
 40
0.75
  1

 41
0.699986
  7
SIMPLEX
100
AcDbAttribute
  2
DESC
 70
     9
  0
ATTRIB
  5
19E
100
AcDbEntity
  8
0
 62
     2
100
AcDbText
 10
176741.035079
 20
1676160.784155
 30
0.0
 40
0.75
  1
3,720
 41
0.699986
  7
SIMPLEX
100
AcDbAttribute
  2
COTA
 70
     8
  0
SEQEND
  5
19F
100
AcDbEntity
  8
0
  0
INSERT
  5
1A0
100
AcDbEntity
  8
_TG
 62
     3
100
AcDbBlockReference
 66
     1
  2
SIMB_PONTO
 10
176737.007201
 20
1676158.735194
 30
3.479593
  0
ATTRIB
  5
1A1
100
AcDbEntity
  8
0
 62
     1
100
AcDbText
 10
176737.357201
 20
1676159.085194
 30
0.0
 40
0.75
  1
53
 41
0.954526
  7
SIMPLEX
100
AcDbAttribute
  2
PONTO
 70
     8
  0
ATTRIB
  5
1A2
100
AcDbEntity
  8
0
 62
     4
100
AcDbText
 10
176737.357201
 20
1676159.985194
 30
0.0
 40
0.75
  1

 41
0.699986
  7
SIMPLEX
100
AcDbAttribute
  2
DESC
 70
     9
  0
ATTRIB
  5
1A3
100
AcDbEntity
  8
0
 62
     2
100
AcDbText
 10
176736.232201
 20
1676157.635194
 30
0.0
 40
0.75
  1
3,480
 41
0.699986
  7
SIMPLEX
100
AcDbAttribute
  2
COTA
 70
     8
  0
SEQEND
  5
1A4
100
AcDbEntity
  8
0
  0
INSERT
  5
1A5
100
AcDbEntity
  8
_TG
 62
     3
100
AcDbBlockReference
 66
     1
  2
SIMB_PONTO
 10
176735.087138
 20
1676156.040579
 30
1.881965
  0
ATTRIB
  5
1A6
100
AcDbEntity
  8
0
 62
     1
100
AcDbText
 10
176735.437138
 20
1676156.390579
 30
0.0
 40
0.75
  1
54
 41
0.954526
  7
SIMPLEX
100
AcDbAttribute
  2
PONTO
 70
     8
  0
ATTRIB
  5
1A7
100
AcDbEntity
  8
0
 62
     4
100
AcDbText
 10
176735.437138
 20
1676157.290579
 30
0.0
 40
0.75
  1

 41
0.699986
  7
SIMPLEX
100
AcDbAttribute
  2
DESC
 70
     9
  0
ATTRIB
  5
1A8
100
AcDbEntity
  8
0
 62
     2
100
AcDbText
 10
176734.362138
 20
1676154.940579
 30
0.0
 40
0.75
  1
1,882
 41
0.699986
  7
SIMPLEX
100
AcDbAttribute
  2
COTA
 70
     8
  0
SEQEND
  5
1A9
100
AcDbEntity
  8
0
  0
INSERT
  5
1AA
100
AcDbEntity
  8
_TG
 62
     3
100
AcDbBlockReference
 66
     1
  2
SIMB_PONTO
 10
176718.263502
 20
1676177.039297
 30
1.672816
  0
ATTRIB
  5
1AB
100
AcDbEntity
  8
0
 62
     1
100
AcDbText
 10
176718.613502
 20
1676177.389297
 30
0.0
 40
0.75
  1
55
 41
0.954526
  7
SIMPLEX
100
AcDbAttribute
  2
PONTO
 70
     8
  0
ATTRIB
  5
1AC
100
AcDbEntity
  8
0
 62
     4
100
AcDbText
 10
176718.613502
 20
1676178.289297
 30
0.0
 40
0.75
  1

 41
0.699986
  7
SIMPLEX
100
AcDbAttribute
  2
DESC
 70
     9
  0
ATTRIB
  5
1AD
100
AcDbEntity
  8
0
 62
     2
100
AcDbText
 10
176717.538502
 20
1676175.939297
 30
0.0
 40
0.75
  1
1,673
 41
0.699986
  7
SIMPLEX
100
AcDbAttribute
  2
COTA
 70
     8
  0
SEQEND
  5
1AE
100
AcDbEntity
  8
0
  0
INSERT
  5
1AF
100
AcDbEntity
  8
_TG
 62
     3
100
AcDbBlockReference
 66
     1
  2
SIMB_PONTO
 10
176721.47818
 20
1676180.730196
 30
3.420923
  0
ATTRIB
  5
1B0
100
AcDbEntity
  8
0
 62
     1
100
AcDbText
 10
176721.82818
 20
1676181.080196
 30
0.0
 40
0.75
  1
56
 41
0.954526
  7
SIMPLEX
100
AcDbAttribute
  2
PONTO
 70
     8
  0
ATTRIB
  5
1B1
100
AcDbEntity
  8
0
 62
     4
100
AcDbText
 10
176721.82818
 20
1676181.980196
 30
0.0
 40
0.75
  1

 41
0.699986
  7
SIMPLEX
100
AcDbAttribute
  2
DESC
 70
     9
  0
ATTRIB
  5
1B2
100
AcDbEntity
  8
0
 62
     2
100
AcDbText
 10
176720.75318
 20
1676179.630196
 30
0.0
 40
0.75
  1
3,421
 41
0.699986
  7
SIMPLEX
100
AcDbAttribute
  2
COTA
 70
     8
  0
SEQEND
  5
1B3
100
AcDbEntity
  8
0
  0
INSERT
  5
1B4
100
AcDbEntity
  8
_TG
 62
     3
100
AcDbBlockReference
 66
     1
  2
SIMB_PONTO
 10
176732.230541
 20
1676192.166263
 30
4.240524
  0
ATTRIB
  5
1B5
100
AcDbEntity
  8
0
 62
     1
100
AcDbText
 10
176732.580541
 20
1676192.516263
 30
0.0
 40
0.75
  1
57
 41
0.954526
  7
SIMPLEX
100
AcDbAttribute
  2
PONTO
 70
     8
  0
ATTRIB
  5
1B6
100
AcDbEntity
  8
0
 62
     4
100
AcDbText
 10
176732.580541
 20
1676193.416263
 30
0.0
 40
0.75
  1

 41
0.699986
  7
SIMPLEX
100
AcDbAttribute
  2
DESC
 70
     9
  0
ATTRIB
  5
1B7
100
AcDbEntity
  8
0
 62
     2
100
AcDbText
 10
176731.505541
 20
1676191.066263
 30
0.0
 40
0.75
  1
4,241
 41
0.699986
  7
SIMPLEX
100
AcDbAttribute
  2
COTA
 70
     8
  0
SEQEND
  5
1B8
100
AcDbEntity
  8
0
  0
INSERT
  5
1B9
100
AcDbEntity
  8
_TG
 62
     3
100
AcDbBlockReference
 66
     1
  2
SIMB_PONTO
 10
176732.903547
 20
1676192.408762
 30
4.452107
  0
ATTRIB
  5
1BA
100
AcDbEntity
  8
0
 62
     1
100
AcDbText
 10
176733.253547
 20
1676192.758762
 30
0.0
 40
0.75
  1
58
 41
0.954526
  7
SIMPLEX
100
AcDbAttribute
  2
PONTO
 70
     8
  0
ATTRIB
  5
1BB
100
AcDbEntity
  8
0
 62
     4
100
AcDbText
 10
176733.253547
 20
1676193.658762
 30
0.0
 40
0.75
  1

 41
0.699986
  7
SIMPLEX
100
AcDbAttribute
  2
DESC
 70
     9
  0
ATTRIB
  5
1BC
100
AcDbEntity
  8
0
 62
     2
100
AcDbText
 10
176732.128547
 20
1676191.308762
 30
0.0
 40
0.75
  1
4,452
 41
0.699986
  7
SIMPLEX
100
AcDbAttribute
  2
COTA
 70
     8
  0
SEQEND
  5
1BD
100
AcDbEntity
  8
0
  0
INSERT
  5
1BE
100
AcDbEntity
  8
_TG
 62
     3
100
AcDbBlockReference
 66
     1
  2
SIMB_PONTO
 10
176696.13216
 20
1676187.967207
 30
2.273474
  0
ATTRIB
  5
1BF
100
AcDbEntity
  8
0
 62
     1
100
AcDbText
 10
176696.48216
 20
1676188.317207
 30
0.0
 40
0.75
  1
59
 41
0.954526
  7
SIMPLEX
100
AcDbAttribute
  2
PONTO
 70
     8
  0
ATTRIB
  5
1C0
100
AcDbEntity
  8
0
 62
     4
100
AcDbText
 10
176696.48216
 20
1676189.217207
 30
0.0
 40
0.75
  1

 41
0.699986
  7
SIMPLEX
100
AcDbAttribute
  2
DESC
 70
     9
  0
ATTRIB
  5
1C1
100
AcDbEntity
  8
0
 62
     2
100
AcDbText
 10
176695.35716
 20
1676186.867207
 30
0.0
 40
0.75
  1
2,273
 41
0.699986
  7
SIMPLEX
100
AcDbAttribute
  2
COTA
 70
     8
  0
SEQEND
  5
1C2
100
AcDbEntity
  8
0
  0
INSERT
  5
1C3
100
AcDbEntity
  8
_TG
 62
     3
100
AcDbBlockReference
 66
     1
  2
SIMB_PONTO
 10
176801.378052
 20
1676195.912667
 30
4.492615
  0
ATTRIB
  5
1C4
100
AcDbEntity
  8
0
 62
     1
100
AcDbText
 10
176801.728052
 20
1676196.262667
 30
0.0
 40
0.75
  1
6
 41
0.954526
  7
SIMPLEX
100
AcDbAttribute
  2
PONTO
 70
     8
  0
ATTRIB
  5
1C5
100
AcDbEntity
  8
0
 62
     4
100
AcDbText
 10
176801.728052
 20
1676197.162667
 30
0.0
 40
0.75
  1

 41
0.699986
  7
SIMPLEX
100
AcDbAttribute
  2
DESC
 70
     9
  0
ATTRIB
  5
1C6
100
AcDbEntity
  8
0
 62
     2
100
AcDbText
 10
176800.603052
 20
1676194.812667
 30
0.0
 40
0.75
  1
4,493
 41
0.699986
  7
SIMPLEX
100
AcDbAttribute
  2
COTA
 70
     8
  0
SEQEND
  5
1C7
100
AcDbEntity
  8
0
  0
INSERT
  5
1C8
100
AcDbEntity
  8
_TG
 62
     3
100
AcDbBlockReference
 66
     1
  2
SIMB_PONTO
 10
176698.623774
 20
1676190.259537
 30
3.674567
  0
ATTRIB
  5
1C9
100
AcDbEntity
  8
0
 62
     1
100
AcDbText
 10
176698.973774
 20
1676190.609537
 30
0.0
 40
0.75
  1
60
 41
0.954526
  7
SIMPLEX
100
AcDbAttribute
  2
PONTO
 70
     8
  0
ATTRIB
  5
1CA
100
AcDbEntity
  8
0
 62
     4
100
AcDbText
 10
176698.973774
 20
1676191.509537
 30
0.0
 40
0.75
  1

 41
0.699986
  7
SIMPLEX
100
AcDbAttribute
  2
DESC
 70
     9
  0
ATTRIB
  5
1CB
100
AcDbEntity
  8
0
 62
     2
100
AcDbText
 10
176697.848774
 20
1676189.159537
 30
0.0
 40
0.75
  1
3,675
 41
0.699986
  7
SIMPLEX
100
AcDbAttribute
  2
COTA
 70
     8
  0
SEQEND
  5
1CC
100
AcDbEntity
  8
0
  0
INSERT
  5
1CD
100
AcDbEntity
  8
_TG
 62
     3
100
AcDbBlockReference
 66
     1
  2
SIMB_PONTO
 10
176725.908431
 20
1676209.071072
 30
4.15028
  0
ATTRIB
  5
1CE
100
AcDbEntity
  8
0
 62
     1
100
AcDbText
 10
176726.258431
 20
1676209.421072
 30
0.0
 40
0.75
  1
61
 41
0.954526
  7
SIMPLEX
100
AcDbAttribute
  2
PONTO
 70
     8
  0
ATTRIB
  5
1CF
100
AcDbEntity
  8
0
 62
     4
100
AcDbText
 10
176726.258431
 20
1676210.321072
 30
0.0
 40
0.75
  1

 41
0.699986
  7
SIMPLEX
100
AcDbAttribute
  2
DESC
 70
     9
  0
ATTRIB
  5
1D0
100
AcDbEntity
  8
0
 62
     2
100
AcDbText
 10
176725.183431
 20
1676207.971072
 30
0.0
 40
0.75
  1
4,150
 41
0.699986
  7
SIMPLEX
100
AcDbAttribute
  2
COTA
 70
     8
  0
SEQEND
  5
1D1
100
AcDbEntity
  8
0
  0
INSERT
  5
1D2
100
AcDbEntity
  8
_TG
 62
     3
100
AcDbBlockReference
 66
     1
  2
SIMB_PONTO
 10
176726.334708
 20
1676209.296413
 30
4.447452
  0
ATTRIB
  5
1D3
100
AcDbEntity
  8
0
 62
     1
100
AcDbText
 10
176726.684708
 20
1676209.646413
 30
0.0
 40
0.75
  1
62
 41
0.954526
  7
SIMPLEX
100
AcDbAttribute
  2
PONTO
 70
     8
  0
ATTRIB
  5
1D4
100
AcDbEntity
  8
0
 62
     4
100
AcDbText
 10
176726.684708
 20
1676210.546413
 30
0.0
 40
0.75
  1

 41
0.699986
  7
SIMPLEX
100
AcDbAttribute
  2
DESC
 70
     9
  0
ATTRIB
  5
1D5
100
AcDbEntity
  8
0
 62
     2
100
AcDbText
 10
176725.559708
 20
1676208.196413
 30
0.0
 40
0.75
  1
4,447
 41
0.699986
  7
SIMPLEX
100
AcDbAttribute
  2
COTA
 70
     8
  0
SEQEND
  5
1D6
100
AcDbEntity
  8
0
  0
INSERT
  5
1D7
100
AcDbEntity
  8
_TG
 62
     3
100
AcDbBlockReference
 66
     1
  2
SIMB_PONTO
 10
176685.087496
 20
1676202.884598
 30
2.227515
  0
ATTRIB
  5
1D8
100
AcDbEntity
  8
0
 62
     1
100
AcDbText
 10
176685.437496
 20
1676203.234598
 30
0.0
 40
0.75
  1
63
 41
0.954526
  7
SIMPLEX
100
AcDbAttribute
  2
PONTO
 70
     8
  0
ATTRIB
  5
1D9
100
AcDbEntity
  8
0
 62
     4
100
AcDbText
 10
176685.437496
 20
1676204.134598
 30
0.0
 40
0.75
  1

 41
0.699986
  7
SIMPLEX
100
AcDbAttribute
  2
DESC
 70
     9
  0
ATTRIB
  5
1DA
100
AcDbEntity
  8
0
 62
     2
100
AcDbText
 10
176684.312496
 20
1676201.784598
 30
0.0
 40
0.75
  1
2,228
 41
0.699986
  7
SIMPLEX
100
AcDbAttribute
  2
COTA
 70
     8
  0
SEQEND
  5
1DB
100
AcDbEntity
  8
0
  0
INSERT
  5
1DC
100
AcDbEntity
  8
_TG
 62
     3
100
AcDbBlockReference
 66
     1
  2
SIMB_PONTO
 10
176689.012526
 20
1676204.786246
 30
3.825614
  0
ATTRIB
  5
1DD
100
AcDbEntity
  8
0
 62
     1
100
AcDbText
 10
176689.362526
 20
1676205.136246
 30
0.0
 40
0.75
  1
64
 41
0.954526
  7
SIMPLEX
100
AcDbAttribute
  2
PONTO
 70
     8
  0
ATTRIB
  5
1DE
100
AcDbEntity
  8
0
 62
     4
100
AcDbText
 10
176689.362526
 20
1676206.036246
 30
0.0
 40
0.75
  1

 41
0.699986
  7
SIMPLEX
100
AcDbAttribute
  2
DESC
 70
     9
  0
ATTRIB
  5
1DF
100
AcDbEntity
  8
0
 62
     2
100
AcDbText
 10
176688.237526
 20
1676203.686246
 30
0.0
 40
0.75
  1
3,826
 41
0.699986
  7
SIMPLEX
100
AcDbAttribute
  2
COTA
 70
     8
  0
SEQEND
  5
1E0
100
AcDbEntity
  8
0
  0
INSERT
  5
1E1
100
AcDbEntity
  8
_TG
 62
     3
100
AcDbBlockReference
 66
     1
  2
SIMB_PONTO
 10
176723.19818
 20
1676215.622975
 30
4.02197
  0
ATTRIB
  5
1E2
100
AcDbEntity
  8
0
 62
     1
100
AcDbText
 10
176723.54818
 20
1676215.972975
 30
0.0
 40
0.75
  1
65
 41
0.954526
  7
SIMPLEX
100
AcDbAttribute
  2
PONTO
 70
     8
  0
ATTRIB
  5
1E3
100
AcDbEntity
  8
0
 62
     4
100
AcDbText
 10
176723.54818
 20
1676216.872975
 30
0.0
 40
0.75
  1

 41
0.699986
  7
SIMPLEX
100
AcDbAttribute
  2
DESC
 70
     9
  0
ATTRIB
  5
1E4
100
AcDbEntity
  8
0
 62
     2
100
AcDbText
 10
176722.42318
 20
1676214.522975
 30
0.0
 40
0.75
  1
4,022
 41
0.699986
  7
SIMPLEX
100
AcDbAttribute
  2
COTA
 70
     8
  0
SEQEND
  5
1E5
100
AcDbEntity
  8
0
  0
INSERT
  5
1E6
100
AcDbEntity
  8
_TG
 62
     3
100
AcDbBlockReference
 66
     1
  2
SIMB_PONTO
 10
176724.597947
 20
1676215.729942
 30
4.31557
  0
ATTRIB
  5
1E7
100
AcDbEntity
  8
0
 62
     1
100
AcDbText
 10
176724.947947
 20
1676216.079942
 30
0.0
 40
0.75
  1
66
 41
0.954526
  7
SIMPLEX
100
AcDbAttribute
  2
PONTO
 70
     8
  0
ATTRIB
  5
1E8
100
AcDbEntity
  8
0
 62
     4
100
AcDbText
 10
176724.947947
 20
1676216.979942
 30
0.0
 40
0.75
  1

 41
0.699986
  7
SIMPLEX
100
AcDbAttribute
  2
DESC
 70
     9
  0
ATTRIB
  5
1E9
100
AcDbEntity
  8
0
 62
     2
100
AcDbText
 10
176723.872947
 20
1676214.629942
 30
0.0
 40
0.75
  1
4,316
 41
0.699986
  7
SIMPLEX
100
AcDbAttribute
  2
COTA
 70
     8
  0
SEQEND
  5
1EA
100
AcDbEntity
  8
0
  0
INSERT
  5
1EB
100
AcDbEntity
  8
_TG
 62
     3
100
AcDbBlockReference
 66
     1
  2
SIMB_PONTO
 10
176679.208095
 20
1676221.387513
 30
2.22671
  0
ATTRIB
  5
1EC
100
AcDbEntity
  8
0
 62
     1
100
AcDbText
 10
176679.558095
 20
1676221.737513
 30
0.0
 40
0.75
  1
67
 41
0.954526
  7
SIMPLEX
100
AcDbAttribute
  2
PONTO
 70
     8
  0
ATTRIB
  5
1ED
100
AcDbEntity
  8
0
 62
     4
100
AcDbText
 10
176679.558095
 20
1676222.637513
 30
0.0
 40
0.75
  1

 41
0.699986
  7
SIMPLEX
100
AcDbAttribute
  2
DESC
 70
     9
  0
ATTRIB
  5
1EE
100
AcDbEntity
  8
0
 62
     2
100
AcDbText
 10
176678.433095
 20
1676220.287513
 30
0.0
 40
0.75
  1
2,227
 41
0.699986
  7
SIMPLEX
100
AcDbAttribute
  2
COTA
 70
     8
  0
SEQEND
  5
1EF
100
AcDbEntity
  8
0
  0
INSERT
  5
1F0
100
AcDbEntity
  8
_TG
 62
     3
100
AcDbBlockReference
 66
     1
  2
SIMB_PONTO
 10
176682.60104
 20
1676222.177129
 30
3.384318
  0
ATTRIB
  5
1F1
100
AcDbEntity
  8
0
 62
     1
100
AcDbText
 10
176682.95104
 20
1676222.527129
 30
0.0
 40
0.75
  1
68
 41
0.954526
  7
SIMPLEX
100
AcDbAttribute
  2
PONTO
 70
     8
  0
ATTRIB
  5
1F2
100
AcDbEntity
  8
0
 62
     4
100
AcDbText
 10
176682.95104
 20
1676223.427129
 30
0.0
 40
0.75
  1

 41
0.699986
  7
SIMPLEX
100
AcDbAttribute
  2
DESC
 70
     9
  0
ATTRIB
  5
1F3
100
AcDbEntity
  8
0
 62
     2
100
AcDbText
 10
176681.82604
 20
1676221.077129
 30
0.0
 40
0.75
  1
3,384
 41
0.699986
  7
SIMPLEX
100
AcDbAttribute
  2
COTA
 70
     8
  0
SEQEND
  5
1F4
100
AcDbEntity
  8
0
  0
INSERT
  5
1F5
100
AcDbEntity
  8
_TG
 62
     3
100
AcDbBlockReference
 66
     1
  2
SIMB_PONTO
 10
176720.534464
 20
1676223.388005
 30
4.102944
  0
ATTRIB
  5
1F6
100
AcDbEntity
  8
0
 62
     1
100
AcDbText
 10
176720.884464
 20
1676223.738005
 30
0.0
 40
0.75
  1
69
 41
0.954526
  7
SIMPLEX
100
AcDbAttribute
  2
PONTO
 70
     8
  0
ATTRIB
  5
1F7
100
AcDbEntity
  8
0
 62
     4
100
AcDbText
 10
176720.884464
 20
1676224.638005
 30
0.0
 40
0.75
  1

 41
0.699986
  7
SIMPLEX
100
AcDbAttribute
  2
DESC
 70
     9
  0
ATTRIB
  5
1F8
100
AcDbEntity
  8
0
 62
     2
100
AcDbText
 10
176719.809464
 20
1676222.288005
 30
0.0
 40
0.75
  1
4,103
 41
0.699986
  7
SIMPLEX
100
AcDbAttribute
  2
COTA
 70
     8
  0
SEQEND
  5
1F9
100
AcDbEntity
  8
0
  0
INSERT
  5
1FA
100
AcDbEntity
  8
_TG
 62
     3
100
AcDbBlockReference
 66
     1
  2
SIMB_PONTO
 10
176787.845956
 20
1676206.080663
 30
4.370303
  0
ATTRIB
  5
1FB
100
AcDbEntity
  8
0
 62
     1
100
AcDbText
 10
176788.195956
 20
1676206.430663
 30
0.0
 40
0.75
  1
7
 41
0.954526
  7
SIMPLEX
100
AcDbAttribute
  2
PONTO
 70
     8
  0
ATTRIB
  5
1FC
100
AcDbEntity
  8
0
 62
     4
100
AcDbText
 10
176788.195956
 20
1676207.330663
 30
0.0
 40
0.75
  1

 41
0.699986
  7
SIMPLEX
100
AcDbAttribute
  2
DESC
 70
     9
  0
ATTRIB
  5
1FD
100
AcDbEntity
  8
0
 62
     2
100
AcDbText
 10
176787.070956
 20
1676204.980663
 30
0.0
 40
0.75
  1
4,370
 41
0.699986
  7
SIMPLEX
100
AcDbAttribute
  2
COTA
 70
     8
  0
SEQEND
  5
1FE
100
AcDbEntity
  8
0
  0
INSERT
  5
1FF
100
AcDbEntity
  8
_TG
 62
     3
100
AcDbBlockReference
 66
     1
  2
SIMB_PONTO
 10
176720.858168
 20
1676223.810753
 30
4.282964
  0
ATTRIB
  5
200
100
AcDbEntity
  8
0
 62
     1
100
AcDbText
 10
176721.208168
 20
1676224.160753
 30
0.0
 40
0.75
  1
70
 41
0.954526
  7
SIMPLEX
100
AcDbAttribute
  2
PONTO
 70
     8
  0
ATTRIB
  5
201
100
AcDbEntity
  8
0
 62
     4
100
AcDbText
 10
176721.208168
 20
1676225.060753
 30
0.0
 40
0.75
  1

 41
0.699986
  7
SIMPLEX
100
AcDbAttribute
  2
DESC
 70
     9
  0
ATTRIB
  5
202
100
AcDbEntity
  8
0
 62
     2
100
AcDbText
 10
176720.083168
 20
1676222.710753
 30
0.0
 40
0.75
  1
4,283
 41
0.699986
  7
SIMPLEX
100
AcDbAttribute
  2
COTA
 70
     8
  0
SEQEND
  5
203
100
AcDbEntity
  8
0
  0
INSERT
  5
204
100
AcDbEntity
  8
_TG
 62
     3
100
AcDbBlockReference
 66
     1
  2
SIMB_PONTO
 10
176713.754466
 20
1676242.258961
 30
4.23526
  0
ATTRIB
  5
205
100
AcDbEntity
  8
0
 62
     1
100
AcDbText
 10
176714.104466
 20
1676242.608961
 30
0.0
 40
0.75
  1
71
 41
0.954526
  7
SIMPLEX
100
AcDbAttribute
  2
PONTO
 70
     8
  0
ATTRIB
  5
206
100
AcDbEntity
  8
0
 62
     4
100
AcDbText
 10
176714.104466
 20
1676243.508961
 30
0.0
 40
0.75
  1

 41
0.699986
  7
SIMPLEX
100
AcDbAttribute
  2
DESC
 70
     9
  0
ATTRIB
  5
207
100
AcDbEntity
  8
0
 62
     2
100
AcDbText
 10
176712.979466
 20
1676241.158961
 30
0.0
 40
0.75
  1
4,235
 41
0.699986
  7
SIMPLEX
100
AcDbAttribute
  2
COTA
 70
     8
  0
SEQEND
  5
208
100
AcDbEntity
  8
0
  0
INSERT
  5
209
100
AcDbEntity
  8
_TG
 62
     3
100
AcDbBlockReference
 66
     1
  2
SIMB_PONTO
 10
176713.19319
 20
1676242.055876
 30
3.931498
  0
ATTRIB
  5
20A
100
AcDbEntity
  8
0
 62
     1
100
AcDbText
 10
176713.54319
 20
1676242.405876
 30
0.0
 40
0.75
  1
72
 41
0.954526
  7
SIMPLEX
100
AcDbAttribute
  2
PONTO
 70
     8
  0
ATTRIB
  5
20B
100
AcDbEntity
  8
0
 62
     4
100
AcDbText
 10
176713.54319
 20
1676243.305876
 30
0.0
 40
0.75
  1

 41
0.699986
  7
SIMPLEX
100
AcDbAttribute
  2
DESC
 70
     9
  0
ATTRIB
  5
20C
100
AcDbEntity
  8
0
 62
     2
100
AcDbText
 10
176712.46819
 20
1676240.955876
 30
0.0
 40
0.75
  1
3,931
 41
0.699986
  7
SIMPLEX
100
AcDbAttribute
  2
COTA
 70
     8
  0
SEQEND
  5
20D
100
AcDbEntity
  8
0
  0
INSERT
  5
20E
100
AcDbEntity
  8
_TG
 62
     3
100
AcDbBlockReference
 66
     1
  2
SIMB_PONTO
 10
176686.319842
 20
1676239.30878
 30
3.292995
  0
ATTRIB
  5
20F
100
AcDbEntity
  8
0
 62
     1
100
AcDbText
 10
176686.669842
 20
1676239.65878
 30
0.0
 40
0.75
  1
73
 41
0.954526
  7
SIMPLEX
100
AcDbAttribute
  2
PONTO
 70
     8
  0
ATTRIB
  5
210
100
AcDbEntity
  8
0
 62
     4
100
AcDbText
 10
176686.669842
 20
1676240.55878
 30
0.0
 40
0.75
  1

 41
0.699986
  7
SIMPLEX
100
AcDbAttribute
  2
DESC
 70
     9
  0
ATTRIB
  5
211
100
AcDbEntity
  8
0
 62
     2
100
AcDbText
 10
176685.544842
 20
1676238.20878
 30
0.0
 40
0.75
  1
3,293
 41
0.699986
  7
SIMPLEX
100
AcDbAttribute
  2
COTA
 70
     8
  0
SEQEND
  5
212
100
AcDbEntity
  8
0
  0
INSERT
  5
213
100
AcDbEntity
  8
_TG
 62
     3
100
AcDbBlockReference
 66
     1
  2
SIMB_PONTO
 10
176682.158271
 20
1676242.721124
 30
1.980774
  0
ATTRIB
  5
214
100
AcDbEntity
  8
0
 62
     1
100
AcDbText
 10
176682.508271
 20
1676243.071124
 30
0.0
 40
0.75
  1
74
 41
0.954526
  7
SIMPLEX
100
AcDbAttribute
  2
PONTO
 70
     8
  0
ATTRIB
  5
215
100
AcDbEntity
  8
0
 62
     4
100
AcDbText
 10
176682.508271
 20
1676243.971124
 30
0.0
 40
0.75
  1

 41
0.699986
  7
SIMPLEX
100
AcDbAttribute
  2
DESC
 70
     9
  0
ATTRIB
  5
216
100
AcDbEntity
  8
0
 62
     2
100
AcDbText
 10
176681.483271
 20
1676241.621124
 30
0.0
 40
0.75
  1
1,981
 41
0.699986
  7
SIMPLEX
100
AcDbAttribute
  2
COTA
 70
     8
  0
SEQEND
  5
217
100
AcDbEntity
  8
0
  0
INSERT
  5
218
100
AcDbEntity
  8
_TG
 62
     3
100
AcDbBlockReference
 66
     1
  2
SIMB_PONTO
 10
176704.042487
 20
1676258.249315
 30
2.137334
  0
ATTRIB
  5
219
100
AcDbEntity
  8
0
 62
     1
100
AcDbText
 10
176704.392487
 20
1676258.599315
 30
0.0
 40
0.75
  1
75
 41
0.954526
  7
SIMPLEX
100
AcDbAttribute
  2
PONTO
 70
     8
  0
ATTRIB
  5
21A
100
AcDbEntity
  8
0
 62
     4
100
AcDbText
 10
176704.392487
 20
1676259.499315
 30
0.0
 40
0.75
  1

 41
0.699986
  7
SIMPLEX
100
AcDbAttribute
  2
DESC
 70
     9
  0
ATTRIB
  5
21B
100
AcDbEntity
  8
0
 62
     2
100
AcDbText
 10
176703.317487
 20
1676257.149315
 30
0.0
 40
0.75
  1
2,137
 41
0.699986
  7
SIMPLEX
100
AcDbAttribute
  2
COTA
 70
     8
  0
SEQEND
  5
21C
100
AcDbEntity
  8
0
  0
INSERT
  5
21D
100
AcDbEntity
  8
_TG
 62
     3
100
AcDbBlockReference
 66
     1
  2
SIMB_PONTO
 10
176706.949747
 20
1676256.173106
 30
3.701371
  0
ATTRIB
  5
21E
100
AcDbEntity
  8
0
 62
     1
100
AcDbText
 10
176707.299747
 20
1676256.523106
 30
0.0
 40
0.75
  1
76
 41
0.954526
  7
SIMPLEX
100
AcDbAttribute
  2
PONTO
 70
     8
  0
ATTRIB
  5
21F
100
AcDbEntity
  8
0
 62
     4
100
AcDbText
 10
176707.299747
 20
1676257.423106
 30
0.0
 40
0.75
  1

 41
0.699986
  7
SIMPLEX
100
AcDbAttribute
  2
DESC
 70
     9
  0
ATTRIB
  5
220
100
AcDbEntity
  8
0
 62
     2
100
AcDbText
 10
176706.224747
 20
1676255.073106
 30
0.0
 40
0.75
  1
3,701
 41
0.699986
  7
SIMPLEX
100
AcDbAttribute
  2
COTA
 70
     8
  0
SEQEND
  5
221
100
AcDbEntity
  8
0
  0
INSERT
  5
222
100
AcDbEntity
  8
_TG
 62
     3
100
AcDbBlockReference
 66
     1
  2
SIMB_PONTO
 10
176745.483098
 20
1676232.249225
 30
4.408819
  0
ATTRIB
  5
223
100
AcDbEntity
  8
0
 62
     1
100
AcDbText
 10
176745.833098
 20
1676232.599225
 30
0.0
 40
0.75
  1
77
 41
0.954526
  7
SIMPLEX
100
AcDbAttribute
  2
PONTO
 70
     8
  0
ATTRIB
  5
224
100
AcDbEntity
  8
0
 62
     4
100
AcDbText
 10
176745.833098
 20
1676233.499225
 30
0.0
 40
0.75
  1

 41
0.699986
  7
SIMPLEX
100
AcDbAttribute
  2
DESC
 70
     9
  0
ATTRIB
  5
225
100
AcDbEntity
  8
0
 62
     2
100
AcDbText
 10
176744.708098
 20
1676231.149225
 30
0.0
 40
0.75
  1
4,409
 41
0.699986
  7
SIMPLEX
100
AcDbAttribute
  2
COTA
 70
     8
  0
SEQEND
  5
226
100
AcDbEntity
  8
0
  0
INSERT
  5
227
100
AcDbEntity
  8
_TG
 62
     3
100
AcDbBlockReference
 66
     1
  2
SIMB_PONTO
 10
176759.988745
 20
1676253.127709
 30
4.20988
  0
ATTRIB
  5
228
100
AcDbEntity
  8
0
 62
     1
100
AcDbText
 10
176760.338745
 20
1676253.477709
 30
0.0
 40
0.75
  1
78
 41
0.954526
  7
SIMPLEX
100
AcDbAttribute
  2
PONTO
 70
     8
  0
ATTRIB
  5
229
100
AcDbEntity
  8
0
 62
     4
100
AcDbText
 10
176760.338745
 20
1676254.377709
 30
0.0
 40
0.75
  1

 41
0.699986
  7
SIMPLEX
100
AcDbAttribute
  2
DESC
 70
     9
  0
ATTRIB
  5
22A
100
AcDbEntity
  8
0
 62
     2
100
AcDbText
 10
176759.263745
 20
1676252.027709
 30
0.0
 40
0.75
  1
4,210
 41
0.699986
  7
SIMPLEX
100
AcDbAttribute
  2
COTA
 70
     8
  0
SEQEND
  5
22B
100
AcDbEntity
  8
0
  0
INSERT
  5
22C
100
AcDbEntity
  8
_TG
 62
     3
100
AcDbBlockReference
 66
     1
  2
SIMB_PONTO
 10
176762.888703
 20
1676256.496807
 30
3.800718
  0
ATTRIB
  5
22D
100
AcDbEntity
  8
0
 62
     1
100
AcDbText
 10
176763.238703
 20
1676256.846807
 30
0.0
 40
0.75
  1
79
 41
0.954526
  7
SIMPLEX
100
AcDbAttribute
  2
PONTO
 70
     8
  0
ATTRIB
  5
22E
100
AcDbEntity
  8
0
 62
     4
100
AcDbText
 10
176763.238703
 20
1676257.746807
 30
0.0
 40
0.75
  1

 41
0.699986
  7
SIMPLEX
100
AcDbAttribute
  2
DESC
 70
     9
  0
ATTRIB
  5
22F
100
AcDbEntity
  8
0
 62
     2
100
AcDbText
 10
176762.163703
 20
1676255.396807
 30
0.0
 40
0.75
  1
3,801
 41
0.699986
  7
SIMPLEX
100
AcDbAttribute
  2
COTA
 70
     8
  0
SEQEND
  5
230
100
AcDbEntity
  8
0
  0
INSERT
  5
231
100
AcDbEntity
  8
_TG
 62
     3
100
AcDbBlockReference
 66
     1
  2
SIMB_PONTO
 10
176797.009222
 20
1676218.252737
 30
4.405346
  0
ATTRIB
  5
232
100
AcDbEntity
  8
0
 62
     1
100
AcDbText
 10
176797.359222
 20
1676218.602737
 30
0.0
 40
0.75
  1
8
 41
0.954526
  7
SIMPLEX
100
AcDbAttribute
  2
PONTO
 70
     8
  0
ATTRIB
  5
233
100
AcDbEntity
  8
0
 62
     4
100
AcDbText
 10
176797.359222
 20
1676219.502737
 30
0.0
 40
0.75
  1

 41
0.699986
  7
SIMPLEX
100
AcDbAttribute
  2
DESC
 70
     9
  0
ATTRIB
  5
234
100
AcDbEntity
  8
0
 62
     2
100
AcDbText
 10
176796.234222
 20
1676217.152737
 30
0.0
 40
0.75
  1
4,405
 41
0.699986
  7
SIMPLEX
100
AcDbAttribute
  2
COTA
 70
     8
  0
SEQEND
  5
235
100
AcDbEntity
  8
0
  0
INSERT
  5
236
100
AcDbEntity
  8
_TG
 62
     3
100
AcDbBlockReference
 66
     1
  2
SIMB_PONTO
 10
176782.993389
 20
1676238.700837
 30
3.829971
  0
ATTRIB
  5
237
100
AcDbEntity
  8
0
 62
     1
100
AcDbText
 10
176783.343389
 20
1676239.050837
 30
0.0
 40
0.75
  1
80
 41
0.954526
  7
SIMPLEX
100
AcDbAttribute
  2
PONTO
 70
     8
  0
ATTRIB
  5
238
100
AcDbEntity
  8
0
 62
     4
100
AcDbText
 10
176783.343389
 20
1676239.950837
 30
0.0
 40
0.75
  1

 41
0.699986
  7
SIMPLEX
100
AcDbAttribute
  2
DESC
 70
     9
  0
ATTRIB
  5
239
100
AcDbEntity
  8
0
 62
     2
100
AcDbText
 10
176782.218389
 20
1676237.600837
 30
0.0
 40
0.75
  1
3,830
 41
0.699986
  7
SIMPLEX
100
AcDbAttribute
  2
COTA
 70
     8
  0
SEQEND
  5
23A
100
AcDbEntity
  8
0
  0
INSERT
  5
23B
100
AcDbEntity
  8
_TG
 62
     3
100
AcDbBlockReference
 66
     1
  2
SIMB_PONTO
 10
176781.498439
 20
1676237.51938
 30
4.286555
  0
ATTRIB
  5
23C
100
AcDbEntity
  8
0
 62
     1
100
AcDbText
 10
176781.848439
 20
1676237.86938
 30
0.0
 40
0.75
  1
81
 41
0.954526
  7
SIMPLEX
100
AcDbAttribute
  2
PONTO
 70
     8
  0
ATTRIB
  5
23D
100
AcDbEntity
  8
0
 62
     4
100
AcDbText
 10
176781.848439
 20
1676238.76938
 30
0.0
 40
0.75
  1

 41
0.699986
  7
SIMPLEX
100
AcDbAttribute
  2
DESC
 70
     9
  0
ATTRIB
  5
23E
100
AcDbEntity
  8
0
 62
     2
100
AcDbText
 10
176780.723439
 20
1676236.41938
 30
0.0
 40
0.75
  1
4,287
 41
0.699986
  7
SIMPLEX
100
AcDbAttribute
  2
COTA
 70
     8
  0
SEQEND
  5
23F
100
AcDbEntity
  8
0
  0
INSERT
  5
240
100
AcDbEntity
  8
_TG
 62
     3
100
AcDbBlockReference
 66
     1
  2
SIMB_PONTO
 10
176769.422628
 20
1676222.094272
 30
4.437459
  0
ATTRIB
  5
241
100
AcDbEntity
  8
0
 62
     1
100
AcDbText
 10
176769.772628
 20
1676222.444272
 30
0.0
 40
0.75
  1
82
 41
0.954526
  7
SIMPLEX
100
AcDbAttribute
  2
PONTO
 70
     8
  0
ATTRIB
  5
242
100
AcDbEntity
  8
0
 62
     4
100
AcDbText
 10
176769.772628
 20
1676223.344272
 30
0.0
 40
0.75
  1

 41
0.699986
  7
SIMPLEX
100
AcDbAttribute
  2
DESC
 70
     9
  0
ATTRIB
  5
243
100
AcDbEntity
  8
0
 62
     2
100
AcDbText
 10
176768.647628
 20
1676220.994272
 30
0.0
 40
0.75
  1
4,437
 41
0.699986
  7
SIMPLEX
100
AcDbAttribute
  2
COTA
 70
     8
  0
SEQEND
  5
244
100
AcDbEntity
  8
0
  0
INSERT
  5
245
100
AcDbEntity
  8
_TG
 62
     3
100
AcDbBlockReference
 66
     1
  2
SIMB_PONTO
 10
176783.032165
 20
1676211.664518
 30
4.424184
  0
ATTRIB
  5
246
100
AcDbEntity
  8
0
 62
     1
100
AcDbText
 10
176783.382165
 20
1676212.014518
 30
0.0
 40
0.75
  1
83
 41
0.954526
  7
SIMPLEX
100
AcDbAttribute
  2
PONTO
 70
     8
  0
ATTRIB
  5
247
100
AcDbEntity
  8
0
 62
     4
100
AcDbText
 10
176783.382165
 20
1676212.914518
 30
0.0
 40
0.75
  1

 41
0.699986
  7
SIMPLEX
100
AcDbAttribute
  2
DESC
 70
     9
  0
ATTRIB
  5
248
100
AcDbEntity
  8
0
 62
     2
100
AcDbText
 10
176782.257165
 20
1676210.564518
 30
0.0
 40
0.75
  1
4,424
 41
0.699986
  7
SIMPLEX
100
AcDbAttribute
  2
COTA
 70
     8
  0
SEQEND
  5
249
100
AcDbEntity
  8
0
  0
INSERT
  5
24A
100
AcDbEntity
  8
_TG
 62
     3
100
AcDbBlockReference
 66
     1
  2
SIMB_PONTO
 10
176797.824098
 20
1676225.23511
 30
4.301782
  0
ATTRIB
  5
24B
100
AcDbEntity
  8
0
 62
     1
100
AcDbText
 10
176798.174098
 20
1676225.58511
 30
0.0
 40
0.75
  1
84
 41
0.954526
  7
SIMPLEX
100
AcDbAttribute
  2
PONTO
 70
     8
  0
ATTRIB
  5
24C
100
AcDbEntity
  8
0
 62
     4
100
AcDbText
 10
176798.174098
 20
1676226.48511
 30
0.0
 40
0.75
  1

 41
0.699986
  7
SIMPLEX
100
AcDbAttribute
  2
DESC
 70
     9
  0
ATTRIB
  5
24D
100
AcDbEntity
  8
0
 62
     2
100
AcDbText
 10
176797.049098
 20
1676224.13511
 30
0.0
 40
0.75
  1
4,302
 41
0.699986
  7
SIMPLEX
100
AcDbAttribute
  2
COTA
 70
     8
  0
SEQEND
  5
24E
100
AcDbEntity
  8
0
  0
INSERT
  5
24F
100
AcDbEntity
  8
_TG
 62
     3
100
AcDbBlockReference
 66
     1
  2
SIMB_PONTO
 10
176799.12252
 20
1676226.806129
 30
3.859837
  0
ATTRIB
  5
250
100
AcDbEntity
  8
0
 62
     1
100
AcDbText
 10
176799.47252
 20
1676227.156129
 30
0.0
 40
0.75
  1
85
 41
0.954526
  7
SIMPLEX
100
AcDbAttribute
  2
PONTO
 70
     8
  0
ATTRIB
  5
251
100
AcDbEntity
  8
0
 62
     4
100
AcDbText
 10
176799.47252
 20
1676228.056129
 30
0.0
 40
0.75
  1

 41
0.699986
  7
SIMPLEX
100
AcDbAttribute
  2
DESC
 70
     9
  0
ATTRIB
  5
252
100
AcDbEntity
  8
0
 62
     2
100
AcDbText
 10
176798.34752
 20
1676225.706129
 30
0.0
 40
0.75
  1
3,860
 41
0.699986
  7
SIMPLEX
100
AcDbAttribute
  2
COTA
 70
     8
  0
SEQEND
  5
253
100
AcDbEntity
  8
0
  0
INSERT
  5
254
100
AcDbEntity
  8
_TG
 62
     3
100
AcDbBlockReference
 66
     1
  2
SIMB_PONTO
 10
176809.296664
 20
1676219.328806
 30
4.258972
  0
ATTRIB
  5
255
100
AcDbEntity
  8
0
 62
     1
100
AcDbText
 10
176809.646664
 20
1676219.678806
 30
0.0
 40
0.75
  1
86
 41
0.954526
  7
SIMPLEX
100
AcDbAttribute
  2
PONTO
 70
     8
  0
ATTRIB
  5
256
100
AcDbEntity
  8
0
 62
     4
100
AcDbText
 10
176809.646664
 20
1676220.578806
 30
0.0
 40
0.75
  1

 41
0.699986
  7
SIMPLEX
100
AcDbAttribute
  2
DESC
 70
     9
  0
ATTRIB
  5
257
100
AcDbEntity
  8
0
 62
     2
100
AcDbText
 10
176808.521664
 20
1676218.228806
 30
0.0
 40
0.75
  1
4,259
 41
0.699986
  7
SIMPLEX
100
AcDbAttribute
  2
COTA
 70
     8
  0
SEQEND
  5
258
100
AcDbEntity
  8
0
  0
INSERT
  5
259
100
AcDbEntity
  8
_TG
 62
     3
100
AcDbBlockReference
 66
     1
  2
SIMB_PONTO
 10
176798.772268
 20
1676193.091359
 30
4.529289
  0
ATTRIB
  5
25A
100
AcDbEntity
  8
0
 62
     1
100
AcDbText
 10
176799.122268
 20
1676193.441359
 30
0.0
 40
0.75
  1
87
 41
0.954526
  7
SIMPLEX
100
AcDbAttribute
  2
PONTO
 70
     8
  0
ATTRIB
  5
25B
100
AcDbEntity
  8
0
 62
     4
100
AcDbText
 10
176799.122268
 20
1676194.341359
 30
0.0
 40
0.75
  1

 41
0.699986
  7
SIMPLEX
100
AcDbAttribute
  2
DESC
 70
     9
  0
ATTRIB
  5
25C
100
AcDbEntity
  8
0
 62
     2
100
AcDbText
 10
176797.997268
 20
1676191.991359
 30
0.0
 40
0.75
  1
4,529
 41
0.699986
  7
SIMPLEX
100
AcDbAttribute
  2
COTA
 70
     8
  0
SEQEND
  5
25D
100
AcDbEntity
  8
0
  0
INSERT
  5
25E
100
AcDbEntity
  8
_TG
 62
     3
100
AcDbBlockReference
 66
     1
  2
SIMB_PONTO
 10
176779.176621
 20
1676188.18909
 30
4.433935
  0
ATTRIB
  5
25F
100
AcDbEntity
  8
0
 62
     1
100
AcDbText
 10
176779.526621
 20
1676188.53909
 30
0.0
 40
0.75
  1
88
 41
0.954526
  7
SIMPLEX
100
AcDbAttribute
  2
PONTO
 70
     8
  0
ATTRIB
  5
260
100
AcDbEntity
  8
0
 62
     4
100
AcDbText
 10
176779.526621
 20
1676189.43909
 30
0.0
 40
0.75
  1

 41
0.699986
  7
SIMPLEX
100
AcDbAttribute
  2
DESC
 70
     9
  0
ATTRIB
  5
261
100
AcDbEntity
  8
0
 62
     2
100
AcDbText
 10
176778.401621
 20
1676187.08909
 30
0.0
 40
0.75
  1
4,434
 41
0.699986
  7
SIMPLEX
100
AcDbAttribute
  2
COTA
 70
     8
  0
SEQEND
  5
262
100
AcDbEntity
  8
0
  0
INSERT
  5
263
100
AcDbEntity
  8
_TG
 62
     3
100
AcDbBlockReference
 66
     1
  2
SIMB_PONTO
 10
176766.49304
 20
1676171.062907
 30
4.448512
  0
ATTRIB
  5
264
100
AcDbEntity
  8
0
 62
     1
100
AcDbText
 10
176766.84304
 20
1676171.412907
 30
0.0
 40
0.75
  1
89
 41
0.954526
  7
SIMPLEX
100
AcDbAttribute
  2
PONTO
 70
     8
  0
ATTRIB
  5
265
100
AcDbEntity
  8
0
 62
     4
100
AcDbText
 10
176766.84304
 20
1676172.312907
 30
0.0
 40
0.75
  1

 41
0.699986
  7
SIMPLEX
100
AcDbAttribute
  2
DESC
 70
     9
  0
ATTRIB
  5
266
100
AcDbEntity
  8
0
 62
     2
100
AcDbText
 10
176765.71804
 20
1676169.962907
 30
0.0
 40
0.75
  1
4,449
 41
0.699986
  7
SIMPLEX
100
AcDbAttribute
  2
COTA
 70
     8
  0
SEQEND
  5
267
100
AcDbEntity
  8
0
  0
INSERT
  5
268
100
AcDbEntity
  8
_TG
 62
     3
100
AcDbBlockReference
 66
     1
  2
SIMB_PONTO
 10
176761.892456
 20
1676254.18823
 30
3.846253
  0
ATTRIB
  5
269
100
AcDbEntity
  8
0
 62
     1
100
AcDbText
 10
176762.242456
 20
1676254.53823
 30
0.0
 40
0.75
  1
9
 41
0.954526
  7
SIMPLEX
100
AcDbAttribute
  2
PONTO
 70
     8
  0
ATTRIB
  5
26A
100
AcDbEntity
  8
0
 62
     4
100
AcDbText
 10
176762.242456
 20
1676255.43823
 30
0.0
 40
0.75
  1

 41
0.699986
  7
SIMPLEX
100
AcDbAttribute
  2
DESC
 70
     9
  0
ATTRIB
  5
26B
100
AcDbEntity
  8
0
 62
     2
100
AcDbText
 10
176761.117456
 20
1676253.08823
 30
0.0
 40
0.75
  1
3,846
 41
0.699986
  7
SIMPLEX
100
AcDbAttribute
  2
COTA
 70
     8
  0
SEQEND
  5
26C
100
AcDbEntity
  8
0
  0
INSERT
  5
26D
100
AcDbEntity
  8
_TG
 62
     3
100
AcDbBlockReference
 66
     1
  2
SIMB_PONTO
 10
176750.846327
 20
1676179.043507
 30
4.356545
  0
ATTRIB
  5
26E
100
AcDbEntity
  8
0
 62
     1
100
AcDbText
 10
176751.196327
 20
1676179.393507
 30
0.0
 40
0.75
  1
90
 41
0.954526
  7
SIMPLEX
100
AcDbAttribute
  2
PONTO
 70
     8
  0
ATTRIB
  5
26F
100
AcDbEntity
  8
0
 62
     4
100
AcDbText
 10
176751.196327
 20
1676180.293507
 30
0.0
 40
0.75
  1

 41
0.699986
  7
SIMPLEX
100
AcDbAttribute
  2
DESC
 70
     9
  0
ATTRIB
  5
270
100
AcDbEntity
  8
0
 62
     2
100
AcDbText
 10
176750.071327
 20
1676177.943507
 30
0.0
 40
0.75
  1
4,357
 41
0.699986
  7
SIMPLEX
100
AcDbAttribute
  2
COTA
 70
     8
  0
SEQEND
  5
271
100
AcDbEntity
  8
0
  0
INSERT
  5
272
100
AcDbEntity
  8
_TG
 62
     3
100
AcDbBlockReference
 66
     1
  2
SIMB_PONTO
 10
176736.212142
 20
1676198.849107
 30
4.436348
  0
ATTRIB
  5
273
100
AcDbEntity
  8
0
 62
     1
100
AcDbText
 10
176736.562142
 20
1676199.199107
 30
0.0
 40
0.75
  1
91
 41
0.954526
  7
SIMPLEX
100
AcDbAttribute
  2
PONTO
 70
     8
  0
ATTRIB
  5
274
100
AcDbEntity
  8
0
 62
     4
100
AcDbText
 10
176736.562142
 20
1676200.099107
 30
0.0
 40
0.75
  1

 41
0.699986
  7
SIMPLEX
100
AcDbAttribute
  2
DESC
 70
     9
  0
ATTRIB
  5
275
100
AcDbEntity
  8
0
 62
     2
100
AcDbText
 10
176735.437142
 20
1676197.749107
 30
0.0
 40
0.75
  1
4,436
 41
0.699986
  7
SIMPLEX
100
AcDbAttribute
  2
COTA
 70
     8
  0
SEQEND
  5
276
100
AcDbEntity
  8
0
  0
INSERT
  5
277
100
AcDbEntity
  8
_TG
 62
     3
100
AcDbBlockReference
 66
     1
  2
SIMB_PONTO
 10
176742.494269
 20
1676204.184719
 30
4.389201
  0
ATTRIB
  5
278
100
AcDbEntity
  8
0
 62
     1
100
AcDbText
 10
176742.844269
 20
1676204.534719
 30
0.0
 40
0.75
  1
92
 41
0.954526
  7
SIMPLEX
100
AcDbAttribute
  2
PONTO
 70
     8
  0
ATTRIB
  5
279
100
AcDbEntity
  8
0
 62
     4
100
AcDbText
 10
176742.844269
 20
1676205.434719
 30
0.0
 40
0.75
  1

 41
0.699986
  7
SIMPLEX
100
AcDbAttribute
  2
DESC
 70
     9
  0
ATTRIB
  5
27A
100
AcDbEntity
  8
0
 62
     2
100
AcDbText
 10
176741.719269
 20
1676203.084719
 30
0.0
 40
0.75
  1
4,389
 41
0.699986
  7
SIMPLEX
100
AcDbAttribute
  2
COTA
 70
     8
  0
SEQEND
  5
27B
100
AcDbEntity
  8
0
  0
INSERT
  5
27C
100
AcDbEntity
  8
_TG
 62
     3
100
AcDbBlockReference
 66
     1
  2
SIMB_PONTO
 10
176728.045363
 20
1676223.319716
 30
4.33515
  0
ATTRIB
  5
27D
100
AcDbEntity
  8
0
 62
     1
100
AcDbText
 10
176728.395363
 20
1676223.669716
 30
0.0
 40
0.75
  1
93
 41
0.954526
  7
SIMPLEX
100
AcDbAttribute
  2
PONTO
 70
     8
  0
ATTRIB
  5
27E
100
AcDbEntity
  8
0
 62
     4
100
AcDbText
 10
176728.395363
 20
1676224.569716
 30
0.0
 40
0.75
  1

 41
0.699986
  7
SIMPLEX
100
AcDbAttribute
  2
DESC
 70
     9
  0
ATTRIB
  5
27F
100
AcDbEntity
  8
0
 62
     2
100
AcDbText
 10
176727.270363
 20
1676222.219716
 30
0.0
 40
0.75
  1
4,335
 41
0.699986
  7
SIMPLEX
100
AcDbAttribute
  2
COTA
 70
     8
  0
SEQEND
  5
280
100
AcDbEntity
  8
0
  0
INSERT
  5
281
100
AcDbEntity
  8
_TG
 62
     3
100
AcDbBlockReference
 66
     1
  2
SIMB_PONTO
 10
176829.440246
 20
1676182.386927
 30
4.579851
  0
ATTRIB
  5
282
100
AcDbEntity
  8
0
 62
     1
100
AcDbText
 10
176829.790246
 20
1676182.736927
 30
0.0
 40
0.75
  1
E1
 41
0.954526
  7
SIMPLEX
100
AcDbAttribute
  2
PONTO
 70
     8
  0
ATTRIB
  5
283
100
AcDbEntity
  8
0
 62
     4
100
AcDbText
 10
176829.790246
 20
1676183.636927
 30
0.0
 40
0.75
  1

 41
0.699986
  7
SIMPLEX
100
AcDbAttribute
  2
DESC
 70
     9
  0
ATTRIB
  5
284
100
AcDbEntity
  8
0
 62
     2
100
AcDbText
 10
176828.665246
 20
1676181.286927
 30
0.0
 40
0.75
  1
4,580
 41
0.699986
  7
SIMPLEX
100
AcDbAttribute
  2
COTA
 70
     8
  0
SEQEND
  5
285
100
AcDbEntity
  8
0
  0
INSERT
  5
286
100
AcDbEntity
  8
_TG
 62
     3
100
AcDbBlockReference
 66
     1
  2
SIMB_PONTO
 10
176736.086173
 20
1676216.407649
 30
4.451479
  0
ATTRIB
  5
287
100
AcDbEntity
  8
0
 62
     1
100
AcDbText
 10
176736.436173
 20
1676216.757649
 30
0.0
 40
0.75
  1
E2
 41
0.954526
  7
SIMPLEX
100
AcDbAttribute
  2
PONTO
 70
     8
  0
ATTRIB
  5
288
100
AcDbEntity
  8
0
 62
     4
100
AcDbText
 10
176736.436173
 20
1676217.657649
 30
0.0
 40
0.75
  1

 41
0.699986
  7
SIMPLEX
100
AcDbAttribute
  2
DESC
 70
     9
  0
ATTRIB
  5
289
100
AcDbEntity
  8
0
 62
     2
100
AcDbText
 10
176735.361173
 20
1676215.307649
 30
0.0
 40
0.75
  1
4,451
 41
0.699986
  7
SIMPLEX
100
AcDbAttribute
  2
COTA
 70
     8
  0
SEQEND
  5
28A
100
AcDbEntity
  8
0
  0
INSERT
  5
28B
100
AcDbEntity
  8
_TG
 62
     3
100
AcDbBlockReference
 66
     1
  2
SIMB_PONTO
 10
176804.012
 20
1676121.492
 30
4.975
  0
ATTRIB
  5
28C
100
AcDbEntity
  8
0
 62
     1
100
AcDbText
 10
176804.362
 20
1676121.842
 30
0.0
 40
0.75
  1
P5004
 41
0.954526
  7
SIMPLEX
100
AcDbAttribute
  2
PONTO
 70
     8
  0
ATTRIB
  5
28D
100
AcDbEntity
  8
0
 62
     4
100
AcDbText
 10
176804.362
 20
1676122.742
 30
0.0
 40
0.75
  1

 41
0.699986
  7
SIMPLEX
100
AcDbAttribute
  2
DESC
 70
     9
  0
ATTRIB
  5
28E
100
AcDbEntity
  8
0
 62
     2
100
AcDbText
 10
176803.237
 20
1676120.392
 30
0.0
 40
0.75
  1
4,975
 41
0.699986
  7
SIMPLEX
100
AcDbAttribute
  2
COTA
 70
     8
  0
SEQEND
  5
28F
100
AcDbEntity
  8
0
  0
POLYLINE
  5
290
100
AcDbEntity
  8
MALHATRITG
  6
CONTINUO
 62
   132
100
AcDbPolyFaceMesh
 66
     1
 10
0.0
 20
0.0
 30
0.0
 70
    64
 71
    95
 72
   179
  0
VERTEX
  5
291
100
AcDbEntity
  8
MALHATRITG
  6
CONTINUO
 62
   132
100
AcDbVertex
100
AcDbPolyFaceMeshVertex
 10
176706.8226
 20
1676128.4654
 30
4.0922
 70
   192
  0
VERTEX
  5
292
100
AcDbEntity
  8
MALHATRITG
  6
CONTINUO
 62
   132
100
AcDbVertex
100
AcDbPolyFaceMeshVertex
 10
176703.0175
 20
1676136.1309
 30
4.0416
 70
   192
  0
VERTEX
  5
293
100
AcDbEntity
  8
MALHATRITG
  6
CONTINUO
 62
   132
100
AcDbVertex
100
AcDbPolyFaceMeshVertex
 10
176720.0811
 20
1676141.8922
 30
4.0384
 70
   192
  0
VERTEX
  5
294
100
AcDbEntity
  8
MALHATRITG
  6
CONTINUO
 62
   132
100
AcDbVertex
100
AcDbPolyFaceMeshVertex
 10
176729.5668
 20
1676145.0178
 30
4.0549
 70
   192
  0
VERTEX
  5
295
100
AcDbEntity
  8
MALHATRITG
  6
CONTINUO
 62
   132
100
AcDbVertex
100
AcDbPolyFaceMeshVertex
 10
176721.4082
 20
1676145.5636
 30
4.0095
 70
   192
  0
VERTEX
  5
296
100
AcDbEntity
  8
MALHATRITG
  6
CONTINUO
 62
   132
100
AcDbVertex
100
AcDbPolyFaceMeshVertex
 10
176728.6128
 20
1676147.85
 30
3.8971
 70
   192
  0
VERTEX
  5
297
100
AcDbEntity
  8
MALHATRITG
  6
CONTINUO
 62
   132
100
AcDbVertex
100
AcDbPolyFaceMeshVertex
 10
176735.0871
 20
1676156.0406
 30
1.882
 70
   192
  0
VERTEX
  5
298
100
AcDbEntity
  8
MALHATRITG
  6
CONTINUO
 62
   132
100
AcDbVertex
100
AcDbPolyFaceMeshVertex
 10
176737.0072
 20
1676158.7352
 30
3.4796
 70
   192
  0
VERTEX
  5
299
100
AcDbEntity
  8
MALHATRITG
  6
CONTINUO
 62
   132
100
AcDbVertex
100
AcDbPolyFaceMeshVertex
 10
176741.8101
 20
1676161.8842
 30
3.7202
 70
   192
  0
VERTEX
  5
29A
100
AcDbEntity
  8
MALHATRITG
  6
CONTINUO
 62
   132
100
AcDbVertex
100
AcDbPolyFaceMeshVertex
 10
176728.5386
 20
1676165.9749
 30
2.5179
 70
   192
  0
VERTEX
  5
29B
100
AcDbEntity
  8
MALHATRITG
  6
CONTINUO
 62
   132
100
AcDbVertex
100
AcDbPolyFaceMeshVertex
 10
176718.2635
 20
1676177.0393
 30
1.6728
 70
   192
  0
VERTEX
  5
29C
100
AcDbEntity
  8
MALHATRITG
  6
CONTINUO
 62
   132
100
AcDbVertex
100
AcDbPolyFaceMeshVertex
 10
176721.4782
 20
1676180.7302
 30
3.4209
 70
   192
  0
VERTEX
  5
29D
100
AcDbEntity
  8
MALHATRITG
  6
CONTINUO
 62
   132
100
AcDbVertex
100
AcDbPolyFaceMeshVertex
 10
176715.5094
 20
1676182.949
 30
2.8066
 70
   192
  0
VERTEX
  5
29E
100
AcDbEntity
  8
MALHATRITG
  6
CONTINUO
 62
   132
100
AcDbVertex
100
AcDbPolyFaceMeshVertex
 10
176696.1322
 20
1676187.9672
 30
2.2735
 70
   192
  0
VERTEX
  5
29F
100
AcDbEntity
  8
MALHATRITG
  6
CONTINUO
 62
   132
100
AcDbVertex
100
AcDbPolyFaceMeshVertex
 10
176698.6238
 20
1676190.2595
 30
3.6746
 70
   192
  0
VERTEX
  5
2A0
100
AcDbEntity
  8
MALHATRITG
  6
CONTINUO
 62
   132
100
AcDbVertex
100
AcDbPolyFaceMeshVertex
 10
176731.6747
 20
1676191.4494
 30
4.2404
 70
   192
  0
VERTEX
  5
2A1
100
AcDbEntity
  8
MALHATRITG
  6
CONTINUO
 62
   132
100
AcDbVertex
100
AcDbPolyFaceMeshVertex
 10
176732.2305
 20
1676192.1663
 30
4.2405
 70
   192
  0
VERTEX
  5
2A2
100
AcDbEntity
  8
MALHATRITG
  6
CONTINUO
 62
   132
100
AcDbVertex
100
AcDbPolyFaceMeshVertex
 10
176732.9035
 20
1676192.4088
 30
4.4521
 70
   192
  0
VERTEX
  5
2A3
100
AcDbEntity
  8
MALHATRITG
  6
CONTINUO
 62
   132
100
AcDbVertex
100
AcDbPolyFaceMeshVertex
 10
176729.8583
 20
1676193.5475
 30
4.0916
 70
   192
  0
VERTEX
  5
2A4
100
AcDbEntity
  8
MALHATRITG
  6
CONTINUO
 62
   132
100
AcDbVertex
100
AcDbPolyFaceMeshVertex
 10
176736.2121
 20
1676198.8491
 30
4.4363
 70
   192
  0
VERTEX
  5
2A5
100
AcDbEntity
  8
MALHATRITG
  6
CONTINUO
 62
   132
100
AcDbVertex
100
AcDbPolyFaceMeshVertex
 10
176685.0875
 20
1676202.8846
 30
2.2275
 70
   192
  0
VERTEX
  5
2A6
100
AcDbEntity
  8
MALHATRITG
  6
CONTINUO
 62
   132
100
AcDbVertex
100
AcDbPolyFaceMeshVertex
 10
176742.4943
 20
1676204.1847
 30
4.3892
 70
   192
  0
VERTEX
  5
2A7
100
AcDbEntity
  8
MALHATRITG
  6
CONTINUO
 62
   132
100
AcDbVertex
100
AcDbPolyFaceMeshVertex
 10
176689.0125
 20
1676204.7862
 30
3.8256
 70
   192
  0
VERTEX
  5
2A8
100
AcDbEntity
  8
MALHATRITG
  6
CONTINUO
 62
   132
100
AcDbVertex
100
AcDbPolyFaceMeshVertex
 10
176725.9084
 20
1676209.0711
 30
4.1503
 70
   192
  0
VERTEX
  5
2A9
100
AcDbEntity
  8
MALHATRITG
  6
CONTINUO
 62
   132
100
AcDbVertex
100
AcDbPolyFaceMeshVertex
 10
176743.6888
 20
1676156.874
 30
3.9833
 70
   192
  0
VERTEX
  5
2AA
100
AcDbEntity
  8
MALHATRITG
  6
CONTINUO
 62
   132
100
AcDbVertex
100
AcDbPolyFaceMeshVertex
 10
176743.7016
 20
1676163.012
 30
4.4169
 70
   192
  0
VERTEX
  5
2AB
100
AcDbEntity
  8
MALHATRITG
  6
CONTINUO
 62
   132
100
AcDbVertex
100
AcDbPolyFaceMeshVertex
 10
176745.3522
 20
1676150.091
 30
4.0548
 70
   192
  0
VERTEX
  5
2AC
100
AcDbEntity
  8
MALHATRITG
  6
CONTINUO
 62
   132
100
AcDbVertex
100
AcDbPolyFaceMeshVertex
 10
176750.8463
 20
1676179.0435
 30
4.3565
 70
   192
  0
VERTEX
  5
2AD
100
AcDbEntity
  8
MALHATRITG
  6
CONTINUO
 62
   132
100
AcDbVertex
100
AcDbPolyFaceMeshVertex
 10
176752.0755
 20
1676205.1641
 30
4.5544
 70
   192
  0
VERTEX
  5
2AE
100
AcDbEntity
  8
MALHATRITG
  6
CONTINUO
 62
   132
100
AcDbVertex
100
AcDbPolyFaceMeshVertex
 10
176753.7764
 20
1676200.6077
 30
4.6936
 70
   192
  0
VERTEX
  5
2AF
100
AcDbEntity
  8
MALHATRITG
  6
CONTINUO
 62
   132
100
AcDbVertex
100
AcDbPolyFaceMeshVertex
 10
176754.1029
 20
1676160.5692
 30
4.1374
 70
   192
  0
VERTEX
  5
2B0
100
AcDbEntity
  8
MALHATRITG
  6
CONTINUO
 62
   132
100
AcDbVertex
100
AcDbPolyFaceMeshVertex
 10
176763.5628
 20
1676164.1825
 30
4.1359
 70
   192
  0
VERTEX
  5
2B1
100
AcDbEntity
  8
MALHATRITG
  6
CONTINUO
 62
   132
100
AcDbVertex
100
AcDbPolyFaceMeshVertex
 10
176766.493
 20
1676171.0629
 30
4.4485
 70
   192
  0
VERTEX
  5
2B2
100
AcDbEntity
  8
MALHATRITG
  6
CONTINUO
 62
   132
100
AcDbVertex
100
AcDbPolyFaceMeshVertex
 10
176773.3051
 20
1676168.0098
 30
4.114
 70
   192
  0
VERTEX
  5
2B3
100
AcDbEntity
  8
MALHATRITG
  6
CONTINUO
 62
   132
100
AcDbVertex
100
AcDbPolyFaceMeshVertex
 10
176778.509
 20
1676170.5826
 30
4.1066
 70
   192
  0
VERTEX
  5
2B4
100
AcDbEntity
  8
MALHATRITG
  6
CONTINUO
 62
   132
100
AcDbVertex
100
AcDbPolyFaceMeshVertex
 10
176779.1766
 20
1676188.1891
 30
4.4339
 70
   192
  0
VERTEX
  5
2B5
100
AcDbEntity
  8
MALHATRITG
  6
CONTINUO
 62
   132
100
AcDbVertex
100
AcDbPolyFaceMeshVertex
 10
176782.5352
 20
1676153.7154
 30
4.5294
 70
   192
  0
VERTEX
  5
2B6
100
AcDbEntity
  8
MALHATRITG
  6
CONTINUO
 62
   132
100
AcDbVertex
100
AcDbPolyFaceMeshVertex
 10
176785.7186
 20
1676173.0468
 30
4.2118
 70
   192
  0
VERTEX
  5
2B7
100
AcDbEntity
  8
MALHATRITG
  6
CONTINUO
 62
   132
100
AcDbVertex
100
AcDbPolyFaceMeshVertex
 10
176787.846
 20
1676206.0807
 30
4.3703
 70
   192
  0
VERTEX
  5
2B8
100
AcDbEntity
  8
MALHATRITG
  6
CONTINUO
 62
   132
100
AcDbVertex
100
AcDbPolyFaceMeshVertex
 10
176788.0697
 20
1676174.2043
 30
4.1437
 70
   192
  0
VERTEX
  5
2B9
100
AcDbEntity
  8
MALHATRITG
  6
CONTINUO
 62
   132
100
AcDbVertex
100
AcDbPolyFaceMeshVertex
 10
176790.3056
 20
1676177.5644
 30
4.1708
 70
   192
  0
VERTEX
  5
2BA
100
AcDbEntity
  8
MALHATRITG
  6
CONTINUO
 62
   132
100
AcDbVertex
100
AcDbPolyFaceMeshVertex
 10
176798.7723
 20
1676193.0914
 30
4.5293
 70
   192
  0
VERTEX
  5
2BB
100
AcDbEntity
  8
MALHATRITG
  6
CONTINUO
 62
   132
100
AcDbVertex
100
AcDbPolyFaceMeshVertex
 10
176801.3781
 20
1676195.9127
 30
4.4926
 70
   192
  0
VERTEX
  5
2BC
100
AcDbEntity
  8
MALHATRITG
  6
CONTINUO
 62
   132
100
AcDbVertex
100
AcDbPolyFaceMeshVertex
 10
176804.012
 20
1676121.492
 30
4.975
 70
   192
  0
VERTEX
  5
2BD
100
AcDbEntity
  8
MALHATRITG
  6
CONTINUO
 62
   132
100
AcDbVertex
100
AcDbPolyFaceMeshVertex
 10
176805.5026
 20
1676187.2599
 30
4.2407
 70
   192
  0
VERTEX
  5
2BE
100
AcDbEntity
  8
MALHATRITG
  6
CONTINUO
 62
   132
100
AcDbVertex
100
AcDbPolyFaceMeshVertex
 10
176808.0976
 20
1676190.9779
 30
4.2628
 70
   192
  0
VERTEX
  5
2BF
100
AcDbEntity
  8
MALHATRITG
  6
CONTINUO
 62
   132
100
AcDbVertex
100
AcDbPolyFaceMeshVertex
 10
176810.5262
 20
1676208.0142
 30
6.0903
 70
   192
  0
VERTEX
  5
2C0
100
AcDbEntity
  8
MALHATRITG
  6
CONTINUO
 62
   132
100
AcDbVertex
100
AcDbPolyFaceMeshVertex
 10
176829.4402
 20
1676182.3869
 30
4.5799
 70
   192
  0
VERTEX
  5
2C1
100
AcDbEntity
  8
MALHATRITG
  6
CONTINUO
 62
   132
100
AcDbVertex
100
AcDbPolyFaceMeshVertex
 10
176726.3347
 20
1676209.2964
 30
4.4475
 70
   192
  0
VERTEX
  5
2C2
100
AcDbEntity
  8
MALHATRITG
  6
CONTINUO
 62
   132
100
AcDbVertex
100
AcDbPolyFaceMeshVertex
 10
176723.1982
 20
1676215.623
 30
4.022
 70
   192
  0
VERTEX
  5
2C3
100
AcDbEntity
  8
MALHATRITG
  6
CONTINUO
 62
   132
100
AcDbVertex
100
AcDbPolyFaceMeshVertex
 10
176724.5979
 20
1676215.7299
 30
4.3156
 70
   192
  0
VERTEX
  5
2C4
100
AcDbEntity
  8
MALHATRITG
  6
CONTINUO
 62
   132
100
AcDbVertex
100
AcDbPolyFaceMeshVertex
 10
176679.2081
 20
1676221.3875
 30
2.2267
 70
   192
  0
VERTEX
  5
2C5
100
AcDbEntity
  8
MALHATRITG
  6
CONTINUO
 62
   132
100
AcDbVertex
100
AcDbPolyFaceMeshVertex
 10
176682.601
 20
1676222.1771
 30
3.3843
 70
   192
  0
VERTEX
  5
2C6
100
AcDbEntity
  8
MALHATRITG
  6
CONTINUO
 62
   132
100
AcDbVertex
100
AcDbPolyFaceMeshVertex
 10
176718.2812
 20
1676223.1231
 30
4.1962
 70
   192
  0
VERTEX
  5
2C7
100
AcDbEntity
  8
MALHATRITG
  6
CONTINUO
 62
   132
100
AcDbVertex
100
AcDbPolyFaceMeshVertex
 10
176728.0454
 20
1676223.3197
 30
4.3351
 70
   192
  0
VERTEX
  5
2C8
100
AcDbEntity
  8
MALHATRITG
  6
CONTINUO
 62
   132
100
AcDbVertex
100
AcDbPolyFaceMeshVertex
 10
176720.5345
 20
1676223.388
 30
4.1029
 70
   192
  0
VERTEX
  5
2C9
100
AcDbEntity
  8
MALHATRITG
  6
CONTINUO
 62
   132
100
AcDbVertex
100
AcDbPolyFaceMeshVertex
 10
176720.8582
 20
1676223.8108
 30
4.283
 70
   192
  0
VERTEX
  5
2CA
100
AcDbEntity
  8
MALHATRITG
  6
CONTINUO
 62
   132
100
AcDbVertex
100
AcDbPolyFaceMeshVertex
 10
176717.0467
 20
1676225.0181
 30
4.2396
 70
   192
  0
VERTEX
  5
2CB
100
AcDbEntity
  8
MALHATRITG
  6
CONTINUO
 62
   132
100
AcDbVertex
100
AcDbPolyFaceMeshVertex
 10
176717.1599
 20
1676225.2451
 30
4.2394
 70
   192
  0
VERTEX
  5
2CC
100
AcDbEntity
  8
MALHATRITG
  6
CONTINUO
 62
   132
100
AcDbVertex
100
AcDbPolyFaceMeshVertex
 10
176686.3198
 20
1676239.3088
 30
3.293
 70
   192
  0
VERTEX
  5
2CD
100
AcDbEntity
  8
MALHATRITG
  6
CONTINUO
 62
   132
100
AcDbVertex
100
AcDbPolyFaceMeshVertex
 10
176713.1932
 20
1676242.0559
 30
3.9315
 70
   192
  0
VERTEX
  5
2CE
100
AcDbEntity
  8
MALHATRITG
  6
CONTINUO
 62
   132
100
AcDbVertex
100
AcDbPolyFaceMeshVertex
 10
176713.7545
 20
1676242.259
 30
4.2353
 70
   192
  0
VERTEX
  5
2CF
100
AcDbEntity
  8
MALHATRITG
  6
CONTINUO
 62
   132
100
AcDbVertex
100
AcDbPolyFaceMeshVertex
 10
176682.1583
 20
1676242.7211
 30
1.9808
 70
   192
  0
VERTEX
  5
2D0
100
AcDbEntity
  8
MALHATRITG
  6
CONTINUO
 62
   132
100
AcDbVertex
100
AcDbPolyFaceMeshVertex
 10
176726.8526
 20
1676248.4236
 30
4.3682
 70
   192
  0
VERTEX
  5
2D1
100
AcDbEntity
  8
MALHATRITG
  6
CONTINUO
 62
   132
100
AcDbVertex
100
AcDbPolyFaceMeshVertex
 10
176698.3837
 20
1676249.8022
 30
3.6966
 70
   192
  0
VERTEX
  5
2D2
100
AcDbEntity
  8
MALHATRITG
  6
CONTINUO
 62
   132
100
AcDbVertex
100
AcDbPolyFaceMeshVertex
 10
176710.0247
 20
1676253.6954
 30
3.7535
 70
   192
  0
VERTEX
  5
2D3
100
AcDbEntity
  8
MALHATRITG
  6
CONTINUO
 62
   132
100
AcDbVertex
100
AcDbPolyFaceMeshVertex
 10
176706.9497
 20
1676256.1731
 30
3.7014
 70
   192
  0
VERTEX
  5
2D4
100
AcDbEntity
  8
MALHATRITG
  6
CONTINUO
 62
   132
100
AcDbVertex
100
AcDbPolyFaceMeshVertex
 10
176708.9583
 20
1676257.7951
 30
3.6668
 70
   192
  0
VERTEX
  5
2D5
100
AcDbEntity
  8
MALHATRITG
  6
CONTINUO
 62
   132
100
AcDbVertex
100
AcDbPolyFaceMeshVertex
 10
176704.0425
 20
1676258.2493
 30
2.1373
 70
   192
  0
VERTEX
  5
2D6
100
AcDbEntity
  8
MALHATRITG
  6
CONTINUO
 62
   132
100
AcDbVertex
100
AcDbPolyFaceMeshVertex
 10
176708.3923
 20
1676258.5969
 30
3.651
 70
   192
  0
VERTEX
  5
2D7
100
AcDbEntity
  8
MALHATRITG
  6
CONTINUO
 62
   132
100
AcDbVertex
100
AcDbPolyFaceMeshVertex
 10
176710.0762
 20
1676290.055
 30
4.1361
 70
   192
  0
VERTEX
  5
2D8
100
AcDbEntity
  8
MALHATRITG
  6
CONTINUO
 62
   132
100
AcDbVertex
100
AcDbPolyFaceMeshVertex
 10
176712.7985
 20
1676293.8456
 30
4.6409
 70
   192
  0
VERTEX
  5
2D9
100
AcDbEntity
  8
MALHATRITG
  6
CONTINUO
 62
   132
100
AcDbVertex
100
AcDbPolyFaceMeshVertex
 10
176736.0862
 20
1676216.4076
 30
4.4515
 70
   192
  0
VERTEX
  5
2DA
100
AcDbEntity
  8
MALHATRITG
  6
CONTINUO
 62
   132
100
AcDbVertex
100
AcDbPolyFaceMeshVertex
 10
176737.6214
 20
1676269.8644
 30
3.7788
 70
   192
  0
VERTEX
  5
2DB
100
AcDbEntity
  8
MALHATRITG
  6
CONTINUO
 62
   132
100
AcDbVertex
100
AcDbPolyFaceMeshVertex
 10
176738.3477
 20
1676269.3525
 30
3.8114
 70
   192
  0
VERTEX
  5
2DC
100
AcDbEntity
  8
MALHATRITG
  6
CONTINUO
 62
   132
100
AcDbVertex
100
AcDbPolyFaceMeshVertex
 10
176739.0582
 20
1676268.8135
 30
4.0045
 70
   192
  0
VERTEX
  5
2DD
100
AcDbEntity
  8
MALHATRITG
  6
CONTINUO
 62
   132
100
AcDbVertex
100
AcDbPolyFaceMeshVertex
 10
176743.3643
 20
1676271.5846
 30
4.0982
 70
   192
  0
VERTEX
  5
2DE
100
AcDbEntity
  8
MALHATRITG
  6
CONTINUO
 62
   132
100
AcDbVertex
100
AcDbPolyFaceMeshVertex
 10
176745.4831
 20
1676232.2492
 30
4.4088
 70
   192
  0
VERTEX
  5
2DF
100
AcDbEntity
  8
MALHATRITG
  6
CONTINUO
 62
   132
100
AcDbVertex
100
AcDbPolyFaceMeshVertex
 10
176752.7442
 20
1676256.9883
 30
4.2649
 70
   192
  0
VERTEX
  5
2E0
100
AcDbEntity
  8
MALHATRITG
  6
CONTINUO
 62
   132
100
AcDbVertex
100
AcDbPolyFaceMeshVertex
 10
176759.9887
 20
1676253.1277
 30
4.2099
 70
   192
  0
VERTEX
  5
2E1
100
AcDbEntity
  8
MALHATRITG
  6
CONTINUO
 62
   132
100
AcDbVertex
100
AcDbPolyFaceMeshVertex
 10
176761.8925
 20
1676254.1882
 30
3.8463
 70
   192
  0
VERTEX
  5
2E2
100
AcDbEntity
  8
MALHATRITG
  6
CONTINUO
 62
   132
100
AcDbVertex
100
AcDbPolyFaceMeshVertex
 10
176762.8887
 20
1676256.4968
 30
3.8007
 70
   192
  0
VERTEX
  5
2E3
100
AcDbEntity
  8
MALHATRITG
  6
CONTINUO
 62
   132
100
AcDbVertex
100
AcDbPolyFaceMeshVertex
 10
176763.4719
 20
1676256.4318
 30
3.7237
 70
   192
  0
VERTEX
  5
2E4
100
AcDbEntity
  8
MALHATRITG
  6
CONTINUO
 62
   132
100
AcDbVertex
100
AcDbPolyFaceMeshVertex
 10
176769.4226
 20
1676222.0943
 30
4.4375
 70
   192
  0
VERTEX
  5
2E5
100
AcDbEntity
  8
MALHATRITG
  6
CONTINUO
 62
   132
100
AcDbVertex
100
AcDbPolyFaceMeshVertex
 10
176781.4984
 20
1676237.5194
 30
4.2866
 70
   192
  0
VERTEX
  5
2E6
100
AcDbEntity
  8
MALHATRITG
  6
CONTINUO
 62
   132
100
AcDbVertex
100
AcDbPolyFaceMeshVertex
 10
176782.9934
 20
1676238.7008
 30
3.83
 70
   192
  0
VERTEX
  5
2E7
100
AcDbEntity
  8
MALHATRITG
  6
CONTINUO
 62
   132
100
AcDbVertex
100
AcDbPolyFaceMeshVertex
 10
176783.0322
 20
1676211.6645
 30
4.4242
 70
   192
  0
VERTEX
  5
2E8
100
AcDbEntity
  8
MALHATRITG
  6
CONTINUO
 62
   132
100
AcDbVertex
100
AcDbPolyFaceMeshVertex
 10
176797.0092
 20
1676218.2527
 30
4.4053
 70
   192
  0
VERTEX
  5
2E9
100
AcDbEntity
  8
MALHATRITG
  6
CONTINUO
 62
   132
100
AcDbVertex
100
AcDbPolyFaceMeshVertex
 10
176797.8241
 20
1676225.2351
 30
4.3018
 70
   192
  0
VERTEX
  5
2EA
100
AcDbEntity
  8
MALHATRITG
  6
CONTINUO
 62
   132
100
AcDbVertex
100
AcDbPolyFaceMeshVertex
 10
176799.1225
 20
1676226.8061
 30
3.8598
 70
   192
  0
VERTEX
  5
2EB
100
AcDbEntity
  8
MALHATRITG
  6
CONTINUO
 62
   132
100
AcDbVertex
100
AcDbPolyFaceMeshVertex
 10
176809.2967
 20
1676219.3288
 30
4.259
 70
   192
  0
VERTEX
  5
2EC
100
AcDbEntity
  8
MALHATRITG
  6
CONTINUO
 62
   132
100
AcDbVertex
100
AcDbPolyFaceMeshVertex
 10
176809.9498
 20
1676218.9938
 30
4.3096
 70
   192
  0
VERTEX
  5
2ED
100
AcDbEntity
  8
MALHATRITG
  6
CONTINUO
 62
   132
100
AcDbVertex
100
AcDbPolyFaceMeshVertex
 10
176819.7183
 20
1676221.9238
 30
4.2992
 70
   192
  0
VERTEX
  5
2EE
100
AcDbEntity
  8
MALHATRITG
  6
CONTINUO
 62
   132
100
AcDbVertex
100
AcDbPolyFaceMeshVertex
 10
176824.6672
 20
1676228.7584
 30
4.3553
 70
   192
  0
VERTEX
  5
2EF
100
AcDbEntity
  8
MALHATRITG
  6
CONTINUO
 62
   132
100
AcDbVertex
100
AcDbPolyFaceMeshVertex
 10
176846.6933
 20
1676248.7384
 30
4.7098
 70
   192
  0
VERTEX
  5
2F0
100
AcDbEntity
  8
MALHATRITG
  6
CONTINUO
 62
   132
100
AcDbFaceRecord
 10
0.0
 20
0.0
 30
0.0
 70
   128
 71
     2
 72
     1
 73
     3
  0
VERTEX
  5
2F1
100
AcDbEntity
  8
MALHATRITG
  6
CONTINUO
 62
   132
100
AcDbFaceRecord
 10
0.0
 20
0.0
 30
0.0
 70
   128
 71
     3
 72
     1
 73
     4
  0
VERTEX
  5
2F2
100
AcDbEntity
  8
MALHATRITG
  6
CONTINUO
 62
   132
100
AcDbFaceRecord
 10
0.0
 20
0.0
 30
0.0
 70
   128
 71
     4
 72
     1
 73
    44
  0
VERTEX
  5
2F3
100
AcDbEntity
  8
MALHATRITG
  6
CONTINUO
 62
   132
100
AcDbFaceRecord
 10
0.0
 20
0.0
 30
0.0
 70
   128
 71
    52
 72
     2
 73
    21
  0
VERTEX
  5
2F4
100
AcDbEntity
  8
MALHATRITG
  6
CONTINUO
 62
   132
100
AcDbFaceRecord
 10
0.0
 20
0.0
 30
0.0
 70
   128
 71
    21
 72
     2
 73
    14
  0
VERTEX
  5
2F5
100
AcDbEntity
  8
MALHATRITG
  6
CONTINUO
 62
   132
100
AcDbFaceRecord
 10
0.0
 20
0.0
 30
0.0
 70
   128
 71
    14
 72
     2
 73
    11
  0
VERTEX
  5
2F6
100
AcDbEntity
  8
MALHATRITG
  6
CONTINUO
 62
   132
100
AcDbFaceRecord
 10
0.0
 20
0.0
 30
0.0
 70
   128
 71
    11
 72
     2
 73
     5
  0
VERTEX
  5
2F7
100
AcDbEntity
  8
MALHATRITG
  6
CONTINUO
 62
   132
100
AcDbFaceRecord
 10
0.0
 20
0.0
 30
0.0
 70
   128
 71
     5
 72
     2
 73
     3
  0
VERTEX
  5
2F8
100
AcDbEntity
  8
MALHATRITG
  6
CONTINUO
 62
   132
100
AcDbFaceRecord
 10
0.0
 20
0.0
 30
0.0
 70
   128
 71
     5
 72
     3
 73
     4
  0
VERTEX
  5
2F9
100
AcDbEntity
  8
MALHATRITG
  6
CONTINUO
 62
   132
100
AcDbFaceRecord
 10
0.0
 20
0.0
 30
0.0
 70
   128
 71
    11
 72
     5
 73
    10
  0
VERTEX
  5
2FA
100
AcDbEntity
  8
MALHATRITG
  6
CONTINUO
 62
   132
100
AcDbFaceRecord
 10
0.0
 20
0.0
 30
0.0
 70
   128
 71
    10
 72
     5
 73
     6
  0
VERTEX
  5
2FB
100
AcDbEntity
  8
MALHATRITG
  6
CONTINUO
 62
   132
100
AcDbFaceRecord
 10
0.0
 20
0.0
 30
0.0
 70
   128
 71
     6
 72
     5
 73
     4
  0
VERTEX
  5
2FC
100
AcDbEntity
  8
MALHATRITG
  6
CONTINUO
 62
   132
100
AcDbFaceRecord
 10
0.0
 20
0.0
 30
0.0
 70
   128
 71
    10
 72
     6
 73
     7
  0
VERTEX
  5
2FD
100
AcDbEntity
  8
MALHATRITG
  6
CONTINUO
 62
   132
100
AcDbFaceRecord
 10
0.0
 20
0.0
 30
0.0
 70
   128
 71
     7
 72
     6
 73
     4
  0
VERTEX
  5
2FE
100
AcDbEntity
  8
MALHATRITG
  6
CONTINUO
 62
   132
100
AcDbFaceRecord
 10
0.0
 20
0.0
 30
0.0
 70
   128
 71
     7
 72
     4
 73
    27
  0
VERTEX
  5
2FF
100
AcDbEntity
  8
MALHATRITG
  6
CONTINUO
 62
   132
100
AcDbFaceRecord
 10
0.0
 20
0.0
 30
0.0
 70
   128
 71
    27
 72
     4
 73
    44
  0
VERTEX
  5
300
100
AcDbEntity
  8
MALHATRITG
  6
CONTINUO
 62
   132
100
AcDbFaceRecord
 10
0.0
 20
0.0
 30
0.0
 70
   128
 71
    10
 72
     7
 73
     8
  0
VERTEX
  5
301
100
AcDbEntity
  8
MALHATRITG
  6
CONTINUO
 62
   132
100
AcDbFaceRecord
 10
0.0
 20
0.0
 30
0.0
 70
   128
 71
     8
 72
     7
 73
    25
  0
VERTEX
  5
302
100
AcDbEntity
  8
MALHATRITG
  6
CONTINUO
 62
   132
100
AcDbFaceRecord
 10
0.0
 20
0.0
 30
0.0
 70
   128
 71
    25
 72
     7
 73
    27
  0
VERTEX
  5
303
100
AcDbEntity
  8
MALHATRITG
  6
CONTINUO
 62
   132
100
AcDbFaceRecord
 10
0.0
 20
0.0
 30
0.0
 70
   128
 71
    10
 72
     8
 73
     9
  0
VERTEX
  5
304
100
AcDbEntity
  8
MALHATRITG
  6
CONTINUO
 62
   132
100
AcDbFaceRecord
 10
0.0
 20
0.0
 30
0.0
 70
   128
 71
     9
 72
     8
 73
    25
  0
VERTEX
  5
305
100
AcDbEntity
  8
MALHATRITG
  6
CONTINUO
 62
   132
100
AcDbFaceRecord
 10
0.0
 20
0.0
 30
0.0
 70
   128
 71
    11
 72
    10
 73
    12
  0
VERTEX
  5
306
100
AcDbEntity
  8
MALHATRITG
  6
CONTINUO
 62
   132
100
AcDbFaceRecord
 10
0.0
 20
0.0
 30
0.0
 70
   128
 71
    12
 72
    10
 73
    16
  0
VERTEX
  5
307
100
AcDbEntity
  8
MALHATRITG
  6
CONTINUO
 62
   132
100
AcDbFaceRecord
 10
0.0
 20
0.0
 30
0.0
 70
   128
 71
    16
 72
    10
 73
    28
  0
VERTEX
  5
308
100
AcDbEntity
  8
MALHATRITG
  6
CONTINUO
 62
   132
100
AcDbFaceRecord
 10
0.0
 20
0.0
 30
0.0
 70
   128
 71
    28
 72
    10
 73
    26
  0
VERTEX
  5
309
100
AcDbEntity
  8
MALHATRITG
  6
CONTINUO
 62
   132
100
AcDbFaceRecord
 10
0.0
 20
0.0
 30
0.0
 70
   128
 71
    26
 72
    10
 73
     9
  0
VERTEX
  5
30A
100
AcDbEntity
  8
MALHATRITG
  6
CONTINUO
 62
   132
100
AcDbFaceRecord
 10
0.0
 20
0.0
 30
0.0
 70
   128
 71
    26
 72
     9
 73
    25
  0
VERTEX
  5
30B
100
AcDbEntity
  8
MALHATRITG
  6
CONTINUO
 62
   132
100
AcDbFaceRecord
 10
0.0
 20
0.0
 30
0.0
 70
   128
 71
    14
 72
    11
 73
    13
  0
VERTEX
  5
30C
100
AcDbEntity
  8
MALHATRITG
  6
CONTINUO
 62
   132
100
AcDbFaceRecord
 10
0.0
 20
0.0
 30
0.0
 70
   128
 71
    13
 72
    11
 73
    12
  0
VERTEX
  5
30D
100
AcDbEntity
  8
MALHATRITG
  6
CONTINUO
 62
   132
100
AcDbFaceRecord
 10
0.0
 20
0.0
 30
0.0
 70
   128
 71
    13
 72
    12
 73
    19
  0
VERTEX
  5
30E
100
AcDbEntity
  8
MALHATRITG
  6
CONTINUO
 62
   132
100
AcDbFaceRecord
 10
0.0
 20
0.0
 30
0.0
 70
   128
 71
    19
 72
    12
 73
    16
  0
VERTEX
  5
30F
100
AcDbEntity
  8
MALHATRITG
  6
CONTINUO
 62
   132
100
AcDbFaceRecord
 10
0.0
 20
0.0
 30
0.0
 70
   128
 71
    14
 72
    13
 73
    15
  0
VERTEX
  5
310
100
AcDbEntity
  8
MALHATRITG
  6
CONTINUO
 62
   132
100
AcDbFaceRecord
 10
0.0
 20
0.0
 30
0.0
 70
   128
 71
    15
 72
    13
 73
    24
  0
VERTEX
  5
311
100
AcDbEntity
  8
MALHATRITG
  6
CONTINUO
 62
   132
100
AcDbFaceRecord
 10
0.0
 20
0.0
 30
0.0
 70
   128
 71
    24
 72
    13
 73
    19
  0
VERTEX
  5
312
100
AcDbEntity
  8
MALHATRITG
  6
CONTINUO
 62
   132
100
AcDbFaceRecord
 10
0.0
 20
0.0
 30
0.0
 70
   128
 71
    21
 72
    14
 73
    23
  0
VERTEX
  5
313
100
AcDbEntity
  8
MALHATRITG
  6
CONTINUO
 62
   132
100
AcDbFaceRecord
 10
0.0
 20
0.0
 30
0.0
 70
   128
 71
    23
 72
    14
 73
    15
  0
VERTEX
  5
314
100
AcDbEntity
  8
MALHATRITG
  6
CONTINUO
 62
   132
100
AcDbFaceRecord
 10
0.0
 20
0.0
 30
0.0
 70
   128
 71
    52
 72
    21
 73
    23
  0
VERTEX
  5
315
100
AcDbEntity
  8
MALHATRITG
  6
CONTINUO
 62
   132
100
AcDbFaceRecord
 10
0.0
 20
0.0
 30
0.0
 70
   128
 71
    23
 72
    15
 73
    50
  0
VERTEX
  5
316
100
AcDbEntity
  8
MALHATRITG
  6
CONTINUO
 62
   132
100
AcDbFaceRecord
 10
0.0
 20
0.0
 30
0.0
 70
   128
 71
    50
 72
    15
 73
    24
  0
VERTEX
  5
317
100
AcDbEntity
  8
MALHATRITG
  6
CONTINUO
 62
   132
100
AcDbFaceRecord
 10
0.0
 20
0.0
 30
0.0
 70
   128
 71
    24
 72
    19
 73
    20
  0
VERTEX
  5
318
100
AcDbEntity
  8
MALHATRITG
  6
CONTINUO
 62
   132
100
AcDbFaceRecord
 10
0.0
 20
0.0
 30
0.0
 70
   128
 71
    20
 72
    19
 73
    18
  0
VERTEX
  5
319
100
AcDbEntity
  8
MALHATRITG
  6
CONTINUO
 62
   132
100
AcDbFaceRecord
 10
0.0
 20
0.0
 30
0.0
 70
   128
 71
    18
 72
    19
 73
    17
  0
VERTEX
  5
31A
100
AcDbEntity
  8
MALHATRITG
  6
CONTINUO
 62
   132
100
AcDbFaceRecord
 10
0.0
 20
0.0
 30
0.0
 70
   128
 71
    17
 72
    19
 73
    16
  0
VERTEX
  5
31B
100
AcDbEntity
  8
MALHATRITG
  6
CONTINUO
 62
   132
100
AcDbFaceRecord
 10
0.0
 20
0.0
 30
0.0
 70
   128
 71
    18
 72
    17
 73
    16
  0
VERTEX
  5
31C
100
AcDbEntity
  8
MALHATRITG
  6
CONTINUO
 62
   132
100
AcDbFaceRecord
 10
0.0
 20
0.0
 30
0.0
 70
   128
 71
    18
 72
    16
 73
    28
  0
VERTEX
  5
31D
100
AcDbEntity
  8
MALHATRITG
  6
CONTINUO
 62
   132
100
AcDbFaceRecord
 10
0.0
 20
0.0
 30
0.0
 70
   128
 71
    20
 72
    18
 73
    28
  0
VERTEX
  5
31E
100
AcDbEntity
  8
MALHATRITG
  6
CONTINUO
 62
   132
100
AcDbFaceRecord
 10
0.0
 20
0.0
 30
0.0
 70
   128
 71
    52
 72
    23
 73
    53
  0
VERTEX
  5
31F
100
AcDbEntity
  8
MALHATRITG
  6
CONTINUO
 62
   132
100
AcDbFaceRecord
 10
0.0
 20
0.0
 30
0.0
 70
   128
 71
    53
 72
    23
 73
    58
  0
VERTEX
  5
320
100
AcDbEntity
  8
MALHATRITG
  6
CONTINUO
 62
   132
100
AcDbFaceRecord
 10
0.0
 20
0.0
 30
0.0
 70
   128
 71
    58
 72
    23
 73
    54
  0
VERTEX
  5
321
100
AcDbEntity
  8
MALHATRITG
  6
CONTINUO
 62
   132
100
AcDbFaceRecord
 10
0.0
 20
0.0
 30
0.0
 70
   128
 71
    54
 72
    23
 73
    50
  0
VERTEX
  5
322
100
AcDbEntity
  8
MALHATRITG
  6
CONTINUO
 62
   132
100
AcDbFaceRecord
 10
0.0
 20
0.0
 30
0.0
 70
   128
 71
    63
 72
    52
 73
    60
  0
VERTEX
  5
323
100
AcDbEntity
  8
MALHATRITG
  6
CONTINUO
 62
   132
100
AcDbFaceRecord
 10
0.0
 20
0.0
 30
0.0
 70
   128
 71
    60
 72
    52
 73
    53
  0
VERTEX
  5
324
100
AcDbEntity
  8
MALHATRITG
  6
CONTINUO
 62
   132
100
AcDbFaceRecord
 10
0.0
 20
0.0
 30
0.0
 70
   128
 71
    60
 72
    53
 73
    58
  0
VERTEX
  5
325
100
AcDbEntity
  8
MALHATRITG
  6
CONTINUO
 62
   132
100
AcDbFaceRecord
 10
0.0
 20
0.0
 30
0.0
 70
   128
 71
    26
 72
    25
 73
    31
  0
VERTEX
  5
326
100
AcDbEntity
  8
MALHATRITG
  6
CONTINUO
 62
   132
100
AcDbFaceRecord
 10
0.0
 20
0.0
 30
0.0
 70
   128
 71
    31
 72
    25
 73
    27
  0
VERTEX
  5
327
100
AcDbEntity
  8
MALHATRITG
  6
CONTINUO
 62
   132
100
AcDbFaceRecord
 10
0.0
 20
0.0
 30
0.0
 70
   128
 71
    28
 72
    26
 73
    31
  0
VERTEX
  5
328
100
AcDbEntity
  8
MALHATRITG
  6
CONTINUO
 62
   132
100
AcDbFaceRecord
 10
0.0
 20
0.0
 30
0.0
 70
   128
 71
    50
 72
    24
 73
    51
  0
VERTEX
  5
329
100
AcDbEntity
  8
MALHATRITG
  6
CONTINUO
 62
   132
100
AcDbFaceRecord
 10
0.0
 20
0.0
 30
0.0
 70
   128
 71
    51
 72
    24
 73
    49
  0
VERTEX
  5
32A
100
AcDbEntity
  8
MALHATRITG
  6
CONTINUO
 62
   132
100
AcDbFaceRecord
 10
0.0
 20
0.0
 30
0.0
 70
   128
 71
    49
 72
    24
 73
    20
  0
VERTEX
  5
32B
100
AcDbEntity
  8
MALHATRITG
  6
CONTINUO
 62
   132
100
AcDbFaceRecord
 10
0.0
 20
0.0
 30
0.0
 70
   128
 71
    54
 72
    50
 73
    56
  0
VERTEX
  5
32C
100
AcDbEntity
  8
MALHATRITG
  6
CONTINUO
 62
   132
100
AcDbFaceRecord
 10
0.0
 20
0.0
 30
0.0
 70
   128
 71
    56
 72
    50
 73
    51
  0
VERTEX
  5
32D
100
AcDbEntity
  8
MALHATRITG
  6
CONTINUO
 62
   132
100
AcDbFaceRecord
 10
0.0
 20
0.0
 30
0.0
 70
   128
 71
    58
 72
    54
 73
    59
  0
VERTEX
  5
32E
100
AcDbEntity
  8
MALHATRITG
  6
CONTINUO
 62
   132
100
AcDbFaceRecord
 10
0.0
 20
0.0
 30
0.0
 70
   128
 71
    59
 72
    54
 73
    57
  0
VERTEX
  5
32F
100
AcDbEntity
  8
MALHATRITG
  6
CONTINUO
 62
   132
100
AcDbFaceRecord
 10
0.0
 20
0.0
 30
0.0
 70
   128
 71
    57
 72
    54
 73
    56
  0
VERTEX
  5
330
100
AcDbEntity
  8
MALHATRITG
  6
CONTINUO
 62
   132
100
AcDbFaceRecord
 10
0.0
 20
0.0
 30
0.0
 70
   128
 71
    57
 72
    56
 73
    55
  0
VERTEX
  5
331
100
AcDbEntity
  8
MALHATRITG
  6
CONTINUO
 62
   132
100
AcDbFaceRecord
 10
0.0
 20
0.0
 30
0.0
 70
   128
 71
    55
 72
    56
 73
    51
  0
VERTEX
  5
332
100
AcDbEntity
  8
MALHATRITG
  6
CONTINUO
 62
   132
100
AcDbFaceRecord
 10
0.0
 20
0.0
 30
0.0
 70
   128
 71
    55
 72
    51
 73
    73
  0
VERTEX
  5
333
100
AcDbEntity
  8
MALHATRITG
  6
CONTINUO
 62
   132
100
AcDbFaceRecord
 10
0.0
 20
0.0
 30
0.0
 70
   128
 71
    73
 72
    51
 73
    49
  0
VERTEX
  5
334
100
AcDbEntity
  8
MALHATRITG
  6
CONTINUO
 62
   132
100
AcDbFaceRecord
 10
0.0
 20
0.0
 30
0.0
 70
   128
 71
    73
 72
    49
 73
    22
  0
VERTEX
  5
335
100
AcDbEntity
  8
MALHATRITG
  6
CONTINUO
 62
   132
100
AcDbFaceRecord
 10
0.0
 20
0.0
 30
0.0
 70
   128
 71
    22
 72
    49
 73
    20
  0
VERTEX
  5
336
100
AcDbEntity
  8
MALHATRITG
  6
CONTINUO
 62
   132
100
AcDbFaceRecord
 10
0.0
 20
0.0
 30
0.0
 70
   128
 71
    22
 72
    20
 73
    30
  0
VERTEX
  5
337
100
AcDbEntity
  8
MALHATRITG
  6
CONTINUO
 62
   132
100
AcDbFaceRecord
 10
0.0
 20
0.0
 30
0.0
 70
   128
 71
    30
 72
    20
 73
    28
  0
VERTEX
  5
338
100
AcDbEntity
  8
MALHATRITG
  6
CONTINUO
 62
   132
100
AcDbFaceRecord
 10
0.0
 20
0.0
 30
0.0
 70
   128
 71
    73
 72
    22
 73
    29
  0
VERTEX
  5
339
100
AcDbEntity
  8
MALHATRITG
  6
CONTINUO
 62
   132
100
AcDbFaceRecord
 10
0.0
 20
0.0
 30
0.0
 70
   128
 71
    29
 72
    22
 73
    30
  0
VERTEX
  5
33A
100
AcDbEntity
  8
MALHATRITG
  6
CONTINUO
 62
   132
100
AcDbFaceRecord
 10
0.0
 20
0.0
 30
0.0
 70
   128
 71
    60
 72
    58
 73
    61
  0
VERTEX
  5
33B
100
AcDbEntity
  8
MALHATRITG
  6
CONTINUO
 62
   132
100
AcDbFaceRecord
 10
0.0
 20
0.0
 30
0.0
 70
   128
 71
    61
 72
    58
 73
    59
  0
VERTEX
  5
33C
100
AcDbEntity
  8
MALHATRITG
  6
CONTINUO
 62
   132
100
AcDbFaceRecord
 10
0.0
 20
0.0
 30
0.0
 70
   128
 71
    61
 72
    59
 73
    62
  0
VERTEX
  5
33D
100
AcDbEntity
  8
MALHATRITG
  6
CONTINUO
 62
   132
100
AcDbFaceRecord
 10
0.0
 20
0.0
 30
0.0
 70
   128
 71
    62
 72
    59
 73
    57
  0
VERTEX
  5
33E
100
AcDbEntity
  8
MALHATRITG
  6
CONTINUO
 62
   132
100
AcDbFaceRecord
 10
0.0
 20
0.0
 30
0.0
 70
   128
 71
    62
 72
    57
 73
    64
  0
VERTEX
  5
33F
100
AcDbEntity
  8
MALHATRITG
  6
CONTINUO
 62
   132
100
AcDbFaceRecord
 10
0.0
 20
0.0
 30
0.0
 70
   128
 71
    64
 72
    57
 73
    55
  0
VERTEX
  5
340
100
AcDbEntity
  8
MALHATRITG
  6
CONTINUO
 62
   132
100
AcDbFaceRecord
 10
0.0
 20
0.0
 30
0.0
 70
   128
 71
    63
 72
    60
 73
    65
  0
VERTEX
  5
341
100
AcDbEntity
  8
MALHATRITG
  6
CONTINUO
 62
   132
100
AcDbFaceRecord
 10
0.0
 20
0.0
 30
0.0
 70
   128
 71
    65
 72
    60
 73
    61
  0
VERTEX
  5
342
100
AcDbEntity
  8
MALHATRITG
  6
CONTINUO
 62
   132
100
AcDbFaceRecord
 10
0.0
 20
0.0
 30
0.0
 70
   128
 71
    65
 72
    61
 73
    66
  0
VERTEX
  5
343
100
AcDbEntity
  8
MALHATRITG
  6
CONTINUO
 62
   132
100
AcDbFaceRecord
 10
0.0
 20
0.0
 30
0.0
 70
   128
 71
    66
 72
    61
 73
    62
  0
VERTEX
  5
344
100
AcDbEntity
  8
MALHATRITG
  6
CONTINUO
 62
   132
100
AcDbFaceRecord
 10
0.0
 20
0.0
 30
0.0
 70
   128
 71
    66
 72
    62
 73
    64
  0
VERTEX
  5
345
100
AcDbEntity
  8
MALHATRITG
  6
CONTINUO
 62
   132
100
AcDbFaceRecord
 10
0.0
 20
0.0
 30
0.0
 70
   128
 71
    64
 72
    55
 73
    78
  0
VERTEX
  5
346
100
AcDbEntity
  8
MALHATRITG
  6
CONTINUO
 62
   132
100
AcDbFaceRecord
 10
0.0
 20
0.0
 30
0.0
 70
   128
 71
    78
 72
    55
 73
    73
  0
VERTEX
  5
347
100
AcDbEntity
  8
MALHATRITG
  6
CONTINUO
 62
   132
100
AcDbFaceRecord
 10
0.0
 20
0.0
 30
0.0
 70
   128
 71
    78
 72
    73
 73
    29
  0
VERTEX
  5
348
100
AcDbEntity
  8
MALHATRITG
  6
CONTINUO
 62
   132
100
AcDbFaceRecord
 10
0.0
 20
0.0
 30
0.0
 70
   128
 71
    31
 72
    27
 73
    37
  0
VERTEX
  5
349
100
AcDbEntity
  8
MALHATRITG
  6
CONTINUO
 62
   132
100
AcDbFaceRecord
 10
0.0
 20
0.0
 30
0.0
 70
   128
 71
    37
 72
    27
 73
    44
  0
VERTEX
  5
34A
100
AcDbEntity
  8
MALHATRITG
  6
CONTINUO
 62
   132
100
AcDbFaceRecord
 10
0.0
 20
0.0
 30
0.0
 70
   128
 71
    28
 72
    31
 73
    32
  0
VERTEX
  5
34B
100
AcDbEntity
  8
MALHATRITG
  6
CONTINUO
 62
   132
100
AcDbFaceRecord
 10
0.0
 20
0.0
 30
0.0
 70
   128
 71
    32
 72
    31
 73
    37
  0
VERTEX
  5
34C
100
AcDbEntity
  8
MALHATRITG
  6
CONTINUO
 62
   132
100
AcDbFaceRecord
 10
0.0
 20
0.0
 30
0.0
 70
   128
 71
    30
 72
    28
 73
    36
  0
VERTEX
  5
34D
100
AcDbEntity
  8
MALHATRITG
  6
CONTINUO
 62
   132
100
AcDbFaceRecord
 10
0.0
 20
0.0
 30
0.0
 70
   128
 71
    36
 72
    28
 73
    33
  0
VERTEX
  5
34E
100
AcDbEntity
  8
MALHATRITG
  6
CONTINUO
 62
   132
100
AcDbFaceRecord
 10
0.0
 20
0.0
 30
0.0
 70
   128
 71
    33
 72
    28
 73
    32
  0
VERTEX
  5
34F
100
AcDbEntity
  8
MALHATRITG
  6
CONTINUO
 62
   132
100
AcDbFaceRecord
 10
0.0
 20
0.0
 30
0.0
 70
   128
 71
    33
 72
    32
 73
    34
  0
VERTEX
  5
350
100
AcDbEntity
  8
MALHATRITG
  6
CONTINUO
 62
   132
100
AcDbFaceRecord
 10
0.0
 20
0.0
 30
0.0
 70
   128
 71
    34
 72
    32
 73
    37
  0
VERTEX
  5
351
100
AcDbEntity
  8
MALHATRITG
  6
CONTINUO
 62
   132
100
AcDbFaceRecord
 10
0.0
 20
0.0
 30
0.0
 70
   128
 71
    36
 72
    33
 73
    35
  0
VERTEX
  5
352
100
AcDbEntity
  8
MALHATRITG
  6
CONTINUO
 62
   132
100
AcDbFaceRecord
 10
0.0
 20
0.0
 30
0.0
 70
   128
 71
    35
 72
    33
 73
    34
  0
VERTEX
  5
353
100
AcDbEntity
  8
MALHATRITG
  6
CONTINUO
 62
   132
100
AcDbFaceRecord
 10
0.0
 20
0.0
 30
0.0
 70
   128
 71
    35
 72
    34
 73
    37
  0
VERTEX
  5
354
100
AcDbEntity
  8
MALHATRITG
  6
CONTINUO
 62
   132
100
AcDbFaceRecord
 10
0.0
 20
0.0
 30
0.0
 70
   128
 71
    29
 72
    30
 73
    84
  0
VERTEX
  5
355
100
AcDbEntity
  8
MALHATRITG
  6
CONTINUO
 62
   132
100
AcDbFaceRecord
 10
0.0
 20
0.0
 30
0.0
 70
   128
 71
    84
 72
    30
 73
    87
  0
VERTEX
  5
356
100
AcDbEntity
  8
MALHATRITG
  6
CONTINUO
 62
   132
100
AcDbFaceRecord
 10
0.0
 20
0.0
 30
0.0
 70
   128
 71
    87
 72
    30
 73
    36
  0
VERTEX
  5
357
100
AcDbEntity
  8
MALHATRITG
  6
CONTINUO
 62
   132
100
AcDbFaceRecord
 10
0.0
 20
0.0
 30
0.0
 70
   128
 71
    78
 72
    29
 73
    84
  0
VERTEX
  5
358
100
AcDbEntity
  8
MALHATRITG
  6
CONTINUO
 62
   132
100
AcDbFaceRecord
 10
0.0
 20
0.0
 30
0.0
 70
   128
 71
    37
 72
    44
 73
    48
  0
VERTEX
  5
359
100
AcDbEntity
  8
MALHATRITG
  6
CONTINUO
 62
   132
100
AcDbFaceRecord
 10
0.0
 20
0.0
 30
0.0
 70
   128
 71
    35
 72
    37
 73
    38
  0
VERTEX
  5
35A
100
AcDbEntity
  8
MALHATRITG
  6
CONTINUO
 62
   132
100
AcDbFaceRecord
 10
0.0
 20
0.0
 30
0.0
 70
   128
 71
    38
 72
    37
 73
    40
  0
VERTEX
  5
35B
100
AcDbEntity
  8
MALHATRITG
  6
CONTINUO
 62
   132
100
AcDbFaceRecord
 10
0.0
 20
0.0
 30
0.0
 70
   128
 71
    40
 72
    37
 73
    48
  0
VERTEX
  5
35C
100
AcDbEntity
  8
MALHATRITG
  6
CONTINUO
 62
   132
100
AcDbFaceRecord
 10
0.0
 20
0.0
 30
0.0
 70
   128
 71
    36
 72
    35
 73
    38
  0
VERTEX
  5
35D
100
AcDbEntity
  8
MALHATRITG
  6
CONTINUO
 62
   132
100
AcDbFaceRecord
 10
0.0
 20
0.0
 30
0.0
 70
   128
 71
    36
 72
    38
 73
    41
  0
VERTEX
  5
35E
100
AcDbEntity
  8
MALHATRITG
  6
CONTINUO
 62
   132
100
AcDbFaceRecord
 10
0.0
 20
0.0
 30
0.0
 70
   128
 71
    41
 72
    38
 73
    40
  0
VERTEX
  5
35F
100
AcDbEntity
  8
MALHATRITG
  6
CONTINUO
 62
   132
100
AcDbFaceRecord
 10
0.0
 20
0.0
 30
0.0
 70
   128
 71
    87
 72
    36
 73
    39
  0
VERTEX
  5
360
100
AcDbEntity
  8
MALHATRITG
  6
CONTINUO
 62
   132
100
AcDbFaceRecord
 10
0.0
 20
0.0
 30
0.0
 70
   128
 71
    39
 72
    36
 73
    42
  0
VERTEX
  5
361
100
AcDbEntity
  8
MALHATRITG
  6
CONTINUO
 62
   132
100
AcDbFaceRecord
 10
0.0
 20
0.0
 30
0.0
 70
   128
 71
    42
 72
    36
 73
    41
  0
VERTEX
  5
362
100
AcDbEntity
  8
MALHATRITG
  6
CONTINUO
 62
   132
100
AcDbFaceRecord
 10
0.0
 20
0.0
 30
0.0
 70
   128
 71
    41
 72
    40
 73
    45
  0
VERTEX
  5
363
100
AcDbEntity
  8
MALHATRITG
  6
CONTINUO
 62
   132
100
AcDbFaceRecord
 10
0.0
 20
0.0
 30
0.0
 70
   128
 71
    45
 72
    40
 73
    48
  0
VERTEX
  5
364
100
AcDbEntity
  8
MALHATRITG
  6
CONTINUO
 62
   132
100
AcDbFaceRecord
 10
0.0
 20
0.0
 30
0.0
 70
   128
 71
    42
 72
    41
 73
    45
  0
VERTEX
  5
365
100
AcDbEntity
  8
MALHATRITG
  6
CONTINUO
 62
   132
100
AcDbFaceRecord
 10
0.0
 20
0.0
 30
0.0
 70
   128
 71
    42
 72
    45
 73
    43
  0
VERTEX
  5
366
100
AcDbEntity
  8
MALHATRITG
  6
CONTINUO
 62
   132
100
AcDbFaceRecord
 10
0.0
 20
0.0
 30
0.0
 70
   128
 71
    43
 72
    45
 73
    46
  0
VERTEX
  5
367
100
AcDbEntity
  8
MALHATRITG
  6
CONTINUO
 62
   132
100
AcDbFaceRecord
 10
0.0
 20
0.0
 30
0.0
 70
   128
 71
    46
 72
    45
 73
    48
  0
VERTEX
  5
368
100
AcDbEntity
  8
MALHATRITG
  6
CONTINUO
 62
   132
100
AcDbFaceRecord
 10
0.0
 20
0.0
 30
0.0
 70
   128
 71
    39
 72
    42
 73
    43
  0
VERTEX
  5
369
100
AcDbEntity
  8
MALHATRITG
  6
CONTINUO
 62
   132
100
AcDbFaceRecord
 10
0.0
 20
0.0
 30
0.0
 70
   128
 71
    46
 72
    48
 73
    47
  0
VERTEX
  5
36A
100
AcDbEntity
  8
MALHATRITG
  6
CONTINUO
 62
   132
100
AcDbFaceRecord
 10
0.0
 20
0.0
 30
0.0
 70
   128
 71
    47
 72
    48
 73
    93
  0
VERTEX
  5
36B
100
AcDbEntity
  8
MALHATRITG
  6
CONTINUO
 62
   132
100
AcDbFaceRecord
 10
0.0
 20
0.0
 30
0.0
 70
   128
 71
    93
 72
    48
 73
    94
  0
VERTEX
  5
36C
100
AcDbEntity
  8
MALHATRITG
  6
CONTINUO
 62
   132
100
AcDbFaceRecord
 10
0.0
 20
0.0
 30
0.0
 70
   128
 71
    94
 72
    48
 73
    95
  0
VERTEX
  5
36D
100
AcDbEntity
  8
MALHATRITG
  6
CONTINUO
 62
   132
100
AcDbFaceRecord
 10
0.0
 20
0.0
 30
0.0
 70
   128
 71
    43
 72
    46
 73
    47
  0
VERTEX
  5
36E
100
AcDbEntity
  8
MALHATRITG
  6
CONTINUO
 62
   132
100
AcDbFaceRecord
 10
0.0
 20
0.0
 30
0.0
 70
   128
 71
    39
 72
    43
 73
    47
  0
VERTEX
  5
36F
100
AcDbEntity
  8
MALHATRITG
  6
CONTINUO
 62
   132
100
AcDbFaceRecord
 10
0.0
 20
0.0
 30
0.0
 70
   128
 71
    87
 72
    39
 73
    88
  0
VERTEX
  5
370
100
AcDbEntity
  8
MALHATRITG
  6
CONTINUO
 62
   132
100
AcDbFaceRecord
 10
0.0
 20
0.0
 30
0.0
 70
   128
 71
    88
 72
    39
 73
    47
  0
VERTEX
  5
371
100
AcDbEntity
  8
MALHATRITG
  6
CONTINUO
 62
   132
100
AcDbFaceRecord
 10
0.0
 20
0.0
 30
0.0
 70
   128
 71
    88
 72
    47
 73
    91
  0
VERTEX
  5
372
100
AcDbEntity
  8
MALHATRITG
  6
CONTINUO
 62
   132
100
AcDbFaceRecord
 10
0.0
 20
0.0
 30
0.0
 70
   128
 71
    91
 72
    47
 73
    92
  0
VERTEX
  5
373
100
AcDbEntity
  8
MALHATRITG
  6
CONTINUO
 62
   132
100
AcDbFaceRecord
 10
0.0
 20
0.0
 30
0.0
 70
   128
 71
    92
 72
    47
 73
    93
  0
VERTEX
  5
374
100
AcDbEntity
  8
MALHATRITG
  6
CONTINUO
 62
   132
100
AcDbFaceRecord
 10
0.0
 20
0.0
 30
0.0
 70
   128
 71
    91
 72
    92
 73
    93
  0
VERTEX
  5
375
100
AcDbEntity
  8
MALHATRITG
  6
CONTINUO
 62
   132
100
AcDbFaceRecord
 10
0.0
 20
0.0
 30
0.0
 70
   128
 71
    91
 72
    93
 73
    90
  0
VERTEX
  5
376
100
AcDbEntity
  8
MALHATRITG
  6
CONTINUO
 62
   132
100
AcDbFaceRecord
 10
0.0
 20
0.0
 30
0.0
 70
   128
 71
    90
 72
    93
 73
    94
  0
VERTEX
  5
377
100
AcDbEntity
  8
MALHATRITG
  6
CONTINUO
 62
   132
100
AcDbFaceRecord
 10
0.0
 20
0.0
 30
0.0
 70
   128
 71
    88
 72
    91
 73
    89
  0
VERTEX
  5
378
100
AcDbEntity
  8
MALHATRITG
  6
CONTINUO
 62
   132
100
AcDbFaceRecord
 10
0.0
 20
0.0
 30
0.0
 70
   128
 71
    89
 72
    91
 73
    90
  0
VERTEX
  5
379
100
AcDbEntity
  8
MALHATRITG
  6
CONTINUO
 62
   132
100
AcDbFaceRecord
 10
0.0
 20
0.0
 30
0.0
 70
   128
 71
    87
 72
    88
 73
    89
  0
VERTEX
  5
37A
100
AcDbEntity
  8
MALHATRITG
  6
CONTINUO
 62
   132
100
AcDbFaceRecord
 10
0.0
 20
0.0
 30
0.0
 70
   128
 71
    84
 72
    87
 73
    85
  0
VERTEX
  5
37B
100
AcDbEntity
  8
MALHATRITG
  6
CONTINUO
 62
   132
100
AcDbFaceRecord
 10
0.0
 20
0.0
 30
0.0
 70
   128
 71
    85
 72
    87
 73
    89
  0
VERTEX
  5
37C
100
AcDbEntity
  8
MALHATRITG
  6
CONTINUO
 62
   132
100
AcDbFaceRecord
 10
0.0
 20
0.0
 30
0.0
 70
   128
 71
    85
 72
    89
 73
    86
  0
VERTEX
  5
37D
100
AcDbEntity
  8
MALHATRITG
  6
CONTINUO
 62
   132
100
AcDbFaceRecord
 10
0.0
 20
0.0
 30
0.0
 70
   128
 71
    86
 72
    89
 73
    90
  0
VERTEX
  5
37E
100
AcDbEntity
  8
MALHATRITG
  6
CONTINUO
 62
   132
100
AcDbFaceRecord
 10
0.0
 20
0.0
 30
0.0
 70
   128
 71
    78
 72
    84
 73
    80
  0
VERTEX
  5
37F
100
AcDbEntity
  8
MALHATRITG
  6
CONTINUO
 62
   132
100
AcDbFaceRecord
 10
0.0
 20
0.0
 30
0.0
 70
   128
 71
    80
 72
    84
 73
    85
  0
VERTEX
  5
380
100
AcDbEntity
  8
MALHATRITG
  6
CONTINUO
 62
   132
100
AcDbFaceRecord
 10
0.0
 20
0.0
 30
0.0
 70
   128
 71
    80
 72
    85
 73
    81
  0
VERTEX
  5
381
100
AcDbEntity
  8
MALHATRITG
  6
CONTINUO
 62
   132
100
AcDbFaceRecord
 10
0.0
 20
0.0
 30
0.0
 70
   128
 71
    81
 72
    85
 73
    83
  0
VERTEX
  5
382
100
AcDbEntity
  8
MALHATRITG
  6
CONTINUO
 62
   132
100
AcDbFaceRecord
 10
0.0
 20
0.0
 30
0.0
 70
   128
 71
    83
 72
    85
 73
    86
  0
VERTEX
  5
383
100
AcDbEntity
  8
MALHATRITG
  6
CONTINUO
 62
   132
100
AcDbFaceRecord
 10
0.0
 20
0.0
 30
0.0
 70
   128
 71
    80
 72
    81
 73
    82
  0
VERTEX
  5
384
100
AcDbEntity
  8
MALHATRITG
  6
CONTINUO
 62
   132
100
AcDbFaceRecord
 10
0.0
 20
0.0
 30
0.0
 70
   128
 71
    82
 72
    81
 73
    83
  0
VERTEX
  5
385
100
AcDbEntity
  8
MALHATRITG
  6
CONTINUO
 62
   132
100
AcDbFaceRecord
 10
0.0
 20
0.0
 30
0.0
 70
   128
 71
    64
 72
    78
 73
    79
  0
VERTEX
  5
386
100
AcDbEntity
  8
MALHATRITG
  6
CONTINUO
 62
   132
100
AcDbFaceRecord
 10
0.0
 20
0.0
 30
0.0
 70
   128
 71
    79
 72
    78
 73
    80
  0
VERTEX
  5
387
100
AcDbEntity
  8
MALHATRITG
  6
CONTINUO
 62
   132
100
AcDbFaceRecord
 10
0.0
 20
0.0
 30
0.0
 70
   128
 71
    79
 72
    80
 73
    82
  0
VERTEX
  5
388
100
AcDbEntity
  8
MALHATRITG
  6
CONTINUO
 62
   132
100
AcDbFaceRecord
 10
0.0
 20
0.0
 30
0.0
 70
   128
 71
    86
 72
    90
 73
    94
  0
VERTEX
  5
389
100
AcDbEntity
  8
MALHATRITG
  6
CONTINUO
 62
   132
100
AcDbFaceRecord
 10
0.0
 20
0.0
 30
0.0
 70
   128
 71
    71
 72
    63
 73
    69
  0
VERTEX
  5
38A
100
AcDbEntity
  8
MALHATRITG
  6
CONTINUO
 62
   132
100
AcDbFaceRecord
 10
0.0
 20
0.0
 30
0.0
 70
   128
 71
    69
 72
    63
 73
    65
  0
VERTEX
  5
38B
100
AcDbEntity
  8
MALHATRITG
  6
CONTINUO
 62
   132
100
AcDbFaceRecord
 10
0.0
 20
0.0
 30
0.0
 70
   128
 71
    69
 72
    65
 73
    67
  0
VERTEX
  5
38C
100
AcDbEntity
  8
MALHATRITG
  6
CONTINUO
 62
   132
100
AcDbFaceRecord
 10
0.0
 20
0.0
 30
0.0
 70
   128
 71
    67
 72
    65
 73
    66
  0
VERTEX
  5
38D
100
AcDbEntity
  8
MALHATRITG
  6
CONTINUO
 62
   132
100
AcDbFaceRecord
 10
0.0
 20
0.0
 30
0.0
 70
   128
 71
    71
 72
    69
 73
    70
  0
VERTEX
  5
38E
100
AcDbEntity
  8
MALHATRITG
  6
CONTINUO
 62
   132
100
AcDbFaceRecord
 10
0.0
 20
0.0
 30
0.0
 70
   128
 71
    70
 72
    69
 73
    67
  0
VERTEX
  5
38F
100
AcDbEntity
  8
MALHATRITG
  6
CONTINUO
 62
   132
100
AcDbFaceRecord
 10
0.0
 20
0.0
 30
0.0
 70
   128
 71
    70
 72
    67
 73
    68
  0
VERTEX
  5
390
100
AcDbEntity
  8
MALHATRITG
  6
CONTINUO
 62
   132
100
AcDbFaceRecord
 10
0.0
 20
0.0
 30
0.0
 70
   128
 71
    68
 72
    67
 73
    66
  0
VERTEX
  5
391
100
AcDbEntity
  8
MALHATRITG
  6
CONTINUO
 62
   132
100
AcDbFaceRecord
 10
0.0
 20
0.0
 30
0.0
 70
   128
 71
    68
 72
    66
 73
    64
  0
VERTEX
  5
392
100
AcDbEntity
  8
MALHATRITG
  6
CONTINUO
 62
   132
100
AcDbFaceRecord
 10
0.0
 20
0.0
 30
0.0
 70
   128
 71
    70
 72
    68
 73
    74
  0
VERTEX
  5
393
100
AcDbEntity
  8
MALHATRITG
  6
CONTINUO
 62
   132
100
AcDbFaceRecord
 10
0.0
 20
0.0
 30
0.0
 70
   128
 71
    74
 72
    68
 73
    64
  0
VERTEX
  5
394
100
AcDbEntity
  8
MALHATRITG
  6
CONTINUO
 62
   132
100
AcDbFaceRecord
 10
0.0
 20
0.0
 30
0.0
 70
   128
 71
    74
 72
    64
 73
    75
  0
VERTEX
  5
395
100
AcDbEntity
  8
MALHATRITG
  6
CONTINUO
 62
   132
100
AcDbFaceRecord
 10
0.0
 20
0.0
 30
0.0
 70
   128
 71
    75
 72
    64
 73
    76
  0
VERTEX
  5
396
100
AcDbEntity
  8
MALHATRITG
  6
CONTINUO
 62
   132
100
AcDbFaceRecord
 10
0.0
 20
0.0
 30
0.0
 70
   128
 71
    76
 72
    64
 73
    79
  0
VERTEX
  5
397
100
AcDbEntity
  8
MALHATRITG
  6
CONTINUO
 62
   132
100
AcDbFaceRecord
 10
0.0
 20
0.0
 30
0.0
 70
   128
 71
    71
 72
    70
 73
    74
  0
VERTEX
  5
398
100
AcDbEntity
  8
MALHATRITG
  6
CONTINUO
 62
   132
100
AcDbFaceRecord
 10
0.0
 20
0.0
 30
0.0
 70
   128
 71
    72
 72
    71
 73
    74
  0
VERTEX
  5
399
100
AcDbEntity
  8
MALHATRITG
  6
CONTINUO
 62
   132
100
AcDbFaceRecord
 10
0.0
 20
0.0
 30
0.0
 70
   128
 71
    76
 72
    79
 73
    77
  0
VERTEX
  5
39A
100
AcDbEntity
  8
MALHATRITG
  6
CONTINUO
 62
   132
100
AcDbFaceRecord
 10
0.0
 20
0.0
 30
0.0
 70
   128
 71
    77
 72
    79
 73
    82
  0
VERTEX
  5
39B
100
AcDbEntity
  8
MALHATRITG
  6
CONTINUO
 62
   132
100
AcDbFaceRecord
 10
0.0
 20
0.0
 30
0.0
 70
   128
 71
    75
 72
    76
 73
    77
  0
VERTEX
  5
39C
100
AcDbEntity
  8
MALHATRITG
  6
CONTINUO
 62
   132
100
AcDbFaceRecord
 10
0.0
 20
0.0
 30
0.0
 70
   128
 71
    74
 72
    75
 73
    77
  0
VERTEX
  5
39D
100
AcDbEntity
  8
MALHATRITG
  6
CONTINUO
 62
   132
100
AcDbFaceRecord
 10
0.0
 20
0.0
 30
0.0
 70
   128
 71
    72
 72
    74
 73
    77
  0
VERTEX
  5
39E
100
AcDbEntity
  8
MALHATRITG
  6
CONTINUO
 62
   132
100
AcDbFaceRecord
 10
0.0
 20
0.0
 30
0.0
 70
   128
 71
    77
 72
    82
 73
    83
  0
VERTEX
  5
39F
100
AcDbEntity
  8
MALHATRITG
  6
CONTINUO
 62
   132
100
AcDbFaceRecord
 10
0.0
 20
0.0
 30
0.0
 70
   128
 71
    86
 72
    94
 73
    95
  0
VERTEX
  5
3A0
100
AcDbEntity
  8
MALHATRITG
  6
CONTINUO
 62
   132
100
AcDbFaceRecord
 10
0.0
 20
0.0
 30
0.0
 70
   128
 71
    83
 72
    86
 73
    95
  0
VERTEX
  5
3A1
100
AcDbEntity
  8
MALHATRITG
  6
CONTINUO
 62
   132
100
AcDbFaceRecord
 10
0.0
 20
0.0
 30
0.0
 70
   128
 71
    77
 72
    83
 73
    95
  0
VERTEX
  5
3A2
100
AcDbEntity
  8
MALHATRITG
  6
CONTINUO
 62
   132
100
AcDbFaceRecord
 10
0.0
 20
0.0
 30
0.0
 70
   128
 71
    72
 72
    77
 73
    95
  0
SEQEND
  5
3A3
100
AcDbEntity
  8
MALHATRITG
  6
CONTINUO
 62
   132
  0
POLYLINE
  5
3A4
100
AcDbEntity
  8
CURVASTG
  6
CONTINUO
 62
    54
100
AcDb3dPolyline
 66
     1
 10
0.0
 20
0.0
 30
6.0
 70
     9
  0
VERTEX
  5
3A5
100
AcDbEntity
  8
CURVASTG
  6
CONTINUO
 62
    54
100
AcDbVertex
100
AcDb3dPolylineVertex
 10
176810.406199
 20
1676207.172406
 30
6.0
 70
    32
  0
VERTEX
  5
3A6
100
AcDbEntity
  8
CURVASTG
  6
CONTINUO
 62
    54
100
AcDbVertex
100
AcDb3dPolylineVertex
 10
176810.252538
 20
1676207.235432
 30
6.0
 70
    32
  0
VERTEX
  5
3A7
100
AcDbEntity
  8
CURVASTG
  6
CONTINUO
 62
    54
100
AcDbVertex
100
AcDb3dPolylineVertex
 10
176810.125395
 20
1676207.299571
 30
6.0
 70
    32
  0
VERTEX
  5
3A8
100
AcDbEntity
  8
CURVASTG
  6
CONTINUO
 62
    54
100
AcDbVertex
100
AcDb3dPolylineVertex
 10
176809.963055
 20
1676207.401009
 30
6.0
 70
    32
  0
VERTEX
  5
3A9
100
AcDbEntity
  8
CURVASTG
  6
CONTINUO
 62
    54
100
AcDbVertex
100
AcDb3dPolylineVertex
 10
176809.77798
 20
1676207.545776
 30
6.0
 70
    32
  0
VERTEX
  5
3AA
100
AcDbEntity
  8
CURVASTG
  6
CONTINUO
 62
    54
100
AcDbVertex
100
AcDb3dPolylineVertex
 10
176809.614635
 20
1676207.724507
 30
6.0
 70
    32
  0
VERTEX
  5
3AB
100
AcDbEntity
  8
CURVASTG
  6
CONTINUO
 62
    54
100
AcDbVertex
100
AcDb3dPolylineVertex
 10
176809.525489
 20
1676207.923982
 30
6.0
 70
    32
  0
VERTEX
  5
3AC
100
AcDbEntity
  8
CURVASTG
  6
CONTINUO
 62
    54
100
AcDbVertex
100
AcDb3dPolylineVertex
 10
176809.548447
 20
1676208.128812
 30
6.0
 70
    32
  0
VERTEX
  5
3AD
100
AcDbEntity
  8
CURVASTG
  6
CONTINUO
 62
    54
100
AcDbVertex
100
AcDb3dPolylineVertex
 10
176809.663161
 20
1676208.31492
 30
6.0
 70
    32
  0
VERTEX
  5
3AE
100
AcDbEntity
  8
CURVASTG
  6
CONTINUO
 62
    54
100
AcDbVertex
100
AcDb3dPolylineVertex
 10
176809.834722
 20
1676208.456059
 30
6.0
 70
    32
  0
VERTEX
  5
3AF
100
AcDbEntity
  8
CURVASTG
  6
CONTINUO
 62
    54
100
AcDbVertex
100
AcDb3dPolylineVertex
 10
176810.028916
 20
1676208.534246
 30
6.0
 70
    32
  0
VERTEX
  5
3B0
100
AcDbEntity
  8
CURVASTG
  6
CONTINUO
 62
    54
100
AcDbVertex
100
AcDb3dPolylineVertex
 10
176810.214313
 20
1676208.56457
 30
6.0
 70
    32
  0
VERTEX
  5
3B1
100
AcDbEntity
  8
CURVASTG
  6
CONTINUO
 62
    54
100
AcDbVertex
100
AcDb3dPolylineVertex
 10
176810.360181
 20
1676208.570387
 30
6.0
 70
    32
  0
VERTEX
  5
3B2
100
AcDbEntity
  8
CURVASTG
  6
CONTINUO
 62
    54
100
AcDbVertex
100
AcDb3dPolylineVertex
 10
176810.447659
 20
1676208.572123
 30
6.0
 70
    32
  0
VERTEX
  5
3B3
100
AcDbEntity
  8
CURVASTG
  6
CONTINUO
 62
    54
100
AcDbVertex
100
AcDb3dPolylineVertex
 10
176810.50538
 20
1676208.578485
 30
6.0
 70
    32
  0
VERTEX
  5
3B4
100
AcDbEntity
  8
CURVASTG
  6
CONTINUO
 62
    54
100
AcDbVertex
100
AcDb3dPolylineVertex
 10
176810.573847
 20
1676208.59525
 30
6.0
 70
    32
  0
VERTEX
  5
3B5
100
AcDbEntity
  8
CURVASTG
  6
CONTINUO
 62
    54
100
AcDbVertex
100
AcDb3dPolylineVertex
 10
176810.685047
 20
1676208.611655
 30
6.0
 70
    32
  0
VERTEX
  5
3B6
100
AcDbEntity
  8
CURVASTG
  6
CONTINUO
 62
    54
100
AcDbVertex
100
AcDb3dPolylineVertex
 10
176810.836883
 20
1676208.550776
 30
6.0
 70
    32
  0
VERTEX
  5
3B7
100
AcDbEntity
  8
CURVASTG
  6
CONTINUO
 62
    54
100
AcDbVertex
100
AcDb3dPolylineVertex
 10
176811.018744
 20
1676208.31915
 30
6.0
 70
    32
  0
VERTEX
  5
3B8
100
AcDbEntity
  8
CURVASTG
  6
CONTINUO
 62
    54
100
AcDbVertex
100
AcDb3dPolylineVertex
 10
176811.208866
 20
1676207.871618
 30
6.0
 70
    32
  0
VERTEX
  5
3B9
100
AcDbEntity
  8
CURVASTG
  6
CONTINUO
 62
    54
100
AcDbVertex
100
AcDb3dPolylineVertex
 10
176811.340887
 20
1676207.356233
 30
6.0
 70
    32
  0
VERTEX
  5
3BA
100
AcDbEntity
  8
CURVASTG
  6
CONTINUO
 62
    54
100
AcDbVertex
100
AcDb3dPolylineVertex
 10
176811.337293
 20
1676206.969352
 30
6.0
 70
    32
  0
VERTEX
  5
3BB
100
AcDbEntity
  8
CURVASTG
  6
CONTINUO
 62
    54
100
AcDbVertex
100
AcDb3dPolylineVertex
 10
176811.153053
 20
1676206.852297
 30
6.0
 70
    32
  0
VERTEX
  5
3BC
100
AcDbEntity
  8
CURVASTG
  6
CONTINUO
 62
    54
100
AcDbVertex
100
AcDb3dPolylineVertex
 10
176810.873053
 20
1676206.926247
 30
6.0
 70
    32
  0
VERTEX
  5
3BD
100
AcDbEntity
  8
CURVASTG
  6
CONTINUO
 62
    54
100
AcDbVertex
100
AcDb3dPolylineVertex
 10
176810.614663
 20
1676207.057349
 30
6.0
 70
    32
  0
VERTEX
  5
3BE
100
AcDbEntity
  8
CURVASTG
  6
CONTINUO
 62
    54
100
AcDbVertex
100
AcDb3dPolylineVertex
 10
176810.467966
 20
1676207.138315
 30
6.0
 70
    32
  0
VERTEX
  5
3BF
100
AcDbEntity
  8
CURVASTG
  6
CONTINUO
 62
    54
100
AcDbVertex
100
AcDb3dPolylineVertex
 10
176810.413919
 20
1676207.168145
 30
6.0
 70
    32
  0
VERTEX
  5
3C0
100
AcDbEntity
  8
CURVASTG
  6
CONTINUO
 62
    54
100
AcDbVertex
100
AcDb3dPolylineVertex
 10
176810.406199
 20
1676207.172406
 30
6.0
 70
    32
  0
SEQEND
  5
3C1
100
AcDbEntity
  8
CURVASTG
  6
CONTINUO
 62
    54
  0
POLYLINE
  5
3C2
100
AcDbEntity
  8
CURVASTG
  6
CONTINUO
 62
    54
100
AcDb3dPolyline
 66
     1
 10
0.0
 20
0.0
 30
5.5
 70
     9
  0
VERTEX
  5
3C3
100
AcDbEntity
  8
CURVASTG
  6
CONTINUO
 62
    54
100
AcDbVertex
100
AcDb3dPolylineVertex
 10
176809.741739
 20
1676202.511312
 30
5.5
 70
    32
  0
VERTEX
  5
3C4
100
AcDbEntity
  8
CURVASTG
  6
CONTINUO
 62
    54
100
AcDbVertex
100
AcDb3dPolylineVertex
 10
176808.737246
 20
1676202.923319
 30
5.5
 70
    32
  0
VERTEX
  5
3C5
100
AcDbEntity
  8
CURVASTG
  6
CONTINUO
 62
    54
100
AcDbVertex
100
AcDb3dPolylineVertex
 10
176807.906098
 20
1676203.342599
 30
5.5
 70
    32
  0
VERTEX
  5
3C6
100
AcDbEntity
  8
CURVASTG
  6
CONTINUO
 62
    54
100
AcDbVertex
100
AcDb3dPolylineVertex
 10
176806.844867
 20
1676204.005707
 30
5.5
 70
    32
  0
VERTEX
  5
3C7
100
AcDbEntity
  8
CURVASTG
  6
CONTINUO
 62
    54
100
AcDbVertex
100
AcDb3dPolylineVertex
 10
176805.635011
 20
1676204.952069
 30
5.5
 70
    32
  0
VERTEX
  5
3C8
100
AcDbEntity
  8
CURVASTG
  6
CONTINUO
 62
    54
100
AcDbVertex
100
AcDb3dPolylineVertex
 10
176804.567211
 20
1676206.120446
 30
5.5
 70
    32
  0
VERTEX
  5
3C9
100
AcDbEntity
  8
CURVASTG
  6
CONTINUO
 62
    54
100
AcDbVertex
100
AcDb3dPolylineVertex
 10
176803.984456
 20
1676207.424434
 30
5.5
 70
    32
  0
VERTEX
  5
3CA
100
AcDbEntity
  8
CURVASTG
  6
CONTINUO
 62
    54
100
AcDbVertex
100
AcDb3dPolylineVertex
 10
176804.134532
 20
1676208.763428
 30
5.5
 70
    32
  0
VERTEX
  5
3CB
100
AcDbEntity
  8
CURVASTG
  6
CONTINUO
 62
    54
100
AcDbVertex
100
AcDb3dPolylineVertex
 10
176804.884431
 20
1676209.980037
 30
5.5
 70
    32
  0
VERTEX
  5
3CC
100
AcDbEntity
  8
CURVASTG
  6
CONTINUO
 62
    54
100
AcDbVertex
100
AcDb3dPolylineVertex
 10
176806.005941
 20
1676210.902673
 30
5.5
 70
    32
  0
VERTEX
  5
3CD
100
AcDbEntity
  8
CURVASTG
  6
CONTINUO
 62
    54
100
AcDbVertex
100
AcDb3dPolylineVertex
 10
176807.275403
 20
1676211.41379
 30
5.5
 70
    32
  0
VERTEX
  5
3CE
100
AcDbEntity
  8
CURVASTG
  6
CONTINUO
 62
    54
100
AcDbVertex
100
AcDb3dPolylineVertex
 10
176808.487363
 20
1676211.612023
 30
5.5
 70
    32
  0
VERTEX
  5
3CF
100
AcDbEntity
  8
CURVASTG
  6
CONTINUO
 62
    54
100
AcDbVertex
100
AcDb3dPolylineVertex
 10
176809.440916
 20
1676211.650051
 30
5.5
 70
    32
  0
VERTEX
  5
3D0
100
AcDbEntity
  8
CURVASTG
  6
CONTINUO
 62
    54
100
AcDbVertex
100
AcDb3dPolylineVertex
 10
176810.012772
 20
1676211.6614
 30
5.5
 70
    32
  0
VERTEX
  5
3D1
100
AcDbEntity
  8
CURVASTG
  6
CONTINUO
 62
    54
100
AcDbVertex
100
AcDb3dPolylineVertex
 10
176810.390098
 20
1676211.702988
 30
5.5
 70
    32
  0
VERTEX
  5
3D2
100
AcDbEntity
  8
CURVASTG
  6
CONTINUO
 62
    54
100
AcDbVertex
100
AcDb3dPolylineVertex
 10
176810.837676
 20
1676211.81258
 30
5.5
 70
    32
  0
VERTEX
  5
3D3
100
AcDbEntity
  8
CURVASTG
  6
CONTINUO
 62
    54
100
AcDbVertex
100
AcDb3dPolylineVertex
 10
176811.564596
 20
1676211.919819
 30
5.5
 70
    32
  0
VERTEX
  5
3D4
100
AcDbEntity
  8
CURVASTG
  6
CONTINUO
 62
    54
100
AcDbVertex
100
AcDb3dPolylineVertex
 10
176812.557168
 20
1676211.521849
 30
5.5
 70
    32
  0
VERTEX
  5
3D5
100
AcDbEntity
  8
CURVASTG
  6
CONTINUO
 62
    54
100
AcDbVertex
100
AcDb3dPolylineVertex
 10
176813.746012
 20
1676210.00769
 30
5.5
 70
    32
  0
VERTEX
  5
3D6
100
AcDbEntity
  8
CURVASTG
  6
CONTINUO
 62
    54
100
AcDbVertex
100
AcDb3dPolylineVertex
 10
176814.988858
 20
1676207.082127
 30
5.5
 70
    32
  0
VERTEX
  5
3D7
100
AcDbEntity
  8
CURVASTG
  6
CONTINUO
 62
    54
100
AcDbVertex
100
AcDb3dPolylineVertex
 10
176815.851888
 20
1676203.713003
 30
5.5
 70
    32
  0
VERTEX
  5
3D8
100
AcDbEntity
  8
CURVASTG
  6
CONTINUO
 62
    54
100
AcDbVertex
100
AcDb3dPolylineVertex
 10
176815.828395
 20
1676201.183923
 30
5.5
 70
    32
  0
VERTEX
  5
3D9
100
AcDbEntity
  8
CURVASTG
  6
CONTINUO
 62
    54
100
AcDbVertex
100
AcDb3dPolylineVertex
 10
176814.623998
 20
1676200.418722
 30
5.5
 70
    32
  0
VERTEX
  5
3DA
100
AcDbEntity
  8
CURVASTG
  6
CONTINUO
 62
    54
100
AcDbVertex
100
AcDb3dPolylineVertex
 10
176812.793615
 20
1676200.902146
 30
5.5
 70
    32
  0
VERTEX
  5
3DB
100
AcDbEntity
  8
CURVASTG
  6
CONTINUO
 62
    54
100
AcDbVertex
100
AcDb3dPolylineVertex
 10
176811.104489
 20
1676201.759168
 30
5.5
 70
    32
  0
VERTEX
  5
3DC
100
AcDbEntity
  8
CURVASTG
  6
CONTINUO
 62
    54
100
AcDbVertex
100
AcDb3dPolylineVertex
 10
176810.145517
 20
1676202.288454
 30
5.5
 70
    32
  0
VERTEX
  5
3DD
100
AcDbEntity
  8
CURVASTG
  6
CONTINUO
 62
    54
100
AcDbVertex
100
AcDb3dPolylineVertex
 10
176809.792211
 20
1676202.483455
 30
5.5
 70
    32
  0
VERTEX
  5
3DE
100
AcDbEntity
  8
CURVASTG
  6
CONTINUO
 62
    54
100
AcDbVertex
100
AcDb3dPolylineVertex
 10
176809.741739
 20
1676202.511312
 30
5.5
 70
    32
  0
SEQEND
  5
3DF
100
AcDbEntity
  8
CURVASTG
  6
CONTINUO
 62
    54
  0
POLYLINE
  5
3E0
100
AcDbEntity
  8
CURVASTG
  6
CONTINUO
 62
     2
100
AcDb3dPolyline
 66
     1
 10
0.0
 20
0.0
 30
5.0
 70
     8
  0
VERTEX
  5
3E1
100
AcDbEntity
  8
CURVASTG
  6
CONTINUO
 62
     2
100
AcDbVertex
100
AcDb3dPolylineVertex
 10
176809.077279
 20
1676197.850218
 30
5.0
 70
    32
  0
VERTEX
  5
3E2
100
AcDbEntity
  8
CURVASTG
  6
CONTINUO
 62
     2
100
AcDbVertex
100
AcDb3dPolylineVertex
 10
176808.889776
 20
1676197.927125
 30
5.0
 70
    32
  0
SEQEND
  5
3E3
100
AcDbEntity
  8
CURVASTG
  6
CONTINUO
 62
     2
  0
TEXT
  5
3E4
100
AcDbEntity
  8
CURVASTG
 62
     2
100
AcDbText
 10
176807.776011
 20
1676197.978633
 30
5.0
 40
0.75
  1
5
 50
337.698314
 41
0.699986
  7
SIMPLEX
100
AcDbText
  0
POLYLINE
  5
3E5
100
AcDbEntity
  8
CURVASTG
  6
CONTINUO
 62
     2
100
AcDb3dPolyline
 66
     1
 10
0.0
 20
0.0
 30
5.0
 70
     8
  0
VERTEX
  5
3E6
100
AcDbEntity
  8
CURVASTG
  6
CONTINUO
 62
     2
100
AcDbVertex
100
AcDb3dPolylineVertex
 10
176807.409458
 20
1676198.534298
 30
5.0
 70
    32
  0
VERTEX
  5
3E7
100
AcDbEntity
  8
CURVASTG
  6
CONTINUO
 62
     2
100
AcDbVertex
100
AcDb3dPolylineVertex
 10
176807.221954
 20
1676198.611206
 30
5.0
 70
    32
  0
VERTEX
  5
3E8
100
AcDbEntity
  8
CURVASTG
  6
CONTINUO
 62
     2
100
AcDbVertex
100
AcDb3dPolylineVertex
 10
176805.686801
 20
1676199.385628
 30
5.0
 70
    32
  0
VERTEX
  5
3E9
100
AcDbEntity
  8
CURVASTG
  6
CONTINUO
 62
     2
100
AcDbVertex
100
AcDb3dPolylineVertex
 10
176803.726679
 20
1676200.610405
 30
5.0
 70
    32
  0
VERTEX
  5
3EA
100
AcDbEntity
  8
CURVASTG
  6
CONTINUO
 62
     2
100
AcDbVertex
100
AcDb3dPolylineVertex
 10
176801.492042
 20
1676202.358362
 30
5.0
 70
    32
  0
VERTEX
  5
3EB
100
AcDbEntity
  8
CURVASTG
  6
CONTINUO
 62
     2
100
AcDbVertex
100
AcDb3dPolylineVertex
 10
176799.519788
 20
1676204.516386
 30
5.0
 70
    32
  0
VERTEX
  5
3EC
100
AcDbEntity
  8
CURVASTG
  6
CONTINUO
 62
     2
100
AcDbVertex
100
AcDb3dPolylineVertex
 10
176798.443422
 20
1676206.924886
 30
5.0
 70
    32
  0
VERTEX
  5
3ED
100
AcDbEntity
  8
CURVASTG
  6
CONTINUO
 62
     2
100
AcDbVertex
100
AcDb3dPolylineVertex
 10
176798.720618
 20
1676209.398044
 30
5.0
 70
    32
  0
VERTEX
  5
3EE
100
AcDbEntity
  8
CURVASTG
  6
CONTINUO
 62
     2
100
AcDbVertex
100
AcDb3dPolylineVertex
 10
176800.1057
 20
1676211.645154
 30
5.0
 70
    32
  0
VERTEX
  5
3EF
100
AcDbEntity
  8
CURVASTG
  6
CONTINUO
 62
     2
100
AcDbVertex
100
AcDb3dPolylineVertex
 10
176802.177159
 20
1676213.349287
 30
5.0
 70
    32
  0
VERTEX
  5
3F0
100
AcDbEntity
  8
CURVASTG
  6
CONTINUO
 62
     2
100
AcDbVertex
100
AcDb3dPolylineVertex
 10
176804.521891
 20
1676214.293334
 30
5.0
 70
    32
  0
VERTEX
  5
3F1
100
AcDbEntity
  8
CURVASTG
  6
CONTINUO
 62
     2
100
AcDbVertex
100
AcDb3dPolylineVertex
 10
176806.760414
 20
1676214.659476
 30
5.0
 70
    32
  0
VERTEX
  5
3F2
100
AcDbEntity
  8
CURVASTG
  6
CONTINUO
 62
     2
100
AcDbVertex
100
AcDb3dPolylineVertex
 10
176808.521652
 20
1676214.729714
 30
5.0
 70
    32
  0
VERTEX
  5
3F3
100
AcDbEntity
  8
CURVASTG
  6
CONTINUO
 62
     2
100
AcDbVertex
100
AcDb3dPolylineVertex
 10
176809.577884
 20
1676214.750676
 30
5.0
 70
    32
  0
VERTEX
  5
3F4
100
AcDbEntity
  8
CURVASTG
  6
CONTINUO
 62
     2
100
AcDbVertex
100
AcDb3dPolylineVertex
 10
176810.274815
 20
1676214.82749
 30
5.0
 70
    32
  0
VERTEX
  5
3F5
100
AcDbEntity
  8
CURVASTG
  6
CONTINUO
 62
     2
100
AcDbVertex
100
AcDb3dPolylineVertex
 10
176811.101505
 20
1676215.029911
 30
5.0
 70
    32
  0
VERTEX
  5
3F6
100
AcDbEntity
  8
CURVASTG
  6
CONTINUO
 62
     2
100
AcDbVertex
100
AcDb3dPolylineVertex
 10
176812.444145
 20
1676215.227984
 30
5.0
 70
    32
  0
VERTEX
  5
3F7
100
AcDbEntity
  8
CURVASTG
  6
CONTINUO
 62
     2
100
AcDbVertex
100
AcDb3dPolylineVertex
 10
176814.277453
 20
1676214.492922
 30
5.0
 70
    32
  0
VERTEX
  5
3F8
100
AcDbEntity
  8
CURVASTG
  6
CONTINUO
 62
     2
100
AcDbVertex
100
AcDb3dPolylineVertex
 10
176816.473279
 20
1676211.69623
 30
5.0
 70
    32
  0
VERTEX
  5
3F9
100
AcDbEntity
  8
CURVASTG
  6
CONTINUO
 62
     2
100
AcDbVertex
100
AcDb3dPolylineVertex
 10
176818.768849
 20
1676206.292637
 30
5.0
 70
    32
  0
VERTEX
  5
3FA
100
AcDbEntity
  8
CURVASTG
  6
CONTINUO
 62
     2
100
AcDbVertex
100
AcDb3dPolylineVertex
 10
176820.362889
 20
1676200.069773
 30
5.0
 70
    32
  0
VERTEX
  5
3FB
100
AcDbEntity
  8
CURVASTG
  6
CONTINUO
 62
     2
100
AcDbVertex
100
AcDb3dPolylineVertex
 10
176820.319496
 20
1676195.398494
 30
5.0
 70
    32
  0
VERTEX
  5
3FC
100
AcDbEntity
  8
CURVASTG
  6
CONTINUO
 62
     2
100
AcDbVertex
100
AcDb3dPolylineVertex
 10
176818.094943
 20
1676193.985148
 30
5.0
 70
    32
  0
VERTEX
  5
3FD
100
AcDbEntity
  8
CURVASTG
  6
CONTINUO
 62
     2
100
AcDbVertex
100
AcDb3dPolylineVertex
 10
176814.714176
 20
1676194.878045
 30
5.0
 70
    32
  0
VERTEX
  5
3FE
100
AcDbEntity
  8
CURVASTG
  6
CONTINUO
 62
     2
100
AcDbVertex
100
AcDb3dPolylineVertex
 10
176811.594315
 20
1676196.460987
 30
5.0
 70
    32
  0
VERTEX
  5
3FF
100
AcDbEntity
  8
CURVASTG
  6
CONTINUO
 62
     2
100
AcDbVertex
100
AcDb3dPolylineVertex
 10
176809.823068
 20
1676197.438594
 30
5.0
 70
    32
  0
VERTEX
  5
400
100
AcDbEntity
  8
CURVASTG
  6
CONTINUO
 62
     2
100
AcDbVertex
100
AcDb3dPolylineVertex
 10
176809.170503
 20
1676197.798765
 30
5.0
 70
    32
  0
VERTEX
  5
401
100
AcDbEntity
  8
CURVASTG
  6
CONTINUO
 62
     2
100
AcDbVertex
100
AcDb3dPolylineVertex
 10
176809.077279
 20
1676197.850218
 30
5.0
 70
    32
  0
SEQEND
  5
402
100
AcDbEntity
  8
CURVASTG
  6
CONTINUO
 62
     2
  0
POLYLINE
  5
403
100
AcDbEntity
  8
CURVASTG
  6
CONTINUO
 62
    54
100
AcDb3dPolyline
 66
     1
 10
0.0
 20
0.0
 30
4.5
 70
     8
  0
VERTEX
  5
404
100
AcDbEntity
  8
CURVASTG
  6
CONTINUO
 62
    54
100
AcDbVertex
100
AcDb3dPolylineVertex
 10
176751.718202
 20
1676125.244113
 30
4.5
 70
    32
  0
VERTEX
  5
405
100
AcDbEntity
  8
CURVASTG
  6
CONTINUO
 62
    54
100
AcDbVertex
100
AcDb3dPolylineVertex
 10
176756.988015
 20
1676128.420612
 30
4.5
 70
    32
  0
VERTEX
  5
406
100
AcDbEntity
  8
CURVASTG
  6
CONTINUO
 62
    54
100
AcDbVertex
100
AcDb3dPolylineVertex
 10
176760.762899
 20
1676130.606066
 30
4.5
 70
    32
  0
VERTEX
  5
407
100
AcDbEntity
  8
CURVASTG
  6
CONTINUO
 62
    54
100
AcDbVertex
100
AcDb3dPolylineVertex
 10
176764.628277
 20
1676132.67455
 30
4.5
 70
    32
  0
VERTEX
  5
408
100
AcDbEntity
  8
CURVASTG
  6
CONTINUO
 62
    54
100
AcDbVertex
100
AcDb3dPolylineVertex
 10
176768.005154
 20
1676134.314653
 30
4.5
 70
    32
  0
VERTEX
  5
409
100
AcDbEntity
  8
CURVASTG
  6
CONTINUO
 62
    54
100
AcDbVertex
100
AcDb3dPolylineVertex
 10
176770.897914
 20
1676136.068371
 30
4.5
 70
    32
  0
VERTEX
  5
40A
100
AcDbEntity
  8
CURVASTG
  6
CONTINUO
 62
    54
100
AcDbVertex
100
AcDb3dPolylineVertex
 10
176773.456786
 20
1676138.691058
 30
4.5
 70
    32
  0
VERTEX
  5
40B
100
AcDbEntity
  8
CURVASTG
  6
CONTINUO
 62
    54
100
AcDbVertex
100
AcDb3dPolylineVertex
 10
176775.7781
 20
1676142.620094
 30
4.5
 70
    32
  0
VERTEX
  5
40C
100
AcDbEntity
  8
CURVASTG
  6
CONTINUO
 62
    54
100
AcDbVertex
100
AcDb3dPolylineVertex
 10
176777.742583
 20
1676147.020983
 30
4.5
 70
    32
  0
VERTEX
  5
40D
100
AcDbEntity
  8
CURVASTG
  6
CONTINUO
 62
    54
100
AcDbVertex
100
AcDb3dPolylineVertex
 10
176779.177061
 20
1676150.741255
 30
4.5
 70
    32
  0
VERTEX
  5
40E
100
AcDbEntity
  8
CURVASTG
  6
CONTINUO
 62
    54
100
AcDbVertex
100
AcDb3dPolylineVertex
 10
176779.979645
 20
1676152.919457
 30
4.5
 70
    32
  0
VERTEX
  5
40F
100
AcDbEntity
  8
CURVASTG
  6
CONTINUO
 62
    54
100
AcDbVertex
100
AcDb3dPolylineVertex
 10
176780.333592
 20
1676153.858175
 30
4.5
 70
    32
  0
VERTEX
  5
410
100
AcDbEntity
  8
CURVASTG
  6
CONTINUO
 62
    54
100
AcDbVertex
100
AcDb3dPolylineVertex
 10
176780.493439
 20
1676154.15101
 30
4.5
 70
    32
  0
VERTEX
  5
411
100
AcDbEntity
  8
CURVASTG
  6
CONTINUO
 62
    54
100
AcDbVertex
100
AcDb3dPolylineVertex
 10
176780.66825
 20
1676154.295296
 30
4.5
 70
    32
  0
VERTEX
  5
412
100
AcDbEntity
  8
CURVASTG
  6
CONTINUO
 62
    54
100
AcDbVertex
100
AcDb3dPolylineVertex
 10
176780.885182
 20
1676154.403306
 30
4.5
 70
    32
  0
VERTEX
  5
413
100
AcDbEntity
  8
CURVASTG
  6
CONTINUO
 62
    54
100
AcDbVertex
100
AcDb3dPolylineVertex
 10
176781.125915
 20
1676154.491047
 30
4.5
 70
    32
  0
VERTEX
  5
414
100
AcDbEntity
  8
CURVASTG
  6
CONTINUO
 62
    54
100
AcDbVertex
100
AcDb3dPolylineVertex
 10
176781.372465
 20
1676154.571673
 30
4.5
 70
    32
  0
VERTEX
  5
415
100
AcDbEntity
  8
CURVASTG
  6
CONTINUO
 62
    54
100
AcDbVertex
100
AcDb3dPolylineVertex
 10
176781.608189
 20
1676154.646922
 30
4.5
 70
    32
  0
VERTEX
  5
416
100
AcDbEntity
  8
CURVASTG
  6
CONTINUO
 62
    54
100
AcDbVertex
100
AcDb3dPolylineVertex
 10
176781.81678
 20
1676154.71568
 30
4.5
 70
    32
  0
VERTEX
  5
417
100
AcDbEntity
  8
CURVASTG
  6
CONTINUO
 62
    54
100
AcDbVertex
100
AcDb3dPolylineVertex
 10
176781.988306
 20
1676154.780251
 30
4.5
 70
    32
  0
VERTEX
  5
418
100
AcDbEntity
  8
CURVASTG
  6
CONTINUO
 62
    54
100
AcDbVertex
100
AcDb3dPolylineVertex
 10
176782.138331
 20
1676154.85662
 30
4.5
 70
    32
  0
VERTEX
  5
419
100
AcDbEntity
  8
CURVASTG
  6
CONTINUO
 62
    54
100
AcDbVertex
100
AcDb3dPolylineVertex
 10
176782.288792
 20
1676154.964187
 30
4.5
 70
    32
  0
VERTEX
  5
41A
100
AcDbEntity
  8
CURVASTG
  6
CONTINUO
 62
    54
100
AcDbVertex
100
AcDb3dPolylineVertex
 10
176782.453965
 20
1676155.111099
 30
4.5
 70
    32
  0
VERTEX
  5
41B
100
AcDbEntity
  8
CURVASTG
  6
CONTINUO
 62
    54
100
AcDbVertex
100
AcDb3dPolylineVertex
 10
176782.61748
 20
1676155.260473
 30
4.5
 70
    32
  0
VERTEX
  5
41C
100
AcDbEntity
  8
CURVASTG
  6
CONTINUO
 62
    54
100
AcDbVertex
100
AcDb3dPolylineVertex
 10
176782.755307
 20
1676155.364171
 30
4.5
 70
    32
  0
VERTEX
  5
41D
100
AcDbEntity
  8
CURVASTG
  6
CONTINUO
 62
    54
100
AcDbVertex
100
AcDb3dPolylineVertex
 10
176783.089552
 20
1676155.546787
 30
4.5
 70
    32
  0
VERTEX
  5
41E
100
AcDbEntity
  8
CURVASTG
  6
CONTINUO
 62
    54
100
AcDbVertex
100
AcDb3dPolylineVertex
 10
176784.826874
 20
1676156.623846
 30
4.5
 70
    32
  0
VERTEX
  5
41F
100
AcDbEntity
  8
CURVASTG
  6
CONTINUO
 62
    54
100
AcDbVertex
100
AcDb3dPolylineVertex
 10
176789.420067
 20
1676159.583605
 30
4.5
 70
    32
  0
VERTEX
  5
420
100
AcDbEntity
  8
CURVASTG
  6
CONTINUO
 62
    54
100
AcDbVertex
100
AcDb3dPolylineVertex
 10
176797.612239
 20
1676164.948362
 30
4.5
 70
    32
  0
VERTEX
  5
421
100
AcDbEntity
  8
CURVASTG
  6
CONTINUO
 62
    54
100
AcDbVertex
100
AcDb3dPolylineVertex
 10
176807.307751
 20
1676171.376565
 30
4.5
 70
    32
  0
VERTEX
  5
422
100
AcDbEntity
  8
CURVASTG
  6
CONTINUO
 62
    54
100
AcDbVertex
100
AcDb3dPolylineVertex
 10
176815.701276
 20
1676177.0607
 30
4.5
 70
    32
  0
VERTEX
  5
423
100
AcDbEntity
  8
CURVASTG
  6
CONTINUO
 62
    54
100
AcDbVertex
100
AcDb3dPolylineVertex
 10
176820.672863
 20
1676180.626202
 30
4.5
 70
    32
  0
VERTEX
  5
424
100
AcDbEntity
  8
CURVASTG
  6
CONTINUO
 62
    54
100
AcDbVertex
100
AcDb3dPolylineVertex
 10
176822.844076
 20
1676182.430286
 30
4.5
 70
    32
  0
VERTEX
  5
425
100
AcDbEntity
  8
CURVASTG
  6
CONTINUO
 62
    54
100
AcDbVertex
100
AcDb3dPolylineVertex
 10
176823.521853
 20
1676183.263113
 30
4.5
 70
    32
  0
VERTEX
  5
426
100
AcDbEntity
  8
CURVASTG
  6
CONTINUO
 62
    54
100
AcDbVertex
100
AcDb3dPolylineVertex
 10
176823.707459
 20
1676183.840253
 30
4.5
 70
    32
  0
VERTEX
  5
427
100
AcDbEntity
  8
CURVASTG
  6
CONTINUO
 62
    54
100
AcDbVertex
100
AcDb3dPolylineVertex
 10
176823.179454
 20
1676184.578911
 30
4.5
 70
    32
  0
VERTEX
  5
428
100
AcDbEntity
  8
CURVASTG
  6
CONTINUO
 62
    54
100
AcDbVertex
100
AcDb3dPolylineVertex
 10
176821.410725
 20
1676185.821702
 30
4.5
 70
    32
  0
VERTEX
  5
429
100
AcDbEntity
  8
CURVASTG
  6
CONTINUO
 62
    54
100
AcDbVertex
100
AcDb3dPolylineVertex
 10
176818.113663
 20
1676187.770934
 30
4.5
 70
    32
  0
VERTEX
  5
42A
100
AcDbEntity
  8
CURVASTG
  6
CONTINUO
 62
    54
100
AcDbVertex
100
AcDb3dPolylineVertex
 10
176813.958683
 20
1676190.067705
 30
4.5
 70
    32
  0
VERTEX
  5
42B
100
AcDbEntity
  8
CURVASTG
  6
CONTINUO
 62
    54
100
AcDbVertex
100
AcDb3dPolylineVertex
 10
176809.855706
 20
1676192.212804
 30
4.5
 70
    32
  0
VERTEX
  5
42C
100
AcDbEntity
  8
CURVASTG
  6
CONTINUO
 62
    54
100
AcDbVertex
100
AcDb3dPolylineVertex
 10
176806.479485
 20
1676193.872547
 30
4.5
 70
    32
  0
VERTEX
  5
42D
100
AcDbEntity
  8
CURVASTG
  6
CONTINUO
 62
    54
100
AcDbVertex
100
AcDb3dPolylineVertex
 10
176803.564108
 20
1676195.375338
 30
4.5
 70
    32
  0
VERTEX
  5
42E
100
AcDbEntity
  8
CURVASTG
  6
CONTINUO
 62
    54
100
AcDbVertex
100
AcDb3dPolylineVertex
 10
176800.608491
 20
1676197.215104
 30
4.5
 70
    32
  0
VERTEX
  5
42F
100
AcDbEntity
  8
CURVASTG
  6
CONTINUO
 62
    54
100
AcDbVertex
100
AcDb3dPolylineVertex
 10
176797.349074
 20
1676199.764654
 30
4.5
 70
    32
  0
VERTEX
  5
430
100
AcDbEntity
  8
CURVASTG
  6
CONTINUO
 62
    54
100
AcDbVertex
100
AcDb3dPolylineVertex
 10
176794.472364
 20
1676202.912326
 30
4.5
 70
    32
  0
VERTEX
  5
431
100
AcDbEntity
  8
CURVASTG
  6
CONTINUO
 62
    54
100
AcDbVertex
100
AcDb3dPolylineVertex
 10
176792.902389
 20
1676206.425338
 30
4.5
 70
    32
  0
VERTEX
  5
432
100
AcDbEntity
  8
CURVASTG
  6
CONTINUO
 62
    54
100
AcDbVertex
100
AcDb3dPolylineVertex
 10
176793.306703
 20
1676210.03266
 30
4.5
 70
    32
  0
VERTEX
  5
433
100
AcDbEntity
  8
CURVASTG
  6
CONTINUO
 62
    54
100
AcDbVertex
100
AcDb3dPolylineVertex
 10
176795.326969
 20
1676213.310271
 30
4.5
 70
    32
  0
VERTEX
  5
434
100
AcDbEntity
  8
CURVASTG
  6
CONTINUO
 62
    54
100
AcDbVertex
100
AcDb3dPolylineVertex
 10
176798.348378
 20
1676215.795901
 30
4.5
 70
    32
  0
VERTEX
  5
435
100
AcDbEntity
  8
CURVASTG
  6
CONTINUO
 62
    54
100
AcDbVertex
100
AcDb3dPolylineVertex
 10
176801.768379
 20
1676217.172878
 30
4.5
 70
    32
  0
VERTEX
  5
436
100
AcDbEntity
  8
CURVASTG
  6
CONTINUO
 62
    54
100
AcDbVertex
100
AcDb3dPolylineVertex
 10
176805.033464
 20
1676217.706929
 30
4.5
 70
    32
  0
VERTEX
  5
437
100
AcDbEntity
  8
CURVASTG
  6
CONTINUO
 62
    54
100
AcDbVertex
100
AcDb3dPolylineVertex
 10
176807.602387
 20
1676217.809377
 30
4.5
 70
    32
  0
VERTEX
  5
438
100
AcDbEntity
  8
CURVASTG
  6
CONTINUO
 62
    54
100
AcDbVertex
100
AcDb3dPolylineVertex
 10
176809.142997
 20
1676217.839952
 30
4.5
 70
    32
  0
VERTEX
  5
439
100
AcDbEntity
  8
CURVASTG
  6
CONTINUO
 62
    54
100
AcDbVertex
100
AcDb3dPolylineVertex
 10
176810.159533
 20
1676217.951992
 30
4.5
 70
    32
  0
VERTEX
  5
43A
100
AcDbEntity
  8
CURVASTG
  6
CONTINUO
 62
    54
100
AcDbVertex
100
AcDb3dPolylineVertex
 10
176811.365334
 20
1676218.247241
 30
4.5
 70
    32
  0
VERTEX
  5
43B
100
AcDbEntity
  8
CURVASTG
  6
CONTINUO
 62
    54
100
AcDbVertex
100
AcDb3dPolylineVertex
 10
176813.300435
 20
1676218.613986
 30
4.5
 70
    32
  0
VERTEX
  5
43C
100
AcDbEntity
  8
CURVASTG
  6
CONTINUO
 62
    54
100
AcDbVertex
100
AcDb3dPolylineVertex
 10
176815.811671
 20
1676218.086696
 30
4.5
 70
    32
  0
VERTEX
  5
43D
100
AcDbEntity
  8
CURVASTG
  6
CONTINUO
 62
    54
100
AcDbVertex
100
AcDb3dPolylineVertex
 10
176818.572572
 20
1676215.486384
 30
4.5
 70
    32
  0
VERTEX
  5
43E
100
AcDbEntity
  8
CURVASTG
  6
CONTINUO
 62
    54
100
AcDbVertex
100
AcDb3dPolylineVertex
 10
176821.272661
 20
1676210.208548
 30
4.5
 70
    32
  0
VERTEX
  5
43F
100
AcDbEntity
  8
CURVASTG
  6
CONTINUO
 62
    54
100
AcDbVertex
100
AcDb3dPolylineVertex
 10
176823.665407
 20
1676203.946627
 30
4.5
 70
    32
  0
VERTEX
  5
440
100
AcDbEntity
  8
CURVASTG
  6
CONTINUO
 62
    54
100
AcDbVertex
100
AcDb3dPolylineVertex
 10
176825.520272
 20
1676198.968544
 30
4.5
 70
    32
  0
VERTEX
  5
441
100
AcDbEntity
  8
CURVASTG
  6
CONTINUO
 62
    54
100
AcDbVertex
100
AcDb3dPolylineVertex
 10
176826.717743
 20
1676197.169312
 30
4.5
 70
    32
  0
VERTEX
  5
442
100
AcDbEntity
  8
CURVASTG
  6
CONTINUO
 62
    54
100
AcDbVertex
100
AcDb3dPolylineVertex
 10
176827.582424
 20
1676198.9523
 30
4.5
 70
    32
  0
VERTEX
  5
443
100
AcDbEntity
  8
CURVASTG
  6
CONTINUO
 62
    54
100
AcDbVertex
100
AcDb3dPolylineVertex
 10
176828.549946
 20
1676204.347966
 30
4.5
 70
    32
  0
VERTEX
  5
444
100
AcDbEntity
  8
CURVASTG
  6
CONTINUO
 62
    54
100
AcDbVertex
100
AcDb3dPolylineVertex
 10
176829.903604
 20
1676213.002754
 30
4.5
 70
    32
  0
VERTEX
  5
445
100
AcDbEntity
  8
CURVASTG
  6
CONTINUO
 62
    54
100
AcDbVertex
100
AcDb3dPolylineVertex
 10
176831.317349
 20
1676223.027054
 30
4.5
 70
    32
  0
VERTEX
  5
446
100
AcDbEntity
  8
CURVASTG
  6
CONTINUO
 62
    54
100
AcDbVertex
100
AcDb3dPolylineVertex
 10
176832.312792
 20
1676232.147242
 30
4.5
 70
    32
  0
VERTEX
  5
447
100
AcDbEntity
  8
CURVASTG
  6
CONTINUO
 62
    54
100
AcDbVertex
100
AcDb3dPolylineVertex
 10
176832.538863
 20
1676238.611834
 30
4.5
 70
    32
  0
VERTEX
  5
448
100
AcDbEntity
  8
CURVASTG
  6
CONTINUO
 62
    54
100
AcDbVertex
100
AcDb3dPolylineVertex
 10
176832.153761
 20
1676242.757916
 30
4.5
 70
    32
  0
VERTEX
  5
449
100
AcDbEntity
  8
CURVASTG
  6
CONTINUO
 62
    54
100
AcDbVertex
100
AcDb3dPolylineVertex
 10
176831.443002
 20
1676245.444713
 30
4.5
 70
    32
  0
VERTEX
  5
44A
100
AcDbEntity
  8
CURVASTG
  6
CONTINUO
 62
    54
100
AcDbVertex
100
AcDb3dPolylineVertex
 10
176830.552775
 20
1676247.434977
 30
4.5
 70
    32
  0
VERTEX
  5
44B
100
AcDbEntity
  8
CURVASTG
  6
CONTINUO
 62
    54
100
AcDbVertex
100
AcDb3dPolylineVertex
 10
176829.07195
 20
1676249.105565
 30
4.5
 70
    32
  0
VERTEX
  5
44C
100
AcDbEntity
  8
CURVASTG
  6
CONTINUO
 62
    54
100
AcDbVertex
100
AcDb3dPolylineVertex
 10
176826.450072
 20
1676250.736858
 30
4.5
 70
    32
  0
VERTEX
  5
44D
100
AcDbEntity
  8
CURVASTG
  6
CONTINUO
 62
    54
100
AcDbVertex
100
AcDb3dPolylineVertex
 10
176821.873176
 20
1676252.705228
 30
4.5
 70
    32
  0
VERTEX
  5
44E
100
AcDbEntity
  8
CURVASTG
  6
CONTINUO
 62
    54
100
AcDbVertex
100
AcDb3dPolylineVertex
 10
176813.473267
 20
1676255.771003
 30
4.5
 70
    32
  0
VERTEX
  5
44F
100
AcDbEntity
  8
CURVASTG
  6
CONTINUO
 62
    54
100
AcDbVertex
100
AcDb3dPolylineVertex
 10
176799.118842
 20
1676260.790501
 30
4.5
 70
    32
  0
VERTEX
  5
450
100
AcDbEntity
  8
CURVASTG
  6
CONTINUO
 62
    54
100
AcDbVertex
100
AcDb3dPolylineVertex
 10
176778.017655
 20
1676268.138304
 30
4.5
 70
    32
  0
VERTEX
  5
451
100
AcDbEntity
  8
CURVASTG
  6
CONTINUO
 62
    54
100
AcDbVertex
100
AcDb3dPolylineVertex
 10
176754.734489
 20
1676276.262044
 30
4.5
 70
    32
  0
VERTEX
  5
452
100
AcDbEntity
  8
CURVASTG
  6
CONTINUO
 62
    54
100
AcDbVertex
100
AcDb3dPolylineVertex
 10
176735.173384
 20
1676283.127617
 30
4.5
 70
    32
  0
VERTEX
  5
453
100
AcDbEntity
  8
CURVASTG
  6
CONTINUO
 62
    54
100
AcDbVertex
100
AcDb3dPolylineVertex
 10
176723.7138
 20
1676287.229018
 30
4.5
 70
    32
  0
VERTEX
  5
454
100
AcDbEntity
  8
CURVASTG
  6
CONTINUO
 62
    54
100
AcDbVertex
100
AcDb3dPolylineVertex
 10
176718.636871
 20
1676289.172656
 30
4.5
 70
    32
  0
VERTEX
  5
455
100
AcDbEntity
  8
CURVASTG
  6
CONTINUO
 62
    54
100
AcDbVertex
100
AcDb3dPolylineVertex
 10
176716.699152
 20
1676290.093037
 30
4.5
 70
    32
  0
VERTEX
  5
456
100
AcDbEntity
  8
CURVASTG
  6
CONTINUO
 62
    54
100
AcDbVertex
100
AcDb3dPolylineVertex
 10
176715.233295
 20
1676290.911743
 30
4.5
 70
    32
  0
VERTEX
  5
457
100
AcDbEntity
  8
CURVASTG
  6
CONTINUO
 62
    54
100
AcDbVertex
100
AcDb3dPolylineVertex
 10
176713.876348
 20
1676291.69864
 30
4.5
 70
    32
  0
VERTEX
  5
458
100
AcDbEntity
  8
CURVASTG
  6
CONTINUO
 62
    54
100
AcDbVertex
100
AcDb3dPolylineVertex
 10
176712.84146
 20
1676292.310665
 30
4.5
 70
    32
  0
VERTEX
  5
459
100
AcDbEntity
  8
CURVASTG
  6
CONTINUO
 62
    54
100
AcDbVertex
100
AcDb3dPolylineVertex
 10
176712.27652
 20
1676292.646262
 30
4.5
 70
    32
  0
VERTEX
  5
45A
100
AcDbEntity
  8
CURVASTG
  6
CONTINUO
 62
    54
100
AcDbVertex
100
AcDb3dPolylineVertex
 10
176712.068384
 20
1676292.769903
 30
4.5
 70
    32
  0
VERTEX
  5
45B
100
AcDbEntity
  8
CURVASTG
  6
CONTINUO
 62
    54
100
AcDbVertex
100
AcDb3dPolylineVertex
 10
176712.03865
 20
1676292.787566
 30
4.5
 70
    32
  0
SEQEND
  5
45C
100
AcDbEntity
  8
CURVASTG
  6
CONTINUO
 62
    54
  0
POLYLINE
  5
45D
100
AcDbEntity
  8
CURVASTG
  6
CONTINUO
 62
    54
100
AcDb3dPolyline
 66
     1
 10
0.0
 20
0.0
 30
4.5
 70
     9
  0
VERTEX
  5
45E
100
AcDbEntity
  8
CURVASTG
  6
CONTINUO
 62
    54
100
AcDbVertex
100
AcDb3dPolylineVertex
 10
176746.600925
 20
1676202.882691
 30
4.5
 70
    32
  0
VERTEX
  5
45F
100
AcDbEntity
  8
CURVASTG
  6
CONTINUO
 62
    54
100
AcDbVertex
100
AcDb3dPolylineVertex
 10
176747.441616
 20
1676203.658982
 30
4.5
 70
    32
  0
VERTEX
  5
460
100
AcDbEntity
  8
CURVASTG
  6
CONTINUO
 62
    54
100
AcDbVertex
100
AcDb3dPolylineVertex
 10
176747.785409
 20
1676204.413439
 30
4.5
 70
    32
  0
VERTEX
  5
461
100
AcDbEntity
  8
CURVASTG
  6
CONTINUO
 62
    54
100
AcDbVertex
100
AcDb3dPolylineVertex
 10
176747.650852
 20
1676205.559537
 30
4.5
 70
    32
  0
VERTEX
  5
462
100
AcDbEntity
  8
CURVASTG
  6
CONTINUO
 62
    54
100
AcDbVertex
100
AcDb3dPolylineVertex
 10
176746.847948
 20
1676207.130271
 30
4.5
 70
    32
  0
VERTEX
  5
463
100
AcDbEntity
  8
CURVASTG
  6
CONTINUO
 62
    54
100
AcDbVertex
100
AcDb3dPolylineVertex
 10
176745.898857
 20
1676208.942652
 30
4.5
 70
    32
  0
VERTEX
  5
464
100
AcDbEntity
  8
CURVASTG
  6
CONTINUO
 62
    54
100
AcDbVertex
100
AcDb3dPolylineVertex
 10
176745.503779
 20
1676210.759689
 30
4.5
 70
    32
  0
VERTEX
  5
465
100
AcDbEntity
  8
CURVASTG
  6
CONTINUO
 62
    54
100
AcDbVertex
100
AcDb3dPolylineVertex
 10
176746.204596
 20
1676212.357192
 30
4.5
 70
    32
  0
VERTEX
  5
466
100
AcDbEntity
  8
CURVASTG
  6
CONTINUO
 62
    54
100
AcDbVertex
100
AcDb3dPolylineVertex
 10
176747.909915
 20
1676213.562149
 30
4.5
 70
    32
  0
VERTEX
  5
467
100
AcDbEntity
  8
CURVASTG
  6
CONTINUO
 62
    54
100
AcDbVertex
100
AcDb3dPolylineVertex
 10
176750.370023
 20
1676214.214345
 30
4.5
 70
    32
  0
VERTEX
  5
468
100
AcDbEntity
  8
CURVASTG
  6
CONTINUO
 62
    54
100
AcDbVertex
100
AcDb3dPolylineVertex
 10
176753.317415
 20
1676214.257218
 30
4.5
 70
    32
  0
VERTEX
  5
469
100
AcDbEntity
  8
CURVASTG
  6
CONTINUO
 62
    54
100
AcDbVertex
100
AcDb3dPolylineVertex
 10
176756.413396
 20
1676214.048816
 30
4.5
 70
    32
  0
VERTEX
  5
46A
100
AcDbEntity
  8
CURVASTG
  6
CONTINUO
 62
    54
100
AcDbVertex
100
AcDb3dPolylineVertex
 10
176759.301477
 20
1676214.050836
 30
4.5
 70
    32
  0
VERTEX
  5
46B
100
AcDbEntity
  8
CURVASTG
  6
CONTINUO
 62
    54
100
AcDbVertex
100
AcDb3dPolylineVertex
 10
176761.739028
 20
1676214.535966
 30
4.5
 70
    32
  0
VERTEX
  5
46C
100
AcDbEntity
  8
CURVASTG
  6
CONTINUO
 62
    54
100
AcDbVertex
100
AcDb3dPolylineVertex
 10
176763.938847
 20
1676215.020842
 30
4.5
 70
    32
  0
VERTEX
  5
46D
100
AcDbEntity
  8
CURVASTG
  6
CONTINUO
 62
    54
100
AcDbVertex
100
AcDb3dPolylineVertex
 10
176766.227591
 20
1676214.833089
 30
4.5
 70
    32
  0
VERTEX
  5
46E
100
AcDbEntity
  8
CURVASTG
  6
CONTINUO
 62
    54
100
AcDbVertex
100
AcDb3dPolylineVertex
 10
176768.784723
 20
1676213.432137
 30
4.5
 70
    32
  0
VERTEX
  5
46F
100
AcDbEntity
  8
CURVASTG
  6
CONTINUO
 62
    54
100
AcDbVertex
100
AcDb3dPolylineVertex
 10
176771.200933
 20
1676210.804646
 30
4.5
 70
    32
  0
VERTEX
  5
470
100
AcDbEntity
  8
CURVASTG
  6
CONTINUO
 62
    54
100
AcDbVertex
100
AcDb3dPolylineVertex
 10
176772.919716
 20
1676207.069084
 30
4.5
 70
    32
  0
VERTEX
  5
471
100
AcDbEntity
  8
CURVASTG
  6
CONTINUO
 62
    54
100
AcDbVertex
100
AcDb3dPolylineVertex
 10
176773.432605
 20
1676202.466043
 30
4.5
 70
    32
  0
VERTEX
  5
472
100
AcDbEntity
  8
CURVASTG
  6
CONTINUO
 62
    54
100
AcDbVertex
100
AcDb3dPolylineVertex
 10
176772.42328
 20
1676197.724627
 30
4.5
 70
    32
  0
VERTEX
  5
473
100
AcDbEntity
  8
CURVASTG
  6
CONTINUO
 62
    54
100
AcDbVertex
100
AcDb3dPolylineVertex
 10
176769.623456
 20
1676193.696067
 30
4.5
 70
    32
  0
VERTEX
  5
474
100
AcDbEntity
  8
CURVASTG
  6
CONTINUO
 62
    54
100
AcDbVertex
100
AcDb3dPolylineVertex
 10
176764.980022
 20
1676191.090408
 30
4.5
 70
    32
  0
VERTEX
  5
475
100
AcDbEntity
  8
CURVASTG
  6
CONTINUO
 62
    54
100
AcDbVertex
100
AcDb3dPolylineVertex
 10
176759.300546
 20
1676190.052958
 30
4.5
 70
    32
  0
VERTEX
  5
476
100
AcDbEntity
  8
CURVASTG
  6
CONTINUO
 62
    54
100
AcDbVertex
100
AcDb3dPolylineVertex
 10
176753.607765
 20
1676190.587841
 30
4.5
 70
    32
  0
VERTEX
  5
477
100
AcDbEntity
  8
CURVASTG
  6
CONTINUO
 62
    54
100
AcDbVertex
100
AcDb3dPolylineVertex
 10
176748.806362
 20
1676192.564843
 30
4.5
 70
    32
  0
VERTEX
  5
478
100
AcDbEntity
  8
CURVASTG
  6
CONTINUO
 62
    54
100
AcDbVertex
100
AcDb3dPolylineVertex
 10
176745.328786
 20
1676195.316404
 30
4.5
 70
    32
  0
VERTEX
  5
479
100
AcDbEntity
  8
CURVASTG
  6
CONTINUO
 62
    54
100
AcDbVertex
100
AcDb3dPolylineVertex
 10
176743.48943
 20
1676198.040627
 30
4.5
 70
    32
  0
VERTEX
  5
47A
100
AcDbEntity
  8
CURVASTG
  6
CONTINUO
 62
    54
100
AcDbVertex
100
AcDb3dPolylineVertex
 10
176743.404523
 20
1676200.093123
 30
4.5
 70
    32
  0
VERTEX
  5
47B
100
AcDbEntity
  8
CURVASTG
  6
CONTINUO
 62
    54
100
AcDbVertex
100
AcDb3dPolylineVertex
 10
176744.39764
 20
1676201.459529
 30
4.5
 70
    32
  0
VERTEX
  5
47C
100
AcDbEntity
  8
CURVASTG
  6
CONTINUO
 62
    54
100
AcDbVertex
100
AcDb3dPolylineVertex
 10
176745.594189
 20
1676202.282989
 30
4.5
 70
    32
  0
VERTEX
  5
47D
100
AcDbEntity
  8
CURVASTG
  6
CONTINUO
 62
    54
100
AcDbVertex
100
AcDb3dPolylineVertex
 10
176746.302633
 20
1676202.705001
 30
4.5
 70
    32
  0
VERTEX
  5
47E
100
AcDbEntity
  8
CURVASTG
  6
CONTINUO
 62
    54
100
AcDbVertex
100
AcDb3dPolylineVertex
 10
176746.563639
 20
1676202.86048
 30
4.5
 70
    32
  0
VERTEX
  5
47F
100
AcDbEntity
  8
CURVASTG
  6
CONTINUO
 62
    54
100
AcDbVertex
100
AcDb3dPolylineVertex
 10
176746.600925
 20
1676202.882691
 30
4.5
 70
    32
  0
SEQEND
  5
480
100
AcDbEntity
  8
CURVASTG
  6
CONTINUO
 62
    54
  0
POLYLINE
  5
481
100
AcDbEntity
  8
CURVASTG
  6
CONTINUO
 62
    54
100
AcDb3dPolyline
 66
     1
 10
0.0
 20
0.0
 30
4.5
 70
     9
  0
VERTEX
  5
482
100
AcDbEntity
  8
CURVASTG
  6
CONTINUO
 62
    54
100
AcDbVertex
100
AcDb3dPolylineVertex
 10
176796.758837
 20
1676195.485026
 30
4.5
 70
    32
  0
VERTEX
  5
483
100
AcDbEntity
  8
CURVASTG
  6
CONTINUO
 62
    54
100
AcDbVertex
100
AcDb3dPolylineVertex
 10
176798.291722
 20
1676195.4143
 30
4.5
 70
    32
  0
VERTEX
  5
484
100
AcDbEntity
  8
CURVASTG
  6
CONTINUO
 62
    54
100
AcDbVertex
100
AcDb3dPolylineVertex
 10
176799.242179
 20
1676195.256527
 30
4.5
 70
    32
  0
VERTEX
  5
485
100
AcDbEntity
  8
CURVASTG
  6
CONTINUO
 62
    54
100
AcDbVertex
100
AcDb3dPolylineVertex
 10
176799.937525
 20
1676194.893283
 30
4.5
 70
    32
  0
VERTEX
  5
486
100
AcDbEntity
  8
CURVASTG
  6
CONTINUO
 62
    54
100
AcDbVertex
100
AcDb3dPolylineVertex
 10
176800.115961
 20
1676194.275556
 30
4.5
 70
    32
  0
VERTEX
  5
487
100
AcDbEntity
  8
CURVASTG
  6
CONTINUO
 62
    54
100
AcDbVertex
100
AcDb3dPolylineVertex
 10
176799.88847
 20
1676193.537865
 30
4.5
 70
    32
  0
VERTEX
  5
488
100
AcDbEntity
  8
CURVASTG
  6
CONTINUO
 62
    54
100
AcDbVertex
100
AcDb3dPolylineVertex
 10
176799.459228
 20
1676192.860609
 30
4.5
 70
    32
  0
VERTEX
  5
489
100
AcDbEntity
  8
CURVASTG
  6
CONTINUO
 62
    54
100
AcDbVertex
100
AcDb3dPolylineVertex
 10
176798.973856
 20
1676192.383457
 30
4.5
 70
    32
  0
VERTEX
  5
48A
100
AcDbEntity
  8
CURVASTG
  6
CONTINUO
 62
    54
100
AcDbVertex
100
AcDb3dPolylineVertex
 10
176798.343761
 20
1676192.08317
 30
4.5
 70
    32
  0
VERTEX
  5
48B
100
AcDbEntity
  8
CURVASTG
  6
CONTINUO
 62
    54
100
AcDbVertex
100
AcDb3dPolylineVertex
 10
176797.421798
 20
1676191.895779
 30
4.5
 70
    32
  0
VERTEX
  5
48C
100
AcDbEntity
  8
CURVASTG
  6
CONTINUO
 62
    54
100
AcDbVertex
100
AcDb3dPolylineVertex
 10
176796.167335
 20
1676191.79079
 30
4.5
 70
    32
  0
VERTEX
  5
48D
100
AcDbEntity
  8
CURVASTG
  6
CONTINUO
 62
    54
100
AcDbVertex
100
AcDb3dPolylineVertex
 10
176794.9658
 20
1676191.8716
 30
4.5
 70
    32
  0
VERTEX
  5
48E
100
AcDbEntity
  8
CURVASTG
  6
CONTINUO
 62
    54
100
AcDbVertex
100
AcDb3dPolylineVertex
 10
176794.309136
 20
1676192.27508
 30
4.5
 70
    32
  0
VERTEX
  5
48F
100
AcDbEntity
  8
CURVASTG
  6
CONTINUO
 62
    54
100
AcDbVertex
100
AcDb3dPolylineVertex
 10
176794.524973
 20
1676193.065691
 30
4.5
 70
    32
  0
VERTEX
  5
490
100
AcDbEntity
  8
CURVASTG
  6
CONTINUO
 62
    54
100
AcDbVertex
100
AcDb3dPolylineVertex
 10
176795.28369
 20
1676194.018247
 30
4.5
 70
    32
  0
VERTEX
  5
491
100
AcDbEntity
  8
CURVASTG
  6
CONTINUO
 62
    54
100
AcDbVertex
100
AcDb3dPolylineVertex
 10
176796.09135
 20
1676194.835149
 30
4.5
 70
    32
  0
VERTEX
  5
492
100
AcDbEntity
  8
CURVASTG
  6
CONTINUO
 62
    54
100
AcDbVertex
100
AcDb3dPolylineVertex
 10
176796.561063
 20
1676195.29247
 30
4.5
 70
    32
  0
VERTEX
  5
493
100
AcDbEntity
  8
CURVASTG
  6
CONTINUO
 62
    54
100
AcDbVertex
100
AcDb3dPolylineVertex
 10
176796.734115
 20
1676195.460956
 30
4.5
 70
    32
  0
VERTEX
  5
494
100
AcDbEntity
  8
CURVASTG
  6
CONTINUO
 62
    54
100
AcDbVertex
100
AcDb3dPolylineVertex
 10
176796.758837
 20
1676195.485026
 30
4.5
 70
    32
  0
SEQEND
  5
495
100
AcDbEntity
  8
CURVASTG
  6
CONTINUO
 62
    54
  0
POLYLINE
  5
496
100
AcDbEntity
  8
CURVASTG
  6
CONTINUO
 62
    54
100
AcDb3dPolyline
 66
     1
 10
0.0
 20
0.0
 30
4.0
 70
     8
  0
VERTEX
  5
497
100
AcDbEntity
  8
CURVASTG
  6
CONTINUO
 62
    54
100
AcDbVertex
100
AcDb3dPolylineVertex
 10
176702.471756
 20
1676138.085098
 30
4.0
 70
    32
  0
VERTEX
  5
498
100
AcDbEntity
  8
CURVASTG
  6
CONTINUO
 62
    54
100
AcDbVertex
100
AcDb3dPolylineVertex
 10
176702.52397
 20
1676137.923735
 30
4.0
 70
    32
  0
VERTEX
  5
499
100
AcDbEntity
  8
CURVASTG
  6
CONTINUO
 62
    54
100
AcDbVertex
100
AcDb3dPolylineVertex
 10
176702.567967
 20
1676137.805738
 30
4.0
 70
    32
  0
VERTEX
  5
49A
100
AcDbEntity
  8
CURVASTG
  6
CONTINUO
 62
    54
100
AcDbVertex
100
AcDb3dPolylineVertex
 10
176702.625435
 20
1676137.680375
 30
4.0
 70
    32
  0
VERTEX
  5
49B
100
AcDbEntity
  8
CURVASTG
  6
CONTINUO
 62
    54
100
AcDbVertex
100
AcDb3dPolylineVertex
 10
176702.696166
 20
1676137.562316
 30
4.0
 70
    32
  0
VERTEX
  5
49C
100
AcDbEntity
  8
CURVASTG
  6
CONTINUO
 62
    54
100
AcDbVertex
100
AcDb3dPolylineVertex
 10
176702.782072
 20
1676137.445535
 30
4.0
 70
    32
  0
VERTEX
  5
49D
100
AcDbEntity
  8
CURVASTG
  6
CONTINUO
 62
    54
100
AcDbVertex
100
AcDb3dPolylineVertex
 10
176702.885599
 20
1676137.318836
 30
4.0
 70
    32
  0
VERTEX
  5
49E
100
AcDbEntity
  8
CURVASTG
  6
CONTINUO
 62
    54
100
AcDbVertex
100
AcDb3dPolylineVertex
 10
176703.116806
 20
1676137.231736
 30
4.0
 70
    32
  0
VERTEX
  5
49F
100
AcDbEntity
  8
CURVASTG
  6
CONTINUO
 62
    54
100
AcDbVertex
100
AcDb3dPolylineVertex
 10
176704.016219
 20
1676137.476613
 30
4.0
 70
    32
  0
VERTEX
  5
4A0
100
AcDbEntity
  8
CURVASTG
  6
CONTINUO
 62
    54
100
AcDbVertex
100
AcDb3dPolylineVertex
 10
176706.231983
 20
1676138.406558
 30
4.0
 70
    32
  0
VERTEX
  5
4A1
100
AcDbEntity
  8
CURVASTG
  6
CONTINUO
 62
    54
100
AcDbVertex
100
AcDb3dPolylineVertex
 10
176710.083644
 20
1676140.20357
 30
4.0
 70
    32
  0
VERTEX
  5
4A2
100
AcDbEntity
  8
CURVASTG
  6
CONTINUO
 62
    54
100
AcDbVertex
100
AcDb3dPolylineVertex
 10
176714.576375
 20
1676142.365272
 30
4.0
 70
    32
  0
VERTEX
  5
4A3
100
AcDbEntity
  8
CURVASTG
  6
CONTINUO
 62
    54
100
AcDbVertex
100
AcDb3dPolylineVertex
 10
176718.386753
 20
1676144.218197
 30
4.0
 70
    32
  0
VERTEX
  5
4A4
100
AcDbEntity
  8
CURVASTG
  6
CONTINUO
 62
    54
100
AcDbVertex
100
AcDb3dPolylineVertex
 10
176720.526478
 20
1676145.256068
 30
4.0
 70
    32
  0
VERTEX
  5
4A5
100
AcDbEntity
  8
CURVASTG
  6
CONTINUO
 62
    54
100
AcDbVertex
100
AcDb3dPolylineVertex
 10
176721.347736
 20
1676145.641375
 30
4.0
 70
    32
  0
VERTEX
  5
4A6
100
AcDbEntity
  8
CURVASTG
  6
CONTINUO
 62
    54
100
AcDbVertex
100
AcDb3dPolylineVertex
 10
176721.537833
 20
1676145.703802
 30
4.0
 70
    32
  0
VERTEX
  5
4A7
100
AcDbEntity
  8
CURVASTG
  6
CONTINUO
 62
    54
100
AcDbVertex
100
AcDb3dPolylineVertex
 10
176721.707482
 20
1676145.718834
 30
4.0
 70
    32
  0
VERTEX
  5
4A8
100
AcDbEntity
  8
CURVASTG
  6
CONTINUO
 62
    54
100
AcDbVertex
100
AcDb3dPolylineVertex
 10
176722.161015
 20
1676145.745181
 30
4.0
 70
    32
  0
VERTEX
  5
4A9
100
AcDbEntity
  8
CURVASTG
  6
CONTINUO
 62
    54
100
AcDbVertex
100
AcDb3dPolylineVertex
 10
176723.126171
 20
1676145.787355
 30
4.0
 70
    32
  0
VERTEX
  5
4AA
100
AcDbEntity
  8
CURVASTG
  6
CONTINUO
 62
    54
100
AcDbVertex
100
AcDb3dPolylineVertex
 10
176724.710012
 20
1676145.842102
 30
4.0
 70
    32
  0
VERTEX
  5
4AB
100
AcDbEntity
  8
CURVASTG
  6
CONTINUO
 62
    54
100
AcDbVertex
100
AcDb3dPolylineVertex
 10
176726.536894
 20
1676145.875107
 30
4.0
 70
    32
  0
VERTEX
  5
4AC
100
AcDbEntity
  8
CURVASTG
  6
CONTINUO
 62
    54
100
AcDbVertex
100
AcDb3dPolylineVertex
 10
176728.110497
 20
1676145.844289
 30
4.0
 70
    32
  0
VERTEX
  5
4AD
100
AcDbEntity
  8
CURVASTG
  6
CONTINUO
 62
    54
100
AcDbVertex
100
AcDb3dPolylineVertex
 10
176729.150939
 20
1676145.755349
 30
4.0
 70
    32
  0
VERTEX
  5
4AE
100
AcDbEntity
  8
CURVASTG
  6
CONTINUO
 62
    54
100
AcDbVertex
100
AcDb3dPolylineVertex
 10
176730.244079
 20
1676145.805123
 30
4.0
 70
    32
  0
VERTEX
  5
4AF
100
AcDbEntity
  8
CURVASTG
  6
CONTINUO
 62
    54
100
AcDbVertex
100
AcDb3dPolylineVertex
 10
176732.192216
 20
1676146.238233
 30
4.0
 70
    32
  0
VERTEX
  5
4B0
100
AcDbEntity
  8
CURVASTG
  6
CONTINUO
 62
    54
100
AcDbVertex
100
AcDb3dPolylineVertex
 10
176735.470607
 20
1676147.224284
 30
4.0
 70
    32
  0
VERTEX
  5
4B1
100
AcDbEntity
  8
CURVASTG
  6
CONTINUO
 62
    54
100
AcDbVertex
100
AcDb3dPolylineVertex
 10
176739.246341
 20
1676148.632821
 30
4.0
 70
    32
  0
VERTEX
  5
4B2
100
AcDbEntity
  8
CURVASTG
  6
CONTINUO
 62
    54
100
AcDbVertex
100
AcDb3dPolylineVertex
 10
176742.359468
 20
1676150.258373
 30
4.0
 70
    32
  0
VERTEX
  5
4B3
100
AcDbEntity
  8
CURVASTG
  6
CONTINUO
 62
    54
100
AcDbVertex
100
AcDb3dPolylineVertex
 10
176743.955456
 20
1676151.910161
 30
4.0
 70
    32
  0
VERTEX
  5
4B4
100
AcDbEntity
  8
CURVASTG
  6
CONTINUO
 62
    54
100
AcDbVertex
100
AcDb3dPolylineVertex
 10
176744.401444
 20
1676153.456167
 30
4.0
 70
    32
  0
VERTEX
  5
4B5
100
AcDbEntity
  8
CURVASTG
  6
CONTINUO
 62
    54
100
AcDbVertex
100
AcDb3dPolylineVertex
 10
176744.369992
 20
1676154.779064
 30
4.0
 70
    32
  0
VERTEX
  5
4B6
100
AcDbEntity
  8
CURVASTG
  6
CONTINUO
 62
    54
100
AcDbVertex
100
AcDb3dPolylineVertex
 10
176744.399193
 20
1676155.786728
 30
4.0
 70
    32
  0
VERTEX
  5
4B7
100
AcDbEntity
  8
CURVASTG
  6
CONTINUO
 62
    54
100
AcDbVertex
100
AcDb3dPolylineVertex
 10
176744.489282
 20
1676156.487849
 30
4.0
 70
    32
  0
VERTEX
  5
4B8
100
AcDbEntity
  8
CURVASTG
  6
CONTINUO
 62
    54
100
AcDbVertex
100
AcDb3dPolylineVertex
 10
176744.506027
 20
1676156.916323
 30
4.0
 70
    32
  0
VERTEX
  5
4B9
100
AcDbEntity
  8
CURVASTG
  6
CONTINUO
 62
    54
100
AcDbVertex
100
AcDb3dPolylineVertex
 10
176744.349154
 20
1676157.146934
 30
4.0
 70
    32
  0
VERTEX
  5
4BA
100
AcDbEntity
  8
CURVASTG
  6
CONTINUO
 62
    54
100
AcDbVertex
100
AcDb3dPolylineVertex
 10
176744.054215
 20
1676157.418034
 30
4.0
 70
    32
  0
VERTEX
  5
4BB
100
AcDbEntity
  8
CURVASTG
  6
CONTINUO
 62
    54
100
AcDbVertex
100
AcDb3dPolylineVertex
 10
176743.690717
 20
1676158.008867
 30
4.0
 70
    32
  0
VERTEX
  5
4BC
100
AcDbEntity
  8
CURVASTG
  6
CONTINUO
 62
    54
100
AcDbVertex
100
AcDb3dPolylineVertex
 10
176743.30988
 20
1676159.094775
 30
4.0
 70
    32
  0
VERTEX
  5
4BD
100
AcDbEntity
  8
CURVASTG
  6
CONTINUO
 62
    54
100
AcDbVertex
100
AcDb3dPolylineVertex
 10
176742.889772
 20
1676160.435505
 30
4.0
 70
    32
  0
VERTEX
  5
4BE
100
AcDbEntity
  8
CURVASTG
  6
CONTINUO
 62
    54
100
AcDbVertex
100
AcDb3dPolylineVertex
 10
176742.39017
 20
1676161.6869
 30
4.0
 70
    32
  0
VERTEX
  5
4BF
100
AcDbEntity
  8
CURVASTG
  6
CONTINUO
 62
    54
100
AcDbVertex
100
AcDb3dPolylineVertex
 10
176741.835723
 20
1676162.657371
 30
4.0
 70
    32
  0
VERTEX
  5
4C0
100
AcDbEntity
  8
CURVASTG
  6
CONTINUO
 62
    54
100
AcDbVertex
100
AcDb3dPolylineVertex
 10
176741.510544
 20
1676163.765579
 30
4.0
 70
    32
  0
VERTEX
  5
4C1
100
AcDbEntity
  8
CURVASTG
  6
CONTINUO
 62
    54
100
AcDbVertex
100
AcDb3dPolylineVertex
 10
176741.763617
 20
1676165.582754
 30
4.0
 70
    32
  0
VERTEX
  5
4C2
100
AcDbEntity
  8
CURVASTG
  6
CONTINUO
 62
    54
100
AcDbVertex
100
AcDb3dPolylineVertex
 10
176742.701949
 20
1676168.504767
 30
4.0
 70
    32
  0
VERTEX
  5
4C3
100
AcDbEntity
  8
CURVASTG
  6
CONTINUO
 62
    54
100
AcDbVertex
100
AcDb3dPolylineVertex
 10
176743.464659
 20
1676172.226073
 30
4.0
 70
    32
  0
VERTEX
  5
4C4
100
AcDbEntity
  8
CURVASTG
  6
CONTINUO
 62
    54
100
AcDbVertex
100
AcDb3dPolylineVertex
 10
176742.948891
 20
1676176.265775
 30
4.0
 70
    32
  0
VERTEX
  5
4C5
100
AcDbEntity
  8
CURVASTG
  6
CONTINUO
 62
    54
100
AcDbVertex
100
AcDb3dPolylineVertex
 10
176740.446477
 20
1676180.164412
 30
4.0
 70
    32
  0
VERTEX
  5
4C6
100
AcDbEntity
  8
CURVASTG
  6
CONTINUO
 62
    54
100
AcDbVertex
100
AcDb3dPolylineVertex
 10
176736.828005
 20
1676183.548281
 30
4.0
 70
    32
  0
VERTEX
  5
4C7
100
AcDbEntity
  8
CURVASTG
  6
CONTINUO
 62
    54
100
AcDbVertex
100
AcDb3dPolylineVertex
 10
176733.35875
 20
1676186.065118
 30
4.0
 70
    32
  0
VERTEX
  5
4C8
100
AcDbEntity
  8
CURVASTG
  6
CONTINUO
 62
    54
100
AcDbVertex
100
AcDb3dPolylineVertex
 10
176731.030473
 20
1676187.508127
 30
4.0
 70
    32
  0
VERTEX
  5
4C9
100
AcDbEntity
  8
CURVASTG
  6
CONTINUO
 62
    54
100
AcDbVertex
100
AcDb3dPolylineVertex
 10
176729.740883
 20
1676188.252391
 30
4.0
 70
    32
  0
VERTEX
  5
4CA
100
AcDbEntity
  8
CURVASTG
  6
CONTINUO
 62
    54
100
AcDbVertex
100
AcDb3dPolylineVertex
 10
176729.114176
 20
1676188.818461
 30
4.0
 70
    32
  0
VERTEX
  5
4CB
100
AcDbEntity
  8
CURVASTG
  6
CONTINUO
 62
    54
100
AcDbVertex
100
AcDb3dPolylineVertex
 10
176728.821794
 20
1676189.605693
 30
4.0
 70
    32
  0
VERTEX
  5
4CC
100
AcDbEntity
  8
CURVASTG
  6
CONTINUO
 62
    54
100
AcDbVertex
100
AcDb3dPolylineVertex
 10
176728.724182
 20
1676190.528679
 30
4.0
 70
    32
  0
VERTEX
  5
4CD
100
AcDbEntity
  8
CURVASTG
  6
CONTINUO
 62
    54
100
AcDbVertex
100
AcDb3dPolylineVertex
 10
176728.729035
 20
1676191.380816
 30
4.0
 70
    32
  0
VERTEX
  5
4CE
100
AcDbEntity
  8
CURVASTG
  6
CONTINUO
 62
    54
100
AcDbVertex
100
AcDb3dPolylineVertex
 10
176728.732865
 20
1676192.081659
 30
4.0
 70
    32
  0
VERTEX
  5
4CF
100
AcDbEntity
  8
CURVASTG
  6
CONTINUO
 62
    54
100
AcDbVertex
100
AcDb3dPolylineVertex
 10
176728.587471
 20
1676193.055394
 30
4.0
 70
    32
  0
VERTEX
  5
4D0
100
AcDbEntity
  8
CURVASTG
  6
CONTINUO
 62
    54
100
AcDbVertex
100
AcDb3dPolylineVertex
 10
176728.133471
 20
1676194.852364
 30
4.0
 70
    32
  0
VERTEX
  5
4D1
100
AcDbEntity
  8
CURVASTG
  6
CONTINUO
 62
    54
100
AcDbVertex
100
AcDb3dPolylineVertex
 10
176727.24326
 20
1676197.753773
 30
4.0
 70
    32
  0
VERTEX
  5
4D2
100
AcDbEntity
  8
CURVASTG
  6
CONTINUO
 62
    54
100
AcDbVertex
100
AcDb3dPolylineVertex
 10
176725.916343
 20
1676200.964275
 30
4.0
 70
    32
  0
VERTEX
  5
4D3
100
AcDbEntity
  8
CURVASTG
  6
CONTINUO
 62
    54
100
AcDbVertex
100
AcDb3dPolylineVertex
 10
176724.184
 20
1676203.419381
 30
4.0
 70
    32
  0
VERTEX
  5
4D4
100
AcDbEntity
  8
CURVASTG
  6
CONTINUO
 62
    54
100
AcDbVertex
100
AcDb3dPolylineVertex
 10
176722.165998
 20
1676204.418994
 30
4.0
 70
    32
  0
VERTEX
  5
4D5
100
AcDbEntity
  8
CURVASTG
  6
CONTINUO
 62
    54
100
AcDbVertex
100
AcDb3dPolylineVertex
 10
176720.336041
 20
1676204.720577
 30
4.0
 70
    32
  0
VERTEX
  5
4D6
100
AcDbEntity
  8
CURVASTG
  6
CONTINUO
 62
    54
100
AcDbVertex
100
AcDb3dPolylineVertex
 10
176719.256318
 20
1676205.445981
 30
4.0
 70
    32
  0
VERTEX
  5
4D7
100
AcDbEntity
  8
CURVASTG
  6
CONTINUO
 62
    54
100
AcDbVertex
100
AcDb3dPolylineVertex
 10
176719.281499
 20
1676207.379415
 30
4.0
 70
    32
  0
VERTEX
  5
4D8
100
AcDbEntity
  8
CURVASTG
  6
CONTINUO
 62
    54
100
AcDbVertex
100
AcDb3dPolylineVertex
 10
176719.936169
 20
1676209.954518
 30
4.0
 70
    32
  0
VERTEX
  5
4D9
100
AcDbEntity
  8
CURVASTG
  6
CONTINUO
 62
    54
100
AcDbVertex
100
AcDb3dPolylineVertex
 10
176720.537396
 20
1676212.26729
 30
4.0
 70
    32
  0
VERTEX
  5
4DA
100
AcDbEntity
  8
CURVASTG
  6
CONTINUO
 62
    54
100
AcDbVertex
100
AcDb3dPolylineVertex
 10
176720.468646
 20
1676213.620634
 30
4.0
 70
    32
  0
VERTEX
  5
4DB
100
AcDbEntity
  8
CURVASTG
  6
CONTINUO
 62
    54
100
AcDbVertex
100
AcDb3dPolylineVertex
 10
176719.378988
 20
1676214.145087
 30
4.0
 70
    32
  0
VERTEX
  5
4DC
100
AcDbEntity
  8
CURVASTG
  6
CONTINUO
 62
    54
100
AcDbVertex
100
AcDb3dPolylineVertex
 10
176716.983891
 20
1676214.178088
 30
4.0
 70
    32
  0
VERTEX
  5
4DD
100
AcDbEntity
  8
CURVASTG
  6
CONTINUO
 62
    54
100
AcDbVertex
100
AcDb3dPolylineVertex
 10
176713.224819
 20
1676214.014874
 30
4.0
 70
    32
  0
VERTEX
  5
4DE
100
AcDbEntity
  8
CURVASTG
  6
CONTINUO
 62
    54
100
AcDbVertex
100
AcDb3dPolylineVertex
 10
176708.947209
 20
1676213.781856
 30
4.0
 70
    32
  0
VERTEX
  5
4DF
100
AcDbEntity
  8
CURVASTG
  6
CONTINUO
 62
    54
100
AcDbVertex
100
AcDb3dPolylineVertex
 10
176705.222491
 20
1676213.563238
 30
4.0
 70
    32
  0
VERTEX
  5
4E0
100
AcDbEntity
  8
CURVASTG
  6
CONTINUO
 62
    54
100
AcDbVertex
100
AcDb3dPolylineVertex
 10
176702.905994
 20
1676213.491736
 30
4.0
 70
    32
  0
VERTEX
  5
4E1
100
AcDbEntity
  8
CURVASTG
  6
CONTINUO
 62
    54
100
AcDbVertex
100
AcDb3dPolylineVertex
 10
176701.988643
 20
1676213.894103
 30
4.0
 70
    32
  0
VERTEX
  5
4E2
100
AcDbEntity
  8
CURVASTG
  6
CONTINUO
 62
    54
100
AcDbVertex
100
AcDb3dPolylineVertex
 10
176702.245257
 20
1676215.145601
 30
4.0
 70
    32
  0
VERTEX
  5
4E3
100
AcDbEntity
  8
CURVASTG
  6
CONTINUO
 62
    54
100
AcDbVertex
100
AcDb3dPolylineVertex
 10
176703.406446
 20
1676217.450802
 30
4.0
 70
    32
  0
VERTEX
  5
4E4
100
AcDbEntity
  8
CURVASTG
  6
CONTINUO
 62
    54
100
AcDbVertex
100
AcDb3dPolylineVertex
 10
176705.025969
 20
1676220.33152
 30
4.0
 70
    32
  0
VERTEX
  5
4E5
100
AcDbEntity
  8
CURVASTG
  6
CONTINUO
 62
    54
100
AcDbVertex
100
AcDb3dPolylineVertex
 10
176706.61337
 20
1676223.138877
 30
4.0
 70
    32
  0
VERTEX
  5
4E6
100
AcDbEntity
  8
CURVASTG
  6
CONTINUO
 62
    54
100
AcDbVertex
100
AcDb3dPolylineVertex
 10
176707.806927
 20
1676225.404484
 30
4.0
 70
    32
  0
VERTEX
  5
4E7
100
AcDbEntity
  8
CURVASTG
  6
CONTINUO
 62
    54
100
AcDbVertex
100
AcDb3dPolylineVertex
 10
176708.759832
 20
1676227.381914
 30
4.0
 70
    32
  0
VERTEX
  5
4E8
100
AcDbEntity
  8
CURVASTG
  6
CONTINUO
 62
    54
100
AcDbVertex
100
AcDb3dPolylineVertex
 10
176709.754009
 20
1676229.505226
 30
4.0
 70
    32
  0
VERTEX
  5
4E9
100
AcDbEntity
  8
CURVASTG
  6
CONTINUO
 62
    54
100
AcDbVertex
100
AcDb3dPolylineVertex
 10
176710.977085
 20
1676232.044756
 30
4.0
 70
    32
  0
VERTEX
  5
4EA
100
AcDbEntity
  8
CURVASTG
  6
CONTINUO
 62
    54
100
AcDbVertex
100
AcDb3dPolylineVertex
 10
176712.239513
 20
1676234.615932
 30
4.0
 70
    32
  0
VERTEX
  5
4EB
100
AcDbEntity
  8
CURVASTG
  6
CONTINUO
 62
    54
100
AcDbVertex
100
AcDb3dPolylineVertex
 10
176713.257452
 20
1676236.670458
 30
4.0
 70
    32
  0
VERTEX
  5
4EC
100
AcDbEntity
  8
CURVASTG
  6
CONTINUO
 62
    54
100
AcDbVertex
100
AcDb3dPolylineVertex
 10
176713.818891
 20
1676237.833655
 30
4.0
 70
    32
  0
VERTEX
  5
4ED
100
AcDbEntity
  8
CURVASTG
  6
CONTINUO
 62
    54
100
AcDbVertex
100
AcDb3dPolylineVertex
 10
176713.999158
 20
1676238.425322
 30
4.0
 70
    32
  0
VERTEX
  5
4EE
100
AcDbEntity
  8
CURVASTG
  6
CONTINUO
 62
    54
100
AcDbVertex
100
AcDb3dPolylineVertex
 10
176713.945412
 20
1676238.938876
 30
4.0
 70
    32
  0
VERTEX
  5
4EF
100
AcDbEntity
  8
CURVASTG
  6
CONTINUO
 62
    54
100
AcDbVertex
100
AcDb3dPolylineVertex
 10
176713.781219
 20
1676239.774503
 30
4.0
 70
    32
  0
VERTEX
  5
4F0
100
AcDbEntity
  8
CURVASTG
  6
CONTINUO
 62
    54
100
AcDbVertex
100
AcDb3dPolylineVertex
 10
176713.535758
 20
1676240.959474
 30
4.0
 70
    32
  0
VERTEX
  5
4F1
100
AcDbEntity
  8
CURVASTG
  6
CONTINUO
 62
    54
100
AcDbVertex
100
AcDb3dPolylineVertex
 10
176713.214614
 20
1676242.427829
 30
4.0
 70
    32
  0
VERTEX
  5
4F2
100
AcDbEntity
  8
CURVASTG
  6
CONTINUO
 62
    54
100
AcDbVertex
100
AcDb3dPolylineVertex
 10
176712.864773
 20
1676244.10014
 30
4.0
 70
    32
  0
VERTEX
  5
4F3
100
AcDbEntity
  8
CURVASTG
  6
CONTINUO
 62
    54
100
AcDbVertex
100
AcDb3dPolylineVertex
 10
176712.698818
 20
1676245.843123
 30
4.0
 70
    32
  0
VERTEX
  5
4F4
100
AcDbEntity
  8
CURVASTG
  6
CONTINUO
 62
    54
100
AcDbVertex
100
AcDb3dPolylineVertex
 10
176712.970733
 20
1676247.510025
 30
4.0
 70
    32
  0
VERTEX
  5
4F5
100
AcDbEntity
  8
CURVASTG
  6
CONTINUO
 62
    54
100
AcDbVertex
100
AcDb3dPolylineVertex
 10
176713.828096
 20
1676248.97874
 30
4.0
 70
    32
  0
VERTEX
  5
4F6
100
AcDbEntity
  8
CURVASTG
  6
CONTINUO
 62
    54
100
AcDbVertex
100
AcDb3dPolylineVertex
 10
176714.992853
 20
1676250.225742
 30
4.0
 70
    32
  0
VERTEX
  5
4F7
100
AcDbEntity
  8
CURVASTG
  6
CONTINUO
 62
    54
100
AcDbVertex
100
AcDb3dPolylineVertex
 10
176716.080545
 20
1676251.252149
 30
4.0
 70
    32
  0
VERTEX
  5
4F8
100
AcDbEntity
  8
CURVASTG
  6
CONTINUO
 62
    54
100
AcDbVertex
100
AcDb3dPolylineVertex
 10
176716.891704
 20
1676252.112524
 30
4.0
 70
    32
  0
VERTEX
  5
4F9
100
AcDbEntity
  8
CURVASTG
  6
CONTINUO
 62
    54
100
AcDbVertex
100
AcDb3dPolylineVertex
 10
176717.966838
 20
1676253.075202
 30
4.0
 70
    32
  0
VERTEX
  5
4FA
100
AcDbEntity
  8
CURVASTG
  6
CONTINUO
 62
    54
100
AcDbVertex
100
AcDb3dPolylineVertex
 10
176720.031446
 20
1676254.461963
 30
4.0
 70
    32
  0
VERTEX
  5
4FB
100
AcDbEntity
  8
CURVASTG
  6
CONTINUO
 62
    54
100
AcDbVertex
100
AcDb3dPolylineVertex
 10
176723.500719
 20
1676256.449958
 30
4.0
 70
    32
  0
VERTEX
  5
4FC
100
AcDbEntity
  8
CURVASTG
  6
CONTINUO
 62
    54
100
AcDbVertex
100
AcDb3dPolylineVertex
 10
176727.548614
 20
1676258.637829
 30
4.0
 70
    32
  0
VERTEX
  5
4FD
100
AcDbEntity
  8
CURVASTG
  6
CONTINUO
 62
    54
100
AcDbVertex
100
AcDb3dPolylineVertex
 10
176731.038777
 20
1676260.47959
 30
4.0
 70
    32
  0
VERTEX
  5
4FE
100
AcDbEntity
  8
CURVASTG
  6
CONTINUO
 62
    54
100
AcDbVertex
100
AcDb3dPolylineVertex
 10
176733.141286
 20
1676261.607573
 30
4.0
 70
    32
  0
VERTEX
  5
4FF
100
AcDbEntity
  8
CURVASTG
  6
CONTINUO
 62
    54
100
AcDbVertex
100
AcDb3dPolylineVertex
 10
176734.25194
 20
1676262.367378
 30
4.0
 70
    32
  0
VERTEX
  5
500
100
AcDbEntity
  8
CURVASTG
  6
CONTINUO
 62
    54
100
AcDbVertex
100
AcDb3dPolylineVertex
 10
176735.072968
 20
1676263.282923
 30
4.0
 70
    32
  0
VERTEX
  5
501
100
AcDbEntity
  8
CURVASTG
  6
CONTINUO
 62
    54
100
AcDbVertex
100
AcDb3dPolylineVertex
 10
176736.154398
 20
1676264.724848
 30
4.0
 70
    32
  0
VERTEX
  5
502
100
AcDbEntity
  8
CURVASTG
  6
CONTINUO
 62
    54
100
AcDbVertex
100
AcDb3dPolylineVertex
 10
176737.437466
 20
1676266.45068
 30
4.0
 70
    32
  0
VERTEX
  5
503
100
AcDbEntity
  8
CURVASTG
  6
CONTINUO
 62
    54
100
AcDbVertex
100
AcDb3dPolylineVertex
 10
176738.71121
 20
1676268.064669
 30
4.0
 70
    32
  0
VERTEX
  5
504
100
AcDbEntity
  8
CURVASTG
  6
CONTINUO
 62
    54
100
AcDbVertex
100
AcDb3dPolylineVertex
 10
176739.795687
 20
1676269.254363
 30
4.0
 70
    32
  0
VERTEX
  5
505
100
AcDbEntity
  8
CURVASTG
  6
CONTINUO
 62
    54
100
AcDbVertex
100
AcDb3dPolylineVertex
 10
176740.635047
 20
1676270.040517
 30
4.0
 70
    32
  0
VERTEX
  5
506
100
AcDbEntity
  8
CURVASTG
  6
CONTINUO
 62
    54
100
AcDbVertex
100
AcDb3dPolylineVertex
 10
176741.204461
 20
1676270.527185
 30
4.0
 70
    32
  0
VERTEX
  5
507
100
AcDbEntity
  8
CURVASTG
  6
CONTINUO
 62
    54
100
AcDbVertex
100
AcDb3dPolylineVertex
 10
176741.436046
 20
1676270.841112
 30
4.0
 70
    32
  0
VERTEX
  5
508
100
AcDbEntity
  8
CURVASTG
  6
CONTINUO
 62
    54
100
AcDbVertex
100
AcDb3dPolylineVertex
 10
176741.089694
 20
1676271.199806
 30
4.0
 70
    32
  0
VERTEX
  5
509
100
AcDbEntity
  8
CURVASTG
  6
CONTINUO
 62
    54
100
AcDbVertex
100
AcDb3dPolylineVertex
 10
176739.88224
 20
1676271.843464
 30
4.0
 70
    32
  0
VERTEX
  5
50A
100
AcDbEntity
  8
CURVASTG
  6
CONTINUO
 62
    54
100
AcDbVertex
100
AcDb3dPolylineVertex
 10
176737.639204
 20
1676272.951622
 30
4.0
 70
    32
  0
VERTEX
  5
50B
100
AcDbEntity
  8
CURVASTG
  6
CONTINUO
 62
    54
100
AcDbVertex
100
AcDb3dPolylineVertex
 10
176734.620828
 20
1676274.461174
 30
4.0
 70
    32
  0
VERTEX
  5
50C
100
AcDbEntity
  8
CURVASTG
  6
CONTINUO
 62
    54
100
AcDbVertex
100
AcDb3dPolylineVertex
 10
176731.196039
 20
1676276.248354
 30
4.0
 70
    32
  0
VERTEX
  5
50D
100
AcDbEntity
  8
CURVASTG
  6
CONTINUO
 62
    54
100
AcDbVertex
100
AcDb3dPolylineVertex
 10
176727.672621
 20
1676278.155291
 30
4.0
 70
    32
  0
VERTEX
  5
50E
100
AcDbEntity
  8
CURVASTG
  6
CONTINUO
 62
    54
100
AcDbVertex
100
AcDb3dPolylineVertex
 10
176724.113804
 20
1676279.887705
 30
4.0
 70
    32
  0
VERTEX
  5
50F
100
AcDbEntity
  8
CURVASTG
  6
CONTINUO
 62
    54
100
AcDbVertex
100
AcDb3dPolylineVertex
 10
176720.521678
 20
1676281.117209
 30
4.0
 70
    32
  0
VERTEX
  5
510
100
AcDbEntity
  8
CURVASTG
  6
CONTINUO
 62
    54
100
AcDbVertex
100
AcDb3dPolylineVertex
 10
176716.967782
 20
1676281.664453
 30
4.0
 70
    32
  0
VERTEX
  5
511
100
AcDbEntity
  8
CURVASTG
  6
CONTINUO
 62
    54
100
AcDbVertex
100
AcDb3dPolylineVertex
 10
176713.801455
 20
1676281.946215
 30
4.0
 70
    32
  0
VERTEX
  5
512
100
AcDbEntity
  8
CURVASTG
  6
CONTINUO
 62
    54
100
AcDbVertex
100
AcDb3dPolylineVertex
 10
176711.441487
 20
1676282.528308
 30
4.0
 70
    32
  0
VERTEX
  5
513
100
AcDbEntity
  8
CURVASTG
  6
CONTINUO
 62
    54
100
AcDbVertex
100
AcDb3dPolylineVertex
 10
176710.16008
 20
1676283.787927
 30
4.0
 70
    32
  0
VERTEX
  5
514
100
AcDbEntity
  8
CURVASTG
  6
CONTINUO
 62
    54
100
AcDbVertex
100
AcDb3dPolylineVertex
 10
176709.643081
 20
1676285.347808
 30
4.0
 70
    32
  0
VERTEX
  5
515
100
AcDbEntity
  8
CURVASTG
  6
CONTINUO
 62
    54
100
AcDbVertex
100
AcDb3dPolylineVertex
 10
176709.429747
 20
1676286.642068
 30
4.0
 70
    32
  0
VERTEX
  5
516
100
AcDbEntity
  8
CURVASTG
  6
CONTINUO
 62
    54
100
AcDbVertex
100
AcDb3dPolylineVertex
 10
176709.153201
 20
1676287.250414
 30
4.0
 70
    32
  0
VERTEX
  5
517
100
AcDbEntity
  8
CURVASTG
  6
CONTINUO
 62
    54
100
AcDbVertex
100
AcDb3dPolylineVertex
 10
176708.822015
 20
1676287.334918
 30
4.0
 70
    32
  0
VERTEX
  5
518
100
AcDbEntity
  8
CURVASTG
  6
CONTINUO
 62
    54
100
AcDbVertex
100
AcDb3dPolylineVertex
 10
176708.538625
 20
1676287.203239
 30
4.0
 70
    32
  0
VERTEX
  5
519
100
AcDbEntity
  8
CURVASTG
  6
CONTINUO
 62
    54
100
AcDbVertex
100
AcDb3dPolylineVertex
 10
176708.380047
 20
1676287.106679
 30
4.0
 70
    32
  0
VERTEX
  5
51A
100
AcDbEntity
  8
CURVASTG
  6
CONTINUO
 62
    54
100
AcDbVertex
100
AcDb3dPolylineVertex
 10
176708.321624
 20
1676287.071104
 30
4.0
 70
    32
  0
VERTEX
  5
51B
100
AcDbEntity
  8
CURVASTG
  6
CONTINUO
 62
    54
100
AcDbVertex
100
AcDb3dPolylineVertex
 10
176708.313278
 20
1676287.066022
 30
4.0
 70
    32
  0
SEQEND
  5
51C
100
AcDbEntity
  8
CURVASTG
  6
CONTINUO
 62
    54
  0
POLYLINE
  5
51D
100
AcDbEntity
  8
CURVASTG
  6
CONTINUO
 62
    54
100
AcDb3dPolyline
 66
     1
 10
0.0
 20
0.0
 30
4.0
 70
     9
  0
VERTEX
  5
51E
100
AcDbEntity
  8
CURVASTG
  6
CONTINUO
 62
    54
100
AcDbVertex
100
AcDb3dPolylineVertex
 10
176802.695704
 20
1676224.180054
 30
4.0
 70
    32
  0
VERTEX
  5
51F
100
AcDbEntity
  8
CURVASTG
  6
CONTINUO
 62
    54
100
AcDbVertex
100
AcDb3dPolylineVertex
 10
176801.131127
 20
1676225.027787
 30
4.0
 70
    32
  0
VERTEX
  5
520
100
AcDbEntity
  8
CURVASTG
  6
CONTINUO
 62
    54
100
AcDbVertex
100
AcDb3dPolylineVertex
 10
176799.69893
 20
1676225.879
 30
4.0
 70
    32
  0
VERTEX
  5
521
100
AcDbEntity
  8
CURVASTG
  6
CONTINUO
 62
    54
100
AcDbVertex
100
AcDb3dPolylineVertex
 10
176797.645925
 20
1676227.210002
 30
4.0
 70
    32
  0
VERTEX
  5
522
100
AcDbEntity
  8
CURVASTG
  6
CONTINUO
 62
    54
100
AcDbVertex
100
AcDb3dPolylineVertex
 10
176794.964982
 20
1676229.06947
 30
4.0
 70
    32
  0
VERTEX
  5
523
100
AcDbEntity
  8
CURVASTG
  6
CONTINUO
 62
    54
100
AcDbVertex
100
AcDb3dPolylineVertex
 10
176791.976492
 20
1676231.214038
 30
4.0
 70
    32
  0
VERTEX
  5
524
100
AcDbEntity
  8
CURVASTG
  6
CONTINUO
 62
    54
100
AcDbVertex
100
AcDb3dPolylineVertex
 10
176789.082727
 20
1676233.327328
 30
4.0
 70
    32
  0
VERTEX
  5
525
100
AcDbEntity
  8
CURVASTG
  6
CONTINUO
 62
    54
100
AcDbVertex
100
AcDb3dPolylineVertex
 10
176786.565278
 20
1676235.192635
 30
4.0
 70
    32
  0
VERTEX
  5
526
100
AcDbEntity
  8
CURVASTG
  6
CONTINUO
 62
    54
100
AcDbVertex
100
AcDb3dPolylineVertex
 10
176784.223008
 20
1676236.991934
 30
4.0
 70
    32
  0
VERTEX
  5
527
100
AcDbEntity
  8
CURVASTG
  6
CONTINUO
 62
    54
100
AcDbVertex
100
AcDb3dPolylineVertex
 10
176781.7341
 20
1676239.00687
 30
4.0
 70
    32
  0
VERTEX
  5
528
100
AcDbEntity
  8
CURVASTG
  6
CONTINUO
 62
    54
100
AcDbVertex
100
AcDb3dPolylineVertex
 10
176778.896722
 20
1676241.397195
 30
4.0
 70
    32
  0
VERTEX
  5
529
100
AcDbEntity
  8
CURVASTG
  6
CONTINUO
 62
    54
100
AcDbVertex
100
AcDb3dPolylineVertex
 10
176775.988997
 20
1676243.835085
 30
4.0
 70
    32
  0
VERTEX
  5
52A
100
AcDbEntity
  8
CURVASTG
  6
CONTINUO
 62
    54
100
AcDbVertex
100
AcDb3dPolylineVertex
 10
176773.409036
 20
1676245.87082
 30
4.0
 70
    32
  0
VERTEX
  5
52B
100
AcDbEntity
  8
CURVASTG
  6
CONTINUO
 62
    54
100
AcDbVertex
100
AcDb3dPolylineVertex
 10
176771.423178
 20
1676247.202576
 30
4.0
 70
    32
  0
VERTEX
  5
52C
100
AcDbEntity
  8
CURVASTG
  6
CONTINUO
 62
    54
100
AcDbVertex
100
AcDb3dPolylineVertex
 10
176769.770676
 20
1676248.120106
 30
4.0
 70
    32
  0
VERTEX
  5
52D
100
AcDbEntity
  8
CURVASTG
  6
CONTINUO
 62
    54
100
AcDbVertex
100
AcDb3dPolylineVertex
 10
176768.059013
 20
1676249.061058
 30
4.0
 70
    32
  0
VERTEX
  5
52E
100
AcDbEntity
  8
CURVASTG
  6
CONTINUO
 62
    54
100
AcDbVertex
100
AcDb3dPolylineVertex
 10
176766.035798
 20
1676250.338262
 30
4.0
 70
    32
  0
VERTEX
  5
52F
100
AcDbEntity
  8
CURVASTG
  6
CONTINUO
 62
    54
100
AcDbVertex
100
AcDb3dPolylineVertex
 10
176764.009143
 20
1676251.765274
 30
4.0
 70
    32
  0
VERTEX
  5
530
100
AcDbEntity
  8
CURVASTG
  6
CONTINUO
 62
    54
100
AcDbVertex
100
AcDb3dPolylineVertex
 10
176762.427286
 20
1676253.030829
 30
4.0
 70
    32
  0
VERTEX
  5
531
100
AcDbEntity
  8
CURVASTG
  6
CONTINUO
 62
    54
100
AcDbVertex
100
AcDb3dPolylineVertex
 10
176761.593581
 20
1676253.906346
 30
4.0
 70
    32
  0
VERTEX
  5
532
100
AcDbEntity
  8
CURVASTG
  6
CONTINUO
 62
    54
100
AcDbVertex
100
AcDb3dPolylineVertex
 10
176761.231844
 20
1676254.493975
 30
4.0
 70
    32
  0
VERTEX
  5
533
100
AcDbEntity
  8
CURVASTG
  6
CONTINUO
 62
    54
100
AcDbVertex
100
AcDb3dPolylineVertex
 10
176760.921005
 20
1676254.978546
 30
4.0
 70
    32
  0
VERTEX
  5
534
100
AcDbEntity
  8
CURVASTG
  6
CONTINUO
 62
    54
100
AcDbVertex
100
AcDb3dPolylineVertex
 10
176760.295051
 20
1676255.5592
 30
4.0
 70
    32
  0
VERTEX
  5
535
100
AcDbEntity
  8
CURVASTG
  6
CONTINUO
 62
    54
100
AcDbVertex
100
AcDb3dPolylineVertex
 10
176759.208196
 20
1676256.492317
 30
4.0
 70
    32
  0
VERTEX
  5
536
100
AcDbEntity
  8
CURVASTG
  6
CONTINUO
 62
    54
100
AcDbVertex
100
AcDb3dPolylineVertex
 10
176757.56971
 20
1676258.048588
 30
4.0
 70
    32
  0
VERTEX
  5
537
100
AcDbEntity
  8
CURVASTG
  6
CONTINUO
 62
    54
100
AcDbVertex
100
AcDb3dPolylineVertex
 10
176755.38629
 20
1676260.349057
 30
4.0
 70
    32
  0
VERTEX
  5
538
100
AcDbEntity
  8
CURVASTG
  6
CONTINUO
 62
    54
100
AcDbVertex
100
AcDb3dPolylineVertex
 10
176753.054336
 20
1676262.916178
 30
4.0
 70
    32
  0
VERTEX
  5
539
100
AcDbEntity
  8
CURVASTG
  6
CONTINUO
 62
    54
100
AcDbVertex
100
AcDb3dPolylineVertex
 10
176751.067677
 20
1676265.122757
 30
4.0
 70
    32
  0
VERTEX
  5
53A
100
AcDbEntity
  8
CURVASTG
  6
CONTINUO
 62
    54
100
AcDbVertex
100
AcDb3dPolylineVertex
 10
176750.033968
 20
1676266.412478
 30
4.0
 70
    32
  0
VERTEX
  5
53B
100
AcDbEntity
  8
CURVASTG
  6
CONTINUO
 62
    54
100
AcDbVertex
100
AcDb3dPolylineVertex
 10
176751.016171
 20
1676266.512521
 30
4.0
 70
    32
  0
VERTEX
  5
53C
100
AcDbEntity
  8
CURVASTG
  6
CONTINUO
 62
    54
100
AcDbVertex
100
AcDb3dPolylineVertex
 10
176755.191075
 20
1676265.220944
 30
4.0
 70
    32
  0
VERTEX
  5
53D
100
AcDbEntity
  8
CURVASTG
  6
CONTINUO
 62
    54
100
AcDbVertex
100
AcDb3dPolylineVertex
 10
176763.113615
 20
1676262.456136
 30
4.0
 70
    32
  0
VERTEX
  5
53E
100
AcDbEntity
  8
CURVASTG
  6
CONTINUO
 62
    54
100
AcDbVertex
100
AcDb3dPolylineVertex
 10
176772.851316
 20
1676258.617816
 30
4.0
 70
    32
  0
VERTEX
  5
53F
100
AcDbEntity
  8
CURVASTG
  6
CONTINUO
 62
    54
100
AcDbVertex
100
AcDb3dPolylineVertex
 10
176781.849847
 20
1676254.226035
 30
4.0
 70
    32
  0
VERTEX
  5
540
100
AcDbEntity
  8
CURVASTG
  6
CONTINUO
 62
    54
100
AcDbVertex
100
AcDb3dPolylineVertex
 10
176788.118304
 20
1676249.768363
 30
4.0
 70
    32
  0
VERTEX
  5
541
100
AcDbEntity
  8
CURVASTG
  6
CONTINUO
 62
    54
100
AcDbVertex
100
AcDb3dPolylineVertex
 10
176791.919482
 20
1676245.602444
 30
4.0
 70
    32
  0
VERTEX
  5
542
100
AcDbEntity
  8
CURVASTG
  6
CONTINUO
 62
    54
100
AcDbVertex
100
AcDb3dPolylineVertex
 10
176794.0796
 20
1676242.053439
 30
4.0
 70
    32
  0
VERTEX
  5
543
100
AcDbEntity
  8
CURVASTG
  6
CONTINUO
 62
    54
100
AcDbVertex
100
AcDb3dPolylineVertex
 10
176795.386099
 20
1676239.321663
 30
4.0
 70
    32
  0
VERTEX
  5
544
100
AcDbEntity
  8
CURVASTG
  6
CONTINUO
 62
    54
100
AcDbVertex
100
AcDb3dPolylineVertex
 10
176796.471297
 20
1676237.108028
 30
4.0
 70
    32
  0
VERTEX
  5
545
100
AcDbEntity
  8
CURVASTG
  6
CONTINUO
 62
    54
100
AcDbVertex
100
AcDb3dPolylineVertex
 10
176797.928735
 20
1676234.9886
 30
4.0
 70
    32
  0
VERTEX
  5
546
100
AcDbEntity
  8
CURVASTG
  6
CONTINUO
 62
    54
100
AcDbVertex
100
AcDb3dPolylineVertex
 10
176800.134396
 20
1676232.665542
 30
4.0
 70
    32
  0
VERTEX
  5
547
100
AcDbEntity
  8
CURVASTG
  6
CONTINUO
 62
    54
100
AcDbVertex
100
AcDb3dPolylineVertex
 10
176802.59404
 20
1676230.345423
 30
4.0
 70
    32
  0
VERTEX
  5
548
100
AcDbEntity
  8
CURVASTG
  6
CONTINUO
 62
    54
100
AcDbVertex
100
AcDb3dPolylineVertex
 10
176804.595872
 20
1676228.360913
 30
4.0
 70
    32
  0
VERTEX
  5
549
100
AcDbEntity
  8
CURVASTG
  6
CONTINUO
 62
    54
100
AcDbVertex
100
AcDb3dPolylineVertex
 10
176805.59725
 20
1676226.958541
 30
4.0
 70
    32
  0
VERTEX
  5
54A
100
AcDbEntity
  8
CURVASTG
  6
CONTINUO
 62
    54
100
AcDbVertex
100
AcDb3dPolylineVertex
 10
176805.732146
 20
1676226.040278
 30
4.0
 70
    32
  0
VERTEX
  5
54B
100
AcDbEntity
  8
CURVASTG
  6
CONTINUO
 62
    54
100
AcDbVertex
100
AcDb3dPolylineVertex
 10
176805.303686
 20
1676225.421957
 30
4.0
 70
    32
  0
VERTEX
  5
54C
100
AcDbEntity
  8
CURVASTG
  6
CONTINUO
 62
    54
100
AcDbVertex
100
AcDb3dPolylineVertex
 10
176804.597439
 20
1676224.950265
 30
4.0
 70
    32
  0
VERTEX
  5
54D
100
AcDbEntity
  8
CURVASTG
  6
CONTINUO
 62
    54
100
AcDbVertex
100
AcDb3dPolylineVertex
 10
176803.828755
 20
1676224.59532
 30
4.0
 70
    32
  0
VERTEX
  5
54E
100
AcDbEntity
  8
CURVASTG
  6
CONTINUO
 62
    54
100
AcDbVertex
100
AcDb3dPolylineVertex
 10
176803.195425
 20
1676224.358095
 30
4.0
 70
    32
  0
VERTEX
  5
54F
100
AcDbEntity
  8
CURVASTG
  6
CONTINUO
 62
    54
100
AcDbVertex
100
AcDb3dPolylineVertex
 10
176802.843769
 20
1676224.232807
 30
4.0
 70
    32
  0
VERTEX
  5
550
100
AcDbEntity
  8
CURVASTG
  6
CONTINUO
 62
    54
100
AcDbVertex
100
AcDb3dPolylineVertex
 10
176802.714212
 20
1676224.186648
 30
4.0
 70
    32
  0
VERTEX
  5
551
100
AcDbEntity
  8
CURVASTG
  6
CONTINUO
 62
    54
100
AcDbVertex
100
AcDb3dPolylineVertex
 10
176802.695704
 20
1676224.180054
 30
4.0
 70
    32
  0
SEQEND
  5
552
100
AcDbEntity
  8
CURVASTG
  6
CONTINUO
 62
    54
  0
POLYLINE
  5
553
100
AcDbEntity
  8
CURVASTG
  6
CONTINUO
 62
    54
100
AcDb3dPolyline
 66
     1
 10
0.0
 20
0.0
 30
3.5
 70
     8
  0
VERTEX
  5
554
100
AcDbEntity
  8
CURVASTG
  6
CONTINUO
 62
    54
100
AcDbVertex
100
AcDb3dPolylineVertex
 10
176695.912331
 20
1676161.573059
 30
3.5
 70
    32
  0
VERTEX
  5
555
100
AcDbEntity
  8
CURVASTG
  6
CONTINUO
 62
    54
100
AcDbVertex
100
AcDb3dPolylineVertex
 10
176696.59212
 20
1676159.472236
 30
3.5
 70
    32
  0
VERTEX
  5
556
100
AcDbEntity
  8
CURVASTG
  6
CONTINUO
 62
    54
100
AcDbVertex
100
AcDb3dPolylineVertex
 10
176697.164922
 20
1676157.936003
 30
3.5
 70
    32
  0
VERTEX
  5
557
100
AcDbEntity
  8
CURVASTG
  6
CONTINUO
 62
    54
100
AcDbVertex
100
AcDb3dPolylineVertex
 10
176697.91312
 20
1676156.303877
 30
3.5
 70
    32
  0
VERTEX
  5
558
100
AcDbEntity
  8
CURVASTG
  6
CONTINUO
 62
    54
100
AcDbVertex
100
AcDb3dPolylineVertex
 10
176698.833979
 20
1676154.766829
 30
3.5
 70
    32
  0
VERTEX
  5
559
100
AcDbEntity
  8
CURVASTG
  6
CONTINUO
 62
    54
100
AcDbVertex
100
AcDb3dPolylineVertex
 10
176699.952413
 20
1676153.246433
 30
3.5
 70
    32
  0
VERTEX
  5
55A
100
AcDbEntity
  8
CURVASTG
  6
CONTINUO
 62
    54
100
AcDbVertex
100
AcDb3dPolylineVertex
 10
176701.300245
 20
1676151.596909
 30
3.5
 70
    32
  0
VERTEX
  5
55B
100
AcDbEntity
  8
CURVASTG
  6
CONTINUO
 62
    54
100
AcDbVertex
100
AcDb3dPolylineVertex
 10
176702.94272
 20
1676149.795183
 30
3.5
 70
    32
  0
VERTEX
  5
55C
100
AcDbEntity
  8
CURVASTG
  6
CONTINUO
 62
    54
100
AcDbVertex
100
AcDb3dPolylineVertex
 10
176705.07876
 20
1676148.308986
 30
3.5
 70
    32
  0
VERTEX
  5
55D
100
AcDbEntity
  8
CURVASTG
  6
CONTINUO
 62
    54
100
AcDbVertex
100
AcDb3dPolylineVertex
 10
176707.940709
 20
1676147.728754
 30
3.5
 70
    32
  0
VERTEX
  5
55E
100
AcDbEntity
  8
CURVASTG
  6
CONTINUO
 62
    54
100
AcDbVertex
100
AcDb3dPolylineVertex
 10
176711.600445
 20
1676148.421202
 30
3.5
 70
    32
  0
VERTEX
  5
55F
100
AcDbEntity
  8
CURVASTG
  6
CONTINUO
 62
    54
100
AcDbVertex
100
AcDb3dPolylineVertex
 10
176715.487982
 20
1676149.858158
 30
3.5
 70
    32
  0
VERTEX
  5
560
100
AcDbEntity
  8
CURVASTG
  6
CONTINUO
 62
    54
100
AcDbVertex
100
AcDb3dPolylineVertex
 10
176718.872869
 20
1676151.287734
 30
3.5
 70
    32
  0
VERTEX
  5
561
100
AcDbEntity
  8
CURVASTG
  6
CONTINUO
 62
    54
100
AcDbVertex
100
AcDb3dPolylineVertex
 10
176721.224941
 20
1676152.12815
 30
3.5
 70
    32
  0
VERTEX
  5
562
100
AcDbEntity
  8
CURVASTG
  6
CONTINUO
 62
    54
100
AcDbVertex
100
AcDb3dPolylineVertex
 10
176722.815181
 20
1676152.478082
 30
3.5
 70
    32
  0
VERTEX
  5
563
100
AcDbEntity
  8
CURVASTG
  6
CONTINUO
 62
    54
100
AcDbVertex
100
AcDb3dPolylineVertex
 10
176724.114859
 20
1676152.606317
 30
3.5
 70
    32
  0
VERTEX
  5
564
100
AcDbEntity
  8
CURVASTG
  6
CONTINUO
 62
    54
100
AcDbVertex
100
AcDb3dPolylineVertex
 10
176725.48536
 20
1676152.708688
 30
3.5
 70
    32
  0
VERTEX
  5
565
100
AcDbEntity
  8
CURVASTG
  6
CONTINUO
 62
    54
100
AcDbVertex
100
AcDb3dPolylineVertex
 10
176726.848538
 20
1676152.689218
 30
3.5
 70
    32
  0
VERTEX
  5
566
100
AcDbEntity
  8
CURVASTG
  6
CONTINUO
 62
    54
100
AcDbVertex
100
AcDb3dPolylineVertex
 10
176728.016364
 20
1676152.378977
 30
3.5
 70
    32
  0
VERTEX
  5
567
100
AcDbEntity
  8
CURVASTG
  6
CONTINUO
 62
    54
100
AcDbVertex
100
AcDb3dPolylineVertex
 10
176728.852154
 20
1676151.674907
 30
3.5
 70
    32
  0
VERTEX
  5
568
100
AcDbEntity
  8
CURVASTG
  6
CONTINUO
 62
    54
100
AcDbVertex
100
AcDb3dPolylineVertex
 10
176729.424603
 20
1676150.737449
 30
3.5
 70
    32
  0
VERTEX
  5
569
100
AcDbEntity
  8
CURVASTG
  6
CONTINUO
 62
    54
100
AcDbVertex
100
AcDb3dPolylineVertex
 10
176729.853755
 20
1676149.792914
 30
3.5
 70
    32
  0
VERTEX
  5
56A
100
AcDbEntity
  8
CURVASTG
  6
CONTINUO
 62
    54
100
AcDbVertex
100
AcDb3dPolylineVertex
 10
176730.306779
 20
1676149.051107
 30
3.5
 70
    32
  0
VERTEX
  5
56B
100
AcDbEntity
  8
CURVASTG
  6
CONTINUO
 62
    54
100
AcDbVertex
100
AcDb3dPolylineVertex
 10
176731.139362
 20
1676148.655782
 30
3.5
 70
    32
  0
VERTEX
  5
56C
100
AcDbEntity
  8
CURVASTG
  6
CONTINUO
 62
    54
100
AcDbVertex
100
AcDb3dPolylineVertex
 10
176732.754317
 20
1676148.734187
 30
3.5
 70
    32
  0
VERTEX
  5
56D
100
AcDbEntity
  8
CURVASTG
  6
CONTINUO
 62
    54
100
AcDbVertex
100
AcDb3dPolylineVertex
 10
176735.342621
 20
1676149.366963
 30
3.5
 70
    32
  0
VERTEX
  5
56E
100
AcDbEntity
  8
CURVASTG
  6
CONTINUO
 62
    54
100
AcDbVertex
100
AcDb3dPolylineVertex
 10
176738.247891
 20
1676150.448341
 30
3.5
 70
    32
  0
VERTEX
  5
56F
100
AcDbEntity
  8
CURVASTG
  6
CONTINUO
 62
    54
100
AcDbVertex
100
AcDb3dPolylineVertex
 10
176740.601905
 20
1676151.825949
 30
3.5
 70
    32
  0
VERTEX
  5
570
100
AcDbEntity
  8
CURVASTG
  6
CONTINUO
 62
    54
100
AcDbVertex
100
AcDb3dPolylineVertex
 10
176741.738943
 20
1676153.345715
 30
3.5
 70
    32
  0
VERTEX
  5
571
100
AcDbEntity
  8
CURVASTG
  6
CONTINUO
 62
    54
100
AcDbVertex
100
AcDb3dPolylineVertex
 10
176741.803296
 20
1676154.846769
 30
3.5
 70
    32
  0
VERTEX
  5
572
100
AcDbEntity
  8
CURVASTG
  6
CONTINUO
 62
    54
100
AcDbVertex
100
AcDb3dPolylineVertex
 10
176741.141758
 20
1676156.166542
 30
3.5
 70
    32
  0
VERTEX
  5
573
100
AcDbEntity
  8
CURVASTG
  6
CONTINUO
 62
    54
100
AcDbVertex
100
AcDb3dPolylineVertex
 10
176740.092589
 20
1676157.17857
 30
3.5
 70
    32
  0
VERTEX
  5
574
100
AcDbEntity
  8
CURVASTG
  6
CONTINUO
 62
    54
100
AcDbVertex
100
AcDb3dPolylineVertex
 10
176738.959919
 20
1676157.900803
 30
3.5
 70
    32
  0
VERTEX
  5
575
100
AcDbEntity
  8
CURVASTG
  6
CONTINUO
 62
    54
100
AcDbVertex
100
AcDb3dPolylineVertex
 10
176738.039343
 20
1676158.3873
 30
3.5
 70
    32
  0
VERTEX
  5
576
100
AcDbEntity
  8
CURVASTG
  6
CONTINUO
 62
    54
100
AcDbVertex
100
AcDb3dPolylineVertex
 10
176737.560274
 20
1676158.713501
 30
3.5
 70
    32
  0
VERTEX
  5
577
100
AcDbEntity
  8
CURVASTG
  6
CONTINUO
 62
    54
100
AcDbVertex
100
AcDb3dPolylineVertex
 10
176737.487384
 20
1676159.04039
 30
3.5
 70
    32
  0
VERTEX
  5
578
100
AcDbEntity
  8
CURVASTG
  6
CONTINUO
 62
    54
100
AcDbVertex
100
AcDb3dPolylineVertex
 10
176737.71916
 20
1676159.550336
 30
3.5
 70
    32
  0
VERTEX
  5
579
100
AcDbEntity
  8
CURVASTG
  6
CONTINUO
 62
    54
100
AcDbVertex
100
AcDb3dPolylineVertex
 10
176738.12908
 20
1676160.363765
 30
3.5
 70
    32
  0
VERTEX
  5
57A
100
AcDbEntity
  8
CURVASTG
  6
CONTINUO
 62
    54
100
AcDbVertex
100
AcDb3dPolylineVertex
 10
176738.490583
 20
1676161.353329
 30
3.5
 70
    32
  0
VERTEX
  5
57B
100
AcDbEntity
  8
CURVASTG
  6
CONTINUO
 62
    54
100
AcDbVertex
100
AcDb3dPolylineVertex
 10
176738.552097
 20
1676162.329736
 30
3.5
 70
    32
  0
VERTEX
  5
57C
100
AcDbEntity
  8
CURVASTG
  6
CONTINUO
 62
    54
100
AcDbVertex
100
AcDb3dPolylineVertex
 10
176738.178282
 20
1676163.187872
 30
3.5
 70
    32
  0
VERTEX
  5
57D
100
AcDbEntity
  8
CURVASTG
  6
CONTINUO
 62
    54
100
AcDbVertex
100
AcDb3dPolylineVertex
 10
176737.698724
 20
1676164.159332
 30
3.5
 70
    32
  0
VERTEX
  5
57E
100
AcDbEntity
  8
CURVASTG
  6
CONTINUO
 62
    54
100
AcDbVertex
100
AcDb3dPolylineVertex
 10
176737.559241
 20
1676165.559888
 30
3.5
 70
    32
  0
VERTEX
  5
57F
100
AcDbEntity
  8
CURVASTG
  6
CONTINUO
 62
    54
100
AcDbVertex
100
AcDb3dPolylineVertex
 10
176738.000023
 20
1676167.60532
 30
3.5
 70
    32
  0
VERTEX
  5
580
100
AcDbEntity
  8
CURVASTG
  6
CONTINUO
 62
    54
100
AcDbVertex
100
AcDb3dPolylineVertex
 10
176738.438743
 20
1676170.111436
 30
3.5
 70
    32
  0
VERTEX
  5
581
100
AcDbEntity
  8
CURVASTG
  6
CONTINUO
 62
    54
100
AcDbVertex
100
AcDb3dPolylineVertex
 10
176738.087447
 20
1676172.794054
 30
3.5
 70
    32
  0
VERTEX
  5
582
100
AcDbEntity
  8
CURVASTG
  6
CONTINUO
 62
    54
100
AcDbVertex
100
AcDb3dPolylineVertex
 10
176736.391146
 20
1676175.383581
 30
3.5
 70
    32
  0
VERTEX
  5
583
100
AcDbEntity
  8
CURVASTG
  6
CONTINUO
 62
    54
100
AcDbVertex
100
AcDb3dPolylineVertex
 10
176733.726695
 20
1676177.668785
 30
3.5
 70
    32
  0
VERTEX
  5
584
100
AcDbEntity
  8
CURVASTG
  6
CONTINUO
 62
    54
100
AcDbVertex
100
AcDb3dPolylineVertex
 10
176730.703917
 20
1676179.453024
 30
3.5
 70
    32
  0
VERTEX
  5
585
100
AcDbEntity
  8
CURVASTG
  6
CONTINUO
 62
    54
100
AcDbVertex
100
AcDb3dPolylineVertex
 10
176727.865593
 20
1676180.606322
 30
3.5
 70
    32
  0
VERTEX
  5
586
100
AcDbEntity
  8
CURVASTG
  6
CONTINUO
 62
    54
100
AcDbVertex
100
AcDb3dPolylineVertex
 10
176725.486354
 20
1676181.265348
 30
3.5
 70
    32
  0
VERTEX
  5
587
100
AcDbEntity
  8
CURVASTG
  6
CONTINUO
 62
    54
100
AcDbVertex
100
AcDb3dPolylineVertex
 10
176723.773792
 20
1676181.633438
 30
3.5
 70
    32
  0
VERTEX
  5
588
100
AcDbEntity
  8
CURVASTG
  6
CONTINUO
 62
    54
100
AcDbVertex
100
AcDb3dPolylineVertex
 10
176722.857154
 20
1676181.921626
 30
3.5
 70
    32
  0
VERTEX
  5
589
100
AcDbEntity
  8
CURVASTG
  6
CONTINUO
 62
    54
100
AcDbVertex
100
AcDb3dPolylineVertex
 10
176722.552309
 20
1676182.371755
 30
3.5
 70
    32
  0
VERTEX
  5
58A
100
AcDbEntity
  8
CURVASTG
  6
CONTINUO
 62
    54
100
AcDbVertex
100
AcDb3dPolylineVertex
 10
176722.596782
 20
1676183.233369
 30
3.5
 70
    32
  0
VERTEX
  5
58B
100
AcDbEntity
  8
CURVASTG
  6
CONTINUO
 62
    54
100
AcDbVertex
100
AcDb3dPolylineVertex
 10
176722.747497
 20
1676184.685936
 30
3.5
 70
    32
  0
VERTEX
  5
58C
100
AcDbEntity
  8
CURVASTG
  6
CONTINUO
 62
    54
100
AcDbVertex
100
AcDb3dPolylineVertex
 10
176722.838986
 20
1676186.628621
 30
3.5
 70
    32
  0
VERTEX
  5
58D
100
AcDbEntity
  8
CURVASTG
  6
CONTINUO
 62
    54
100
AcDbVertex
100
AcDb3dPolylineVertex
 10
176722.725181
 20
1676188.890514
 30
3.5
 70
    32
  0
VERTEX
  5
58E
100
AcDbEntity
  8
CURVASTG
  6
CONTINUO
 62
    54
100
AcDbVertex
100
AcDb3dPolylineVertex
 10
176722.20216
 20
1676191.225884
 30
3.5
 70
    32
  0
VERTEX
  5
58F
100
AcDbEntity
  8
CURVASTG
  6
CONTINUO
 62
    54
100
AcDbVertex
100
AcDb3dPolylineVertex
 10
176720.834573
 20
1676193.089715
 30
3.5
 70
    32
  0
VERTEX
  5
590
100
AcDbEntity
  8
CURVASTG
  6
CONTINUO
 62
    54
100
AcDbVertex
100
AcDb3dPolylineVertex
 10
176718.129217
 20
1676193.862168
 30
3.5
 70
    32
  0
VERTEX
  5
591
100
AcDbEntity
  8
CURVASTG
  6
CONTINUO
 62
    54
100
AcDbVertex
100
AcDb3dPolylineVertex
 10
176713.870318
 20
1676193.176254
 30
3.5
 70
    32
  0
VERTEX
  5
592
100
AcDbEntity
  8
CURVASTG
  6
CONTINUO
 62
    54
100
AcDbVertex
100
AcDb3dPolylineVertex
 10
176708.951815
 20
1676191.676378
 30
3.5
 70
    32
  0
VERTEX
  5
593
100
AcDbEntity
  8
CURVASTG
  6
CONTINUO
 62
    54
100
AcDbVertex
100
AcDb3dPolylineVertex
 10
176704.545079
 20
1676190.259791
 30
3.5
 70
    32
  0
VERTEX
  5
594
100
AcDbEntity
  8
CURVASTG
  6
CONTINUO
 62
    54
100
AcDbVertex
100
AcDb3dPolylineVertex
 10
176701.507436
 20
1676189.68207
 30
3.5
 70
    32
  0
VERTEX
  5
595
100
AcDbEntity
  8
CURVASTG
  6
CONTINUO
 62
    54
100
AcDbVertex
100
AcDb3dPolylineVertex
 10
176699.440025
 20
1676190.132088
 30
3.5
 70
    32
  0
VERTEX
  5
596
100
AcDbEntity
  8
CURVASTG
  6
CONTINUO
 62
    54
100
AcDbVertex
100
AcDb3dPolylineVertex
 10
176697.629945
 20
1676191.657042
 30
3.5
 70
    32
  0
VERTEX
  5
597
100
AcDbEntity
  8
CURVASTG
  6
CONTINUO
 62
    54
100
AcDbVertex
100
AcDb3dPolylineVertex
 10
176695.542454
 20
1676194.183656
 30
3.5
 70
    32
  0
VERTEX
  5
598
100
AcDbEntity
  8
CURVASTG
  6
CONTINUO
 62
    54
100
AcDbVertex
100
AcDb3dPolylineVertex
 10
176693.355469
 20
1676197.156758
 30
3.5
 70
    32
  0
VERTEX
  5
599
100
AcDbEntity
  8
CURVASTG
  6
CONTINUO
 62
    54
100
AcDbVertex
100
AcDb3dPolylineVertex
 10
176691.425068
 20
1676199.900704
 30
3.5
 70
    32
  0
VERTEX
  5
59A
100
AcDbEntity
  8
CURVASTG
  6
CONTINUO
 62
    54
100
AcDbVertex
100
AcDb3dPolylineVertex
 10
176690.020716
 20
1676201.906597
 30
3.5
 70
    32
  0
VERTEX
  5
59B
100
AcDbEntity
  8
CURVASTG
  6
CONTINUO
 62
    54
100
AcDbVertex
100
AcDb3dPolylineVertex
 10
176689.065412
 20
1676203.332521
 30
3.5
 70
    32
  0
VERTEX
  5
59C
100
AcDbEntity
  8
CURVASTG
  6
CONTINUO
 62
    54
100
AcDbVertex
100
AcDb3dPolylineVertex
 10
176688.395543
 20
1676204.503309
 30
3.5
 70
    32
  0
VERTEX
  5
59D
100
AcDbEntity
  8
CURVASTG
  6
CONTINUO
 62
    54
100
AcDbVertex
100
AcDb3dPolylineVertex
 10
176687.858507
 20
1676205.720859
 30
3.5
 70
    32
  0
VERTEX
  5
59E
100
AcDbEntity
  8
CURVASTG
  6
CONTINUO
 62
    54
100
AcDbVertex
100
AcDb3dPolylineVertex
 10
176687.345755
 20
1676207.195339
 30
3.5
 70
    32
  0
VERTEX
  5
59F
100
AcDbEntity
  8
CURVASTG
  6
CONTINUO
 62
    54
100
AcDbVertex
100
AcDb3dPolylineVertex
 10
176686.759751
 20
1676209.113979
 30
3.5
 70
    32
  0
VERTEX
  5
5A0
100
AcDbEntity
  8
CURVASTG
  6
CONTINUO
 62
    54
100
AcDbVertex
100
AcDb3dPolylineVertex
 10
176686.063968
 20
1676211.56991
 30
3.5
 70
    32
  0
VERTEX
  5
5A1
100
AcDbEntity
  8
CURVASTG
  6
CONTINUO
 62
    54
100
AcDbVertex
100
AcDb3dPolylineVertex
 10
176685.465905
 20
1676214.279852
 30
3.5
 70
    32
  0
VERTEX
  5
5A2
100
AcDbEntity
  8
CURVASTG
  6
CONTINUO
 62
    54
100
AcDbVertex
100
AcDb3dPolylineVertex
 10
176685.234069
 20
1676216.866421
 30
3.5
 70
    32
  0
VERTEX
  5
5A3
100
AcDbEntity
  8
CURVASTG
  6
CONTINUO
 62
    54
100
AcDbVertex
100
AcDb3dPolylineVertex
 10
176685.574236
 20
1676219.096521
 30
3.5
 70
    32
  0
VERTEX
  5
5A4
100
AcDbEntity
  8
CURVASTG
  6
CONTINUO
 62
    54
100
AcDbVertex
100
AcDb3dPolylineVertex
 10
176686.441257
 20
1676221.314208
 30
3.5
 70
    32
  0
VERTEX
  5
5A5
100
AcDbEntity
  8
CURVASTG
  6
CONTINUO
 62
    54
100
AcDbVertex
100
AcDb3dPolylineVertex
 10
176687.72725
 20
1676224.007826
 30
3.5
 70
    32
  0
VERTEX
  5
5A6
100
AcDbEntity
  8
CURVASTG
  6
CONTINUO
 62
    54
100
AcDbVertex
100
AcDb3dPolylineVertex
 10
176689.301664
 20
1676227.471458
 30
3.5
 70
    32
  0
VERTEX
  5
5A7
100
AcDbEntity
  8
CURVASTG
  6
CONTINUO
 62
    54
100
AcDbVertex
100
AcDb3dPolylineVertex
 10
176690.94327
 20
1676231.222136
 30
3.5
 70
    32
  0
VERTEX
  5
5A8
100
AcDbEntity
  8
CURVASTG
  6
CONTINUO
 62
    54
100
AcDbVertex
100
AcDb3dPolylineVertex
 10
176692.408168
 20
1676234.582634
 30
3.5
 70
    32
  0
VERTEX
  5
5A9
100
AcDbEntity
  8
CURVASTG
  6
CONTINUO
 62
    54
100
AcDbVertex
100
AcDb3dPolylineVertex
 10
176693.488589
 20
1676237.050831
 30
3.5
 70
    32
  0
VERTEX
  5
5AA
100
AcDbEntity
  8
CURVASTG
  6
CONTINUO
 62
    54
100
AcDbVertex
100
AcDb3dPolylineVertex
 10
176694.121275
 20
1676238.825039
 30
3.5
 70
    32
  0
VERTEX
  5
5AB
100
AcDbEntity
  8
CURVASTG
  6
CONTINUO
 62
    54
100
AcDbVertex
100
AcDb3dPolylineVertex
 10
176694.2791
 20
1676240.278676
 30
3.5
 70
    32
  0
VERTEX
  5
5AC
100
AcDbEntity
  8
CURVASTG
  6
CONTINUO
 62
    54
100
AcDbVertex
100
AcDb3dPolylineVertex
 10
176694.007728
 20
1676241.718809
 30
3.5
 70
    32
  0
VERTEX
  5
5AD
100
AcDbEntity
  8
CURVASTG
  6
CONTINUO
 62
    54
100
AcDbVertex
100
AcDb3dPolylineVertex
 10
176693.644003
 20
1676243.187095
 30
3.5
 70
    32
  0
VERTEX
  5
5AE
100
AcDbEntity
  8
CURVASTG
  6
CONTINUO
 62
    54
100
AcDbVertex
100
AcDb3dPolylineVertex
 10
176693.597562
 20
1676244.658837
 30
3.5
 70
    32
  0
VERTEX
  5
5AF
100
AcDbEntity
  8
CURVASTG
  6
CONTINUO
 62
    54
100
AcDbVertex
100
AcDb3dPolylineVertex
 10
176694.160465
 20
1676246.099674
 30
3.5
 70
    32
  0
VERTEX
  5
5B0
100
AcDbEntity
  8
CURVASTG
  6
CONTINUO
 62
    54
100
AcDbVertex
100
AcDb3dPolylineVertex
 10
176695.154472
 20
1676247.436583
 30
3.5
 70
    32
  0
VERTEX
  5
5B1
100
AcDbEntity
  8
CURVASTG
  6
CONTINUO
 62
    54
100
AcDbVertex
100
AcDb3dPolylineVertex
 10
176696.283766
 20
1676248.586876
 30
3.5
 70
    32
  0
VERTEX
  5
5B2
100
AcDbEntity
  8
CURVASTG
  6
CONTINUO
 62
    54
100
AcDbVertex
100
AcDb3dPolylineVertex
 10
176697.341033
 20
1676249.519427
 30
3.5
 70
    32
  0
VERTEX
  5
5B3
100
AcDbEntity
  8
CURVASTG
  6
CONTINUO
 62
    54
100
AcDbVertex
100
AcDb3dPolylineVertex
 10
176698.472968
 20
1676250.409361
 30
3.5
 70
    32
  0
VERTEX
  5
5B4
100
AcDbEntity
  8
CURVASTG
  6
CONTINUO
 62
    54
100
AcDbVertex
100
AcDb3dPolylineVertex
 10
176699.914769
 20
1676251.483365
 30
3.5
 70
    32
  0
VERTEX
  5
5B5
100
AcDbEntity
  8
CURVASTG
  6
CONTINUO
 62
    54
100
AcDbVertex
100
AcDb3dPolylineVertex
 10
176701.794528
 20
1676252.88622
 30
3.5
 70
    32
  0
VERTEX
  5
5B6
100
AcDbEntity
  8
CURVASTG
  6
CONTINUO
 62
    54
100
AcDbVertex
100
AcDb3dPolylineVertex
 10
176703.811915
 20
1676254.435082
 30
3.5
 70
    32
  0
VERTEX
  5
5B7
100
AcDbEntity
  8
CURVASTG
  6
CONTINUO
 62
    54
100
AcDbVertex
100
AcDb3dPolylineVertex
 10
176705.559497
 20
1676255.865202
 30
3.5
 70
    32
  0
VERTEX
  5
5B8
100
AcDbEntity
  8
CURVASTG
  6
CONTINUO
 62
    54
100
AcDbVertex
100
AcDb3dPolylineVertex
 10
176706.728053
 20
1676257.096083
 30
3.5
 70
    32
  0
VERTEX
  5
5B9
100
AcDbEntity
  8
CURVASTG
  6
CONTINUO
 62
    54
100
AcDbVertex
100
AcDb3dPolylineVertex
 10
176707.401213
 20
1676258.784232
 30
3.5
 70
    32
  0
VERTEX
  5
5BA
100
AcDbEntity
  8
CURVASTG
  6
CONTINUO
 62
    54
100
AcDbVertex
100
AcDb3dPolylineVertex
 10
176707.76082
 20
1676261.770411
 30
3.5
 70
    32
  0
VERTEX
  5
5BB
100
AcDbEntity
  8
CURVASTG
  6
CONTINUO
 62
    54
100
AcDbVertex
100
AcDb3dPolylineVertex
 10
176707.9255
 20
1676266.48076
 30
3.5
 70
    32
  0
VERTEX
  5
5BC
100
AcDbEntity
  8
CURVASTG
  6
CONTINUO
 62
    54
100
AcDbVertex
100
AcDb3dPolylineVertex
 10
176707.761005
 20
1676271.682939
 30
3.5
 70
    32
  0
VERTEX
  5
5BD
100
AcDbEntity
  8
CURVASTG
  6
CONTINUO
 62
    54
100
AcDbVertex
100
AcDb3dPolylineVertex
 10
176707.069868
 20
1676275.729988
 30
3.5
 70
    32
  0
VERTEX
  5
5BE
100
AcDbEntity
  8
CURVASTG
  6
CONTINUO
 62
    54
100
AcDbVertex
100
AcDb3dPolylineVertex
 10
176705.766772
 20
1676277.428864
 30
3.5
 70
    32
  0
VERTEX
  5
5BF
100
AcDbEntity
  8
CURVASTG
  6
CONTINUO
 62
    54
100
AcDbVertex
100
AcDb3dPolylineVertex
 10
176704.214986
 20
1676277.402195
 30
3.5
 70
    32
  0
VERTEX
  5
5C0
100
AcDbEntity
  8
CURVASTG
  6
CONTINUO
 62
    54
100
AcDbVertex
100
AcDb3dPolylineVertex
 10
176702.889929
 20
1676276.726527
 30
3.5
 70
    32
  0
VERTEX
  5
5C1
100
AcDbEntity
  8
CURVASTG
  6
CONTINUO
 62
    54
100
AcDbVertex
100
AcDb3dPolylineVertex
 10
176702.148774
 20
1676276.275228
 30
3.5
 70
    32
  0
VERTEX
  5
5C2
100
AcDbEntity
  8
CURVASTG
  6
CONTINUO
 62
    54
100
AcDbVertex
100
AcDb3dPolylineVertex
 10
176701.875717
 20
1676276.10896
 30
3.5
 70
    32
  0
VERTEX
  5
5C3
100
AcDbEntity
  8
CURVASTG
  6
CONTINUO
 62
    54
100
AcDbVertex
100
AcDb3dPolylineVertex
 10
176701.836708
 20
1676276.085207
 30
3.5
 70
    32
  0
SEQEND
  5
5C4
100
AcDbEntity
  8
CURVASTG
  6
CONTINUO
 62
    54
  0
POLYLINE
  5
5C5
100
AcDbEntity
  8
CURVASTG
  6
CONTINUO
 62
    54
100
AcDb3dPolyline
 66
     1
 10
0.0
 20
0.0
 30
3.0
 70
     8
  0
VERTEX
  5
5C6
100
AcDbEntity
  8
CURVASTG
  6
CONTINUO
 62
    54
100
AcDbVertex
100
AcDb3dPolylineVertex
 10
176689.352906
 20
1676185.06102
 30
3.0
 70
    32
  0
VERTEX
  5
5C7
100
AcDbEntity
  8
CURVASTG
  6
CONTINUO
 62
    54
100
AcDbVertex
100
AcDb3dPolylineVertex
 10
176690.660271
 20
1676181.020737
 30
3.0
 70
    32
  0
VERTEX
  5
5C8
100
AcDbEntity
  8
CURVASTG
  6
CONTINUO
 62
    54
100
AcDbVertex
100
AcDb3dPolylineVertex
 10
176691.761878
 20
1676178.066268
 30
3.0
 70
    32
  0
VERTEX
  5
5C9
100
AcDbEntity
  8
CURVASTG
  6
CONTINUO
 62
    54
100
AcDbVertex
100
AcDb3dPolylineVertex
 10
176693.200804
 20
1676174.927378
 30
3.0
 70
    32
  0
VERTEX
  5
5CA
100
AcDbEntity
  8
CURVASTG
  6
CONTINUO
 62
    54
100
AcDbVertex
100
AcDb3dPolylineVertex
 10
176694.971793
 20
1676171.971343
 30
3.0
 70
    32
  0
VERTEX
  5
5CB
100
AcDbEntity
  8
CURVASTG
  6
CONTINUO
 62
    54
100
AcDbVertex
100
AcDb3dPolylineVertex
 10
176697.122754
 20
1676169.047331
 30
3.0
 70
    32
  0
VERTEX
  5
5CC
100
AcDbEntity
  8
CURVASTG
  6
CONTINUO
 62
    54
100
AcDbVertex
100
AcDb3dPolylineVertex
 10
176699.714892
 20
1676165.874983
 30
3.0
 70
    32
  0
VERTEX
  5
5CD
100
AcDbEntity
  8
CURVASTG
  6
CONTINUO
 62
    54
100
AcDbVertex
100
AcDb3dPolylineVertex
 10
176702.768634
 20
1676162.358629
 30
3.0
 70
    32
  0
VERTEX
  5
5CE
100
AcDbEntity
  8
CURVASTG
  6
CONTINUO
 62
    54
100
AcDbVertex
100
AcDb3dPolylineVertex
 10
176706.1413
 20
1676159.141359
 30
3.0
 70
    32
  0
VERTEX
  5
5CF
100
AcDbEntity
  8
CURVASTG
  6
CONTINUO
 62
    54
100
AcDbVertex
100
AcDb3dPolylineVertex
 10
176709.649435
 20
1676157.050951
 30
3.0
 70
    32
  0
VERTEX
  5
5D0
100
AcDbEntity
  8
CURVASTG
  6
CONTINUO
 62
    54
100
AcDbVertex
100
AcDb3dPolylineVertex
 10
176713.117246
 20
1676156.638834
 30
3.0
 70
    32
  0
VERTEX
  5
5D1
100
AcDbEntity
  8
CURVASTG
  6
CONTINUO
 62
    54
100
AcDbVertex
100
AcDb3dPolylineVertex
 10
176716.39959
 20
1676157.351045
 30
3.0
 70
    32
  0
VERTEX
  5
5D2
100
AcDbEntity
  8
CURVASTG
  6
CONTINUO
 62
    54
100
AcDbVertex
100
AcDb3dPolylineVertex
 10
176719.358985
 20
1676158.35727
 30
3.0
 70
    32
  0
VERTEX
  5
5D3
100
AcDbEntity
  8
CURVASTG
  6
CONTINUO
 62
    54
100
AcDbVertex
100
AcDb3dPolylineVertex
 10
176721.882656
 20
1676158.995659
 30
3.0
 70
    32
  0
VERTEX
  5
5D4
100
AcDbEntity
  8
CURVASTG
  6
CONTINUO
 62
    54
100
AcDbVertex
100
AcDb3dPolylineVertex
 10
176723.956641
 20
1676159.278202
 30
3.0
 70
    32
  0
VERTEX
  5
5D5
100
AcDbEntity
  8
CURVASTG
  6
CONTINUO
 62
    54
100
AcDbVertex
100
AcDb3dPolylineVertex
 10
176725.591683
 20
1676159.385351
 30
3.0
 70
    32
  0
VERTEX
  5
5D6
100
AcDbEntity
  8
CURVASTG
  6
CONTINUO
 62
    54
100
AcDbVertex
100
AcDb3dPolylineVertex
 10
176726.824227
 20
1676159.415322
 30
3.0
 70
    32
  0
VERTEX
  5
5D7
100
AcDbEntity
  8
CURVASTG
  6
CONTINUO
 62
    54
100
AcDbVertex
100
AcDb3dPolylineVertex
 10
176727.793526
 20
1676159.137385
 30
3.0
 70
    32
  0
VERTEX
  5
5D8
100
AcDbEntity
  8
CURVASTG
  6
CONTINUO
 62
    54
100
AcDbVertex
100
AcDb3dPolylineVertex
 10
176728.664536
 20
1676158.238576
 30
3.0
 70
    32
  0
VERTEX
  5
5D9
100
AcDbEntity
  8
CURVASTG
  6
CONTINUO
 62
    54
100
AcDbVertex
100
AcDb3dPolylineVertex
 10
176729.557566
 20
1676156.553278
 30
3.0
 70
    32
  0
VERTEX
  5
5DA
100
AcDbEntity
  8
CURVASTG
  6
CONTINUO
 62
    54
100
AcDbVertex
100
AcDb3dPolylineVertex
 10
176730.414343
 20
1676154.505264
 30
3.0
 70
    32
  0
VERTEX
  5
5DB
100
AcDbEntity
  8
CURVASTG
  6
CONTINUO
 62
    54
100
AcDbVertex
100
AcDb3dPolylineVertex
 10
176731.131946
 20
1676152.665656
 30
3.0
 70
    32
  0
VERTEX
  5
5DC
100
AcDbEntity
  8
CURVASTG
  6
CONTINUO
 62
    54
100
AcDbVertex
100
AcDb3dPolylineVertex
 10
176731.683556
 20
1676151.490153
 30
3.0
 70
    32
  0
VERTEX
  5
5DD
100
AcDbEntity
  8
CURVASTG
  6
CONTINUO
 62
    54
100
AcDbVertex
100
AcDb3dPolylineVertex
 10
176732.346749
 20
1676150.972756
 30
3.0
 70
    32
  0
VERTEX
  5
5DE
100
AcDbEntity
  8
CURVASTG
  6
CONTINUO
 62
    54
100
AcDbVertex
100
AcDb3dPolylineVertex
 10
176733.475202
 20
1676150.99204
 30
3.0
 70
    32
  0
VERTEX
  5
5DF
100
AcDbEntity
  8
CURVASTG
  6
CONTINUO
 62
    54
100
AcDbVertex
100
AcDb3dPolylineVertex
 10
176735.263659
 20
1676151.429274
 30
3.0
 70
    32
  0
VERTEX
  5
5E0
100
AcDbEntity
  8
CURVASTG
  6
CONTINUO
 62
    54
100
AcDbVertex
100
AcDb3dPolylineVertex
 10
176737.271133
 20
1676152.176481
 30
3.0
 70
    32
  0
VERTEX
  5
5E1
100
AcDbEntity
  8
CURVASTG
  6
CONTINUO
 62
    54
100
AcDbVertex
100
AcDb3dPolylineVertex
 10
176738.897701
 20
1676153.128375
 30
3.0
 70
    32
  0
VERTEX
  5
5E2
100
AcDbEntity
  8
CURVASTG
  6
CONTINUO
 62
    54
100
AcDbVertex
100
AcDb3dPolylineVertex
 10
176739.682318
 20
1676154.178966
 30
3.0
 70
    32
  0
VERTEX
  5
5E3
100
AcDbEntity
  8
CURVASTG
  6
CONTINUO
 62
    54
100
AcDbVertex
100
AcDb3dPolylineVertex
 10
176739.719437
 20
1676155.219437
 30
3.0
 70
    32
  0
VERTEX
  5
5E4
100
AcDbEntity
  8
CURVASTG
  6
CONTINUO
 62
    54
100
AcDbVertex
100
AcDb3dPolylineVertex
 10
176739.242386
 20
1676156.140267
 30
3.0
 70
    32
  0
VERTEX
  5
5E5
100
AcDbEntity
  8
CURVASTG
  6
CONTINUO
 62
    54
100
AcDbVertex
100
AcDb3dPolylineVertex
 10
176738.458653
 20
1676156.881295
 30
3.0
 70
    32
  0
VERTEX
  5
5E6
100
AcDbEntity
  8
CURVASTG
  6
CONTINUO
 62
    54
100
AcDbVertex
100
AcDb3dPolylineVertex
 10
176737.472359
 20
1676157.57981
 30
3.0
 70
    32
  0
VERTEX
  5
5E7
100
AcDbEntity
  8
CURVASTG
  6
CONTINUO
 62
    54
100
AcDbVertex
100
AcDb3dPolylineVertex
 10
176736.361783
 20
1676158.422462
 30
3.0
 70
    32
  0
VERTEX
  5
5E8
100
AcDbEntity
  8
CURVASTG
  6
CONTINUO
 62
    54
100
AcDbVertex
100
AcDb3dPolylineVertex
 10
176735.22387
 20
1676159.531415
 30
3.0
 70
    32
  0
VERTEX
  5
5E9
100
AcDbEntity
  8
CURVASTG
  6
CONTINUO
 62
    54
100
AcDbVertex
100
AcDb3dPolylineVertex
 10
176734.230222
 20
1676160.770878
 30
3.0
 70
    32
  0
VERTEX
  5
5EA
100
AcDbEntity
  8
CURVASTG
  6
CONTINUO
 62
    54
100
AcDbVertex
100
AcDb3dPolylineVertex
 10
176733.571107
 20
1676161.940574
 30
3.0
 70
    32
  0
VERTEX
  5
5EB
100
AcDbEntity
  8
CURVASTG
  6
CONTINUO
 62
    54
100
AcDbVertex
100
AcDb3dPolylineVertex
 10
176733.360193
 20
1676162.881813
 30
3.0
 70
    32
  0
VERTEX
  5
5EC
100
AcDbEntity
  8
CURVASTG
  6
CONTINUO
 62
    54
100
AcDbVertex
100
AcDb3dPolylineVertex
 10
176733.404756
 20
1676163.602251
 30
3.0
 70
    32
  0
VERTEX
  5
5ED
100
AcDbEntity
  8
CURVASTG
  6
CONTINUO
 62
    54
100
AcDbVertex
100
AcDb3dPolylineVertex
 10
176733.435474
 20
1676164.151128
 30
3.0
 70
    32
  0
VERTEX
  5
5EE
100
AcDbEntity
  8
CURVASTG
  6
CONTINUO
 62
    54
100
AcDbVertex
100
AcDb3dPolylineVertex
 10
176733.265076
 20
1676164.596589
 30
3.0
 70
    32
  0
VERTEX
  5
5EF
100
AcDbEntity
  8
CURVASTG
  6
CONTINUO
 62
    54
100
AcDbVertex
100
AcDb3dPolylineVertex
 10
176733.034495
 20
1676165.082387
 30
3.0
 70
    32
  0
VERTEX
  5
5F0
100
AcDbEntity
  8
CURVASTG
  6
CONTINUO
 62
    54
100
AcDbVertex
100
AcDb3dPolylineVertex
 10
176732.966714
 20
1676165.771176
 30
3.0
 70
    32
  0
VERTEX
  5
5F1
100
AcDbEntity
  8
CURVASTG
  6
CONTINUO
 62
    54
100
AcDbVertex
100
AcDb3dPolylineVertex
 10
176733.183088
 20
1676166.775252
 30
3.0
 70
    32
  0
VERTEX
  5
5F2
100
AcDbEntity
  8
CURVASTG
  6
CONTINUO
 62
    54
100
AcDbVertex
100
AcDb3dPolylineVertex
 10
176733.39845
 20
1676168.005471
 30
3.0
 70
    32
  0
VERTEX
  5
5F3
100
AcDbEntity
  8
CURVASTG
  6
CONTINUO
 62
    54
100
AcDbVertex
100
AcDb3dPolylineVertex
 10
176733.226004
 20
1676169.322333
 30
3.0
 70
    32
  0
VERTEX
  5
5F4
100
AcDbEntity
  8
CURVASTG
  6
CONTINUO
 62
    54
100
AcDbVertex
100
AcDb3dPolylineVertex
 10
176732.388455
 20
1676170.594279
 30
3.0
 70
    32
  0
VERTEX
  5
5F5
100
AcDbEntity
  8
CURVASTG
  6
CONTINUO
 62
    54
100
AcDbVertex
100
AcDb3dPolylineVertex
 10
176731.046517
 20
1676171.721526
 30
3.0
 70
    32
  0
VERTEX
  5
5F6
100
AcDbEntity
  8
CURVASTG
  6
CONTINUO
 62
    54
100
AcDbVertex
100
AcDb3dPolylineVertex
 10
176729.470405
 20
1676172.612232
 30
3.0
 70
    32
  0
VERTEX
  5
5F7
100
AcDbEntity
  8
CURVASTG
  6
CONTINUO
 62
    54
100
AcDbVertex
100
AcDb3dPolylineVertex
 10
176727.886889
 20
1676173.240462
 30
3.0
 70
    32
  0
VERTEX
  5
5F8
100
AcDbEntity
  8
CURVASTG
  6
CONTINUO
 62
    54
100
AcDbVertex
100
AcDb3dPolylineVertex
 10
176726.348965
 20
1676173.843891
 30
3.0
 70
    32
  0
VERTEX
  5
5F9
100
AcDbEntity
  8
CURVASTG
  6
CONTINUO
 62
    54
100
AcDbVertex
100
AcDb3dPolylineVertex
 10
176724.866183
 20
1676174.726096
 30
3.0
 70
    32
  0
VERTEX
  5
5FA
100
AcDbEntity
  8
CURVASTG
  6
CONTINUO
 62
    54
100
AcDbVertex
100
AcDb3dPolylineVertex
 10
176723.447533
 20
1676176.085608
 30
3.0
 70
    32
  0
VERTEX
  5
5FB
100
AcDbEntity
  8
CURVASTG
  6
CONTINUO
 62
    54
100
AcDbVertex
100
AcDb3dPolylineVertex
 10
176722.099766
 20
1676177.700764
 30
3.0
 70
    32
  0
VERTEX
  5
5FC
100
AcDbEntity
  8
CURVASTG
  6
CONTINUO
 62
    54
100
AcDbVertex
100
AcDb3dPolylineVertex
 10
176720.829069
 20
1676179.24485
 30
3.0
 70
    32
  0
VERTEX
  5
5FD
100
AcDbEntity
  8
CURVASTG
  6
CONTINUO
 62
    54
100
AcDbVertex
100
AcDb3dPolylineVertex
 10
176719.658174
 20
1676180.466996
 30
3.0
 70
    32
  0
VERTEX
  5
5FE
100
AcDbEntity
  8
CURVASTG
  6
CONTINUO
 62
    54
100
AcDbVertex
100
AcDb3dPolylineVertex
 10
176718.675973
 20
1676181.419687
 30
3.0
 70
    32
  0
VERTEX
  5
5FF
100
AcDbEntity
  8
CURVASTG
  6
CONTINUO
 62
    54
100
AcDbVertex
100
AcDb3dPolylineVertex
 10
176717.9879
 20
1676182.231246
 30
3.0
 70
    32
  0
VERTEX
  5
600
100
AcDbEntity
  8
CURVASTG
  6
CONTINUO
 62
    54
100
AcDbVertex
100
AcDb3dPolylineVertex
 10
176717.653796
 20
1676183.008528
 30
3.0
 70
    32
  0
VERTEX
  5
601
100
AcDbEntity
  8
CURVASTG
  6
CONTINUO
 62
    54
100
AcDbVertex
100
AcDb3dPolylineVertex
 10
176717.55113
 20
1676183.772492
 30
3.0
 70
    32
  0
VERTEX
  5
602
100
AcDbEntity
  8
CURVASTG
  6
CONTINUO
 62
    54
100
AcDbVertex
100
AcDb3dPolylineVertex
 10
176717.511778
 20
1676184.52263
 30
3.0
 70
    32
  0
VERTEX
  5
603
100
AcDbEntity
  8
CURVASTG
  6
CONTINUO
 62
    54
100
AcDbVertex
100
AcDb3dPolylineVertex
 10
176717.373088
 20
1676185.232795
 30
3.0
 70
    32
  0
VERTEX
  5
604
100
AcDbEntity
  8
CURVASTG
  6
CONTINUO
 62
    54
100
AcDbVertex
100
AcDb3dPolylineVertex
 10
176716.994295
 20
1676185.774308
 30
3.0
 70
    32
  0
VERTEX
  5
605
100
AcDbEntity
  8
CURVASTG
  6
CONTINUO
 62
    54
100
AcDbVertex
100
AcDb3dPolylineVertex
 10
176716.240108
 20
1676185.992852
 30
3.0
 70
    32
  0
VERTEX
  5
606
100
AcDbEntity
  8
CURVASTG
  6
CONTINUO
 62
    54
100
AcDbVertex
100
AcDb3dPolylineVertex
 10
176714.970204
 20
1676185.827759
 30
3.0
 70
    32
  0
VERTEX
  5
607
100
AcDbEntity
  8
CURVASTG
  6
CONTINUO
 62
    54
100
AcDbVertex
100
AcDb3dPolylineVertex
 10
176713.024141
 20
1676185.592952
 30
3.0
 70
    32
  0
VERTEX
  5
608
100
AcDbEntity
  8
CURVASTG
  6
CONTINUO
 62
    54
100
AcDbVertex
100
AcDb3dPolylineVertex
 10
176710.236449
 20
1676185.696004
 30
3.0
 70
    32
  0
VERTEX
  5
609
100
AcDbEntity
  8
CURVASTG
  6
CONTINUO
 62
    54
100
AcDbVertex
100
AcDb3dPolylineVertex
 10
176706.58505
 20
1676186.448144
 30
3.0
 70
    32
  0
VERTEX
  5
60A
100
AcDbEntity
  8
CURVASTG
  6
CONTINUO
 62
    54
100
AcDbVertex
100
AcDb3dPolylineVertex
 10
176702.621451
 20
1676187.775237
 30
3.0
 70
    32
  0
VERTEX
  5
60B
100
AcDbEntity
  8
CURVASTG
  6
CONTINUO
 62
    54
100
AcDbVertex
100
AcDb3dPolylineVertex
 10
176699.040556
 20
1676189.506808
 30
3.0
 70
    32
  0
VERTEX
  5
60C
100
AcDbEntity
  8
CURVASTG
  6
CONTINUO
 62
    54
100
AcDbVertex
100
AcDb3dPolylineVertex
 10
176696.354234
 20
1676191.495694
 30
3.0
 70
    32
  0
VERTEX
  5
60D
100
AcDbEntity
  8
CURVASTG
  6
CONTINUO
 62
    54
100
AcDbVertex
100
AcDb3dPolylineVertex
 10
176694.342229
 20
1676193.687991
 30
3.0
 70
    32
  0
VERTEX
  5
60E
100
AcDbEntity
  8
CURVASTG
  6
CONTINUO
 62
    54
100
AcDbVertex
100
AcDb3dPolylineVertex
 10
176692.601252
 20
1676196.05311
 30
3.0
 70
    32
  0
VERTEX
  5
60F
100
AcDbEntity
  8
CURVASTG
  6
CONTINUO
 62
    54
100
AcDbVertex
100
AcDb3dPolylineVertex
 10
176690.819737
 20
1676198.567476
 30
3.0
 70
    32
  0
VERTEX
  5
610
100
AcDbEntity
  8
CURVASTG
  6
CONTINUO
 62
    54
100
AcDbVertex
100
AcDb3dPolylineVertex
 10
176689.053012
 20
1676201.235571
 30
3.0
 70
    32
  0
VERTEX
  5
611
100
AcDbEntity
  8
CURVASTG
  6
CONTINUO
 62
    54
100
AcDbVertex
100
AcDb3dPolylineVertex
 10
176687.448127
 20
1676204.068893
 30
3.0
 70
    32
  0
VERTEX
  5
612
100
AcDbEntity
  8
CURVASTG
  6
CONTINUO
 62
    54
100
AcDbVertex
100
AcDb3dPolylineVertex
 10
176686.113916
 20
1676207.061043
 30
3.0
 70
    32
  0
VERTEX
  5
613
100
AcDbEntity
  8
CURVASTG
  6
CONTINUO
 62
    54
100
AcDbVertex
100
AcDb3dPolylineVertex
 10
176685.006355
 20
1676210.134048
 30
3.0
 70
    32
  0
VERTEX
  5
614
100
AcDbEntity
  8
CURVASTG
  6
CONTINUO
 62
    54
100
AcDbVertex
100
AcDb3dPolylineVertex
 10
176684.043202
 20
1676213.192039
 30
3.0
 70
    32
  0
VERTEX
  5
615
100
AcDbEntity
  8
CURVASTG
  6
CONTINUO
 62
    54
100
AcDbVertex
100
AcDb3dPolylineVertex
 10
176683.185597
 20
1676216.185437
 30
3.0
 70
    32
  0
VERTEX
  5
616
100
AcDbEntity
  8
CURVASTG
  6
CONTINUO
 62
    54
100
AcDbVertex
100
AcDb3dPolylineVertex
 10
176682.568191
 20
1676219.24983
 30
3.0
 70
    32
  0
VERTEX
  5
617
100
AcDbEntity
  8
CURVASTG
  6
CONTINUO
 62
    54
100
AcDbVertex
100
AcDb3dPolylineVertex
 10
176682.369014
 20
1676222.567098
 30
3.0
 70
    32
  0
VERTEX
  5
618
100
AcDbEntity
  8
CURVASTG
  6
CONTINUO
 62
    54
100
AcDbVertex
100
AcDb3dPolylineVertex
 10
176682.69178
 20
1676226.222782
 30
3.0
 70
    32
  0
VERTEX
  5
619
100
AcDbEntity
  8
CURVASTG
  6
CONTINUO
 62
    54
100
AcDbVertex
100
AcDb3dPolylineVertex
 10
176683.342938
 20
1676229.91708
 30
3.0
 70
    32
  0
VERTEX
  5
61A
100
AcDbEntity
  8
CURVASTG
  6
CONTINUO
 62
    54
100
AcDbVertex
100
AcDb3dPolylineVertex
 10
176684.054623
 20
1676233.25385
 30
3.0
 70
    32
  0
VERTEX
  5
61B
100
AcDbEntity
  8
CURVASTG
  6
CONTINUO
 62
    54
100
AcDbVertex
100
AcDb3dPolylineVertex
 10
176684.648347
 20
1676235.95207
 30
3.0
 70
    32
  0
VERTEX
  5
61C
100
AcDbEntity
  8
CURVASTG
  6
CONTINUO
 62
    54
100
AcDbVertex
100
AcDb3dPolylineVertex
 10
176685.303132
 20
1676238.191188
 30
3.0
 70
    32
  0
VERTEX
  5
61D
100
AcDbEntity
  8
CURVASTG
  6
CONTINUO
 62
    54
100
AcDbVertex
100
AcDb3dPolylineVertex
 10
176686.287382
 20
1676240.265767
 30
3.0
 70
    32
  0
VERTEX
  5
61E
100
AcDbEntity
  8
CURVASTG
  6
CONTINUO
 62
    54
100
AcDbVertex
100
AcDb3dPolylineVertex
 10
176687.808275
 20
1676242.412769
 30
3.0
 70
    32
  0
VERTEX
  5
61F
100
AcDbEntity
  8
CURVASTG
  6
CONTINUO
 62
    54
100
AcDbVertex
100
AcDb3dPolylineVertex
 10
176689.828103
 20
1676244.638747
 30
3.0
 70
    32
  0
VERTEX
  5
620
100
AcDbEntity
  8
CURVASTG
  6
CONTINUO
 62
    54
100
AcDbVertex
100
AcDb3dPolylineVertex
 10
176692.247933
 20
1676246.892653
 30
3.0
 70
    32
  0
VERTEX
  5
621
100
AcDbEntity
  8
CURVASTG
  6
CONTINUO
 62
    54
100
AcDbVertex
100
AcDb3dPolylineVertex
 10
176694.941552
 20
1676249.113969
 30
3.0
 70
    32
  0
VERTEX
  5
622
100
AcDbEntity
  8
CURVASTG
  6
CONTINUO
 62
    54
100
AcDbVertex
100
AcDb3dPolylineVertex
 10
176697.673623
 20
1676251.204308
 30
3.0
 70
    32
  0
VERTEX
  5
623
100
AcDbEntity
  8
CURVASTG
  6
CONTINUO
 62
    54
100
AcDbVertex
100
AcDb3dPolylineVertex
 10
176700.181526
 20
1676253.055812
 30
3.0
 70
    32
  0
VERTEX
  5
624
100
AcDbEntity
  8
CURVASTG
  6
CONTINUO
 62
    54
100
AcDbVertex
100
AcDb3dPolylineVertex
 10
176702.249637
 20
1676254.584374
 30
3.0
 70
    32
  0
VERTEX
  5
625
100
AcDbEntity
  8
CURVASTG
  6
CONTINUO
 62
    54
100
AcDbVertex
100
AcDb3dPolylineVertex
 10
176703.850307
 20
1676255.800882
 30
3.0
 70
    32
  0
VERTEX
  5
626
100
AcDbEntity
  8
CURVASTG
  6
CONTINUO
 62
    54
100
AcDbVertex
100
AcDb3dPolylineVertex
 10
176705.002883
 20
1676256.739972
 30
3.0
 70
    32
  0
VERTEX
  5
627
100
AcDbEntity
  8
CURVASTG
  6
CONTINUO
 62
    54
100
AcDbVertex
100
AcDb3dPolylineVertex
 10
176705.742674
 20
1676257.51922
 30
3.0
 70
    32
  0
VERTEX
  5
628
100
AcDbEntity
  8
CURVASTG
  6
CONTINUO
 62
    54
100
AcDbVertex
100
AcDb3dPolylineVertex
 10
176706.168839
 20
1676258.587955
 30
3.0
 70
    32
  0
VERTEX
  5
629
100
AcDbEntity
  8
CURVASTG
  6
CONTINUO
 62
    54
100
AcDbVertex
100
AcDb3dPolylineVertex
 10
176706.396499
 20
1676260.47845
 30
3.0
 70
    32
  0
VERTEX
  5
62A
100
AcDbEntity
  8
CURVASTG
  6
CONTINUO
 62
    54
100
AcDbVertex
100
AcDb3dPolylineVertex
 10
176706.45578
 20
1676263.433098
 30
3.0
 70
    32
  0
VERTEX
  5
62B
100
AcDbEntity
  8
CURVASTG
  6
CONTINUO
 62
    54
100
AcDbVertex
100
AcDb3dPolylineVertex
 10
176706.036818
 20
1676266.534801
 30
3.0
 70
    32
  0
VERTEX
  5
62C
100
AcDbEntity
  8
CURVASTG
  6
CONTINUO
 62
    54
100
AcDbVertex
100
AcDb3dPolylineVertex
 10
176704.744751
 20
1676268.576583
 30
3.0
 70
    32
  0
VERTEX
  5
62D
100
AcDbEntity
  8
CURVASTG
  6
CONTINUO
 62
    54
100
AcDbVertex
100
AcDb3dPolylineVertex
 10
176702.390642
 20
1676268.720995
 30
3.0
 70
    32
  0
VERTEX
  5
62E
100
AcDbEntity
  8
CURVASTG
  6
CONTINUO
 62
    54
100
AcDbVertex
100
AcDb3dPolylineVertex
 10
176699.609244
 20
1676267.608683
 30
3.0
 70
    32
  0
VERTEX
  5
62F
100
AcDbEntity
  8
CURVASTG
  6
CONTINUO
 62
    54
100
AcDbVertex
100
AcDb3dPolylineVertex
 10
176697.241232
 20
1676266.249815
 30
3.0
 70
    32
  0
VERTEX
  5
630
100
AcDbEntity
  8
CURVASTG
  6
CONTINUO
 62
    54
100
AcDbVertex
100
AcDb3dPolylineVertex
 10
176695.9175
 20
1676265.443777
 30
3.0
 70
    32
  0
VERTEX
  5
631
100
AcDbEntity
  8
CURVASTG
  6
CONTINUO
 62
    54
100
AcDbVertex
100
AcDb3dPolylineVertex
 10
176695.429809
 20
1676265.146816
 30
3.0
 70
    32
  0
VERTEX
  5
632
100
AcDbEntity
  8
CURVASTG
  6
CONTINUO
 62
    54
100
AcDbVertex
100
AcDb3dPolylineVertex
 10
176695.360139
 20
1676265.104393
 30
3.0
 70
    32
  0
SEQEND
  5
633
100
AcDbEntity
  8
CURVASTG
  6
CONTINUO
 62
    54
  0
POLYLINE
  5
634
100
AcDbEntity
  8
CURVASTG
  6
CONTINUO
 62
     2
100
AcDb3dPolyline
 66
     1
 10
0.0
 20
0.0
 30
2.5
 70
     8
  0
VERTEX
  5
635
100
AcDbEntity
  8
CURVASTG
  6
CONTINUO
 62
     2
100
AcDbVertex
100
AcDb3dPolylineVertex
 10
176682.793482
 20
1676208.548981
 30
2.5
 70
    32
  0
VERTEX
  5
636
100
AcDbEntity
  8
CURVASTG
  6
CONTINUO
 62
     2
100
AcDbVertex
100
AcDb3dPolylineVertex
 10
176683.176006
 20
1676207.366826
 30
2.5
 70
    32
  0
SEQEND
  5
637
100
AcDbEntity
  8
CURVASTG
  6
CONTINUO
 62
     2
  0
TEXT
  5
638
100
AcDbEntity
  8
CURVASTG
 62
     2
100
AcDbText
 10
176683.057816
 20
1676206.514018
 30
2.5
 40
0.75
  1
2.500
 50
287.930666
 41
0.699986
  7
SIMPLEX
100
AcDbText
  0
POLYLINE
  5
639
100
AcDbEntity
  8
CURVASTG
  6
CONTINUO
 62
     2
100
AcDb3dPolyline
 66
     1
 10
0.0
 20
0.0
 30
2.5
 70
     8
  0
VERTEX
  5
63A
100
AcDbEntity
  8
CURVASTG
  6
CONTINUO
 62
     2
100
AcDbVertex
100
AcDb3dPolylineVertex
 10
176684.345896
 20
1676203.751393
 30
2.5
 70
    32
  0
VERTEX
  5
63B
100
AcDbEntity
  8
CURVASTG
  6
CONTINUO
 62
     2
100
AcDbVertex
100
AcDb3dPolylineVertex
 10
176684.728421
 20
1676202.569238
 30
2.5
 70
    32
  0
VERTEX
  5
63C
100
AcDbEntity
  8
CURVASTG
  6
CONTINUO
 62
     2
100
AcDbVertex
100
AcDb3dPolylineVertex
 10
176686.358834
 20
1676198.196532
 30
2.5
 70
    32
  0
VERTEX
  5
63D
100
AcDbEntity
  8
CURVASTG
  6
CONTINUO
 62
     2
100
AcDbVertex
100
AcDb3dPolylineVertex
 10
176688.488489
 20
1676193.550879
 30
2.5
 70
    32
  0
VERTEX
  5
63E
100
AcDbEntity
  8
CURVASTG
  6
CONTINUO
 62
     2
100
AcDbVertex
100
AcDb3dPolylineVertex
 10
176691.109606
 20
1676189.175857
 30
2.5
 70
    32
  0
VERTEX
  5
63F
100
AcDbEntity
  8
CURVASTG
  6
CONTINUO
 62
     2
100
AcDbVertex
100
AcDb3dPolylineVertex
 10
176694.293095
 20
1676184.848229
 30
2.5
 70
    32
  0
VERTEX
  5
640
100
AcDbEntity
  8
CURVASTG
  6
CONTINUO
 62
     2
100
AcDbVertex
100
AcDb3dPolylineVertex
 10
176698.129539
 20
1676180.153056
 30
2.5
 70
    32
  0
VERTEX
  5
641
100
AcDbEntity
  8
CURVASTG
  6
CONTINUO
 62
     2
100
AcDbVertex
100
AcDb3dPolylineVertex
 10
176702.594548
 20
1676174.922075
 30
2.5
 70
    32
  0
VERTEX
  5
642
100
AcDbEntity
  8
CURVASTG
  6
CONTINUO
 62
     2
100
AcDbVertex
100
AcDb3dPolylineVertex
 10
176707.20384
 20
1676169.973732
 30
2.5
 70
    32
  0
VERTEX
  5
643
100
AcDbEntity
  8
CURVASTG
  6
CONTINUO
 62
     2
100
AcDbVertex
100
AcDb3dPolylineVertex
 10
176711.358161
 20
1676166.373147
 30
2.5
 70
    32
  0
VERTEX
  5
644
100
AcDbEntity
  8
CURVASTG
  6
CONTINUO
 62
     2
100
AcDbVertex
100
AcDb3dPolylineVertex
 10
176714.632175
 20
1676164.856401
 30
2.5
 70
    32
  0
VERTEX
  5
645
100
AcDbEntity
  8
CURVASTG
  6
CONTINUO
 62
     2
100
AcDbVertex
100
AcDb3dPolylineVertex
 10
176717.296224
 20
1676164.843408
 30
2.5
 70
    32
  0
VERTEX
  5
646
100
AcDbEntity
  8
CURVASTG
  6
CONTINUO
 62
     2
100
AcDbVertex
100
AcDb3dPolylineVertex
 10
176719.794567
 20
1676165.425041
 30
2.5
 70
    32
  0
VERTEX
  5
647
100
AcDbEntity
  8
CURVASTG
  6
CONTINUO
 62
     2
100
AcDbVertex
100
AcDb3dPolylineVertex
 10
176722.374042
 20
1676165.936872
 30
2.5
 70
    32
  0
VERTEX
  5
648
100
AcDbEntity
  8
CURVASTG
  6
CONTINUO
 62
     2
100
AcDbVertex
100
AcDb3dPolylineVertex
 10
176724.491795
 20
1676166.693263
 30
2.5
 70
    32
  0
VERTEX
  5
649
100
AcDbEntity
  8
CURVASTG
  6
CONTINUO
 62
     2
100
AcDbVertex
100
AcDb3dPolylineVertex
 10
176725.407547
 20
1676168.253273
 30
2.5
 70
    32
  0
VERTEX
  5
64A
100
AcDbEntity
  8
CURVASTG
  6
CONTINUO
 62
     2
100
AcDbVertex
100
AcDb3dPolylineVertex
 10
176724.643206
 20
1676170.945283
 30
2.5
 70
    32
  0
VERTEX
  5
64B
100
AcDbEntity
  8
CURVASTG
  6
CONTINUO
 62
     2
100
AcDbVertex
100
AcDb3dPolylineVertex
 10
176722.76941
 20
1676174.174949
 30
2.5
 70
    32
  0
VERTEX
  5
64C
100
AcDbEntity
  8
CURVASTG
  6
CONTINUO
 62
     2
100
AcDbVertex
100
AcDb3dPolylineVertex
 10
176720.618983
 20
1676177.117249
 30
2.5
 70
    32
  0
VERTEX
  5
64D
100
AcDbEntity
  8
CURVASTG
  6
CONTINUO
 62
     2
100
AcDbVertex
100
AcDb3dPolylineVertex
 10
176718.80345
 20
1676179.158309
 30
2.5
 70
    32
  0
VERTEX
  5
64E
100
AcDbEntity
  8
CURVASTG
  6
CONTINUO
 62
     2
100
AcDbVertex
100
AcDb3dPolylineVertex
 10
176717.049135
 20
1676180.528856
 30
2.5
 70
    32
  0
VERTEX
  5
64F
100
AcDbEntity
  8
CURVASTG
  6
CONTINUO
 62
     2
100
AcDbVertex
100
AcDb3dPolylineVertex
 10
176714.861064
 20
1676181.670762
 30
2.5
 70
    32
  0
VERTEX
  5
650
100
AcDbEntity
  8
CURVASTG
  6
CONTINUO
 62
     2
100
AcDbVertex
100
AcDb3dPolylineVertex
 10
176711.903412
 20
1676182.92818
 30
2.5
 70
    32
  0
VERTEX
  5
651
100
AcDbEntity
  8
CURVASTG
  6
CONTINUO
 62
     2
100
AcDbVertex
100
AcDb3dPolylineVertex
 10
176708.476941
 20
1676184.254364
 30
2.5
 70
    32
  0
VERTEX
  5
652
100
AcDbEntity
  8
CURVASTG
  6
CONTINUO
 62
     2
100
AcDbVertex
100
AcDb3dPolylineVertex
 10
176705.041562
 20
1676185.504847
 30
2.5
 70
    32
  0
VERTEX
  5
653
100
AcDbEntity
  8
CURVASTG
  6
CONTINUO
 62
     2
100
AcDbVertex
100
AcDb3dPolylineVertex
 10
176701.994914
 20
1676186.568886
 30
2.5
 70
    32
  0
VERTEX
  5
654
100
AcDbEntity
  8
CURVASTG
  6
CONTINUO
 62
     2
100
AcDbVertex
100
AcDb3dPolylineVertex
 10
176699.485538
 20
1676187.470633
 30
2.5
 70
    32
  0
VERTEX
  5
655
100
AcDbEntity
  8
CURVASTG
  6
CONTINUO
 62
     2
100
AcDbVertex
100
AcDb3dPolylineVertex
 10
176697.599704
 20
1676188.267967
 30
2.5
 70
    32
  0
VERTEX
  5
656
100
AcDbEntity
  8
CURVASTG
  6
CONTINUO
 62
     2
100
AcDbVertex
100
AcDb3dPolylineVertex
 10
176696.321135
 20
1676189.077774
 30
2.5
 70
    32
  0
VERTEX
  5
657
100
AcDbEntity
  8
CURVASTG
  6
CONTINUO
 62
     2
100
AcDbVertex
100
AcDb3dPolylineVertex
 10
176695.223379
 20
1676190.252979
 30
2.5
 70
    32
  0
VERTEX
  5
658
100
AcDbEntity
  8
CURVASTG
  6
CONTINUO
 62
     2
100
AcDbVertex
100
AcDb3dPolylineVertex
 10
176693.777435
 20
1676192.205516
 30
2.5
 70
    32
  0
VERTEX
  5
659
100
AcDbEntity
  8
CURVASTG
  6
CONTINUO
 62
     2
100
AcDbVertex
100
AcDb3dPolylineVertex
 10
176691.618759
 20
1676195.228356
 30
2.5
 70
    32
  0
VERTEX
  5
65A
100
AcDbEntity
  8
CURVASTG
  6
CONTINUO
 62
     2
100
AcDbVertex
100
AcDb3dPolylineVertex
 10
176689.040612
 20
1676199.138622
 30
2.5
 70
    32
  0
VERTEX
  5
65B
100
AcDbEntity
  8
CURVASTG
  6
CONTINUO
 62
     2
100
AcDbVertex
100
AcDb3dPolylineVertex
 10
176686.500711
 20
1676203.634477
 30
2.5
 70
    32
  0
VERTEX
  5
65C
100
AcDbEntity
  8
CURVASTG
  6
CONTINUO
 62
     2
100
AcDbVertex
100
AcDb3dPolylineVertex
 10
176684.377608
 20
1676208.372595
 30
2.5
 70
    32
  0
VERTEX
  5
65D
100
AcDbEntity
  8
CURVASTG
  6
CONTINUO
 62
     2
100
AcDbVertex
100
AcDb3dPolylineVertex
 10
176682.733219
 20
1676212.843698
 30
2.5
 70
    32
  0
VERTEX
  5
65E
100
AcDbEntity
  8
CURVASTG
  6
CONTINUO
 62
     2
100
AcDbVertex
100
AcDb3dPolylineVertex
 10
176681.550295
 20
1676216.497021
 30
2.5
 70
    32
  0
VERTEX
  5
65F
100
AcDbEntity
  8
CURVASTG
  6
CONTINUO
 62
     2
100
AcDbVertex
100
AcDb3dPolylineVertex
 10
176680.801494
 20
1676218.958159
 30
2.5
 70
    32
  0
VERTEX
  5
660
100
AcDbEntity
  8
CURVASTG
  6
CONTINUO
 62
     2
100
AcDbVertex
100
AcDb3dPolylineVertex
 10
176680.419083
 20
1676220.558151
 30
2.5
 70
    32
  0
VERTEX
  5
661
100
AcDbEntity
  8
CURVASTG
  6
CONTINUO
 62
     2
100
AcDbVertex
100
AcDb3dPolylineVertex
 10
176680.325231
 20
1676221.804394
 30
2.5
 70
    32
  0
VERTEX
  5
662
100
AcDbEntity
  8
CURVASTG
  6
CONTINUO
 62
     2
100
AcDbVertex
100
AcDb3dPolylineVertex
 10
176680.454191
 20
1676223.178983
 30
2.5
 70
    32
  0
VERTEX
  5
663
100
AcDbEntity
  8
CURVASTG
  6
CONTINUO
 62
     2
100
AcDbVertex
100
AcDb3dPolylineVertex
 10
176680.788536
 20
1676225.062789
 30
2.5
 70
    32
  0
VERTEX
  5
664
100
AcDbEntity
  8
CURVASTG
  6
CONTINUO
 62
     2
100
AcDbVertex
100
AcDb3dPolylineVertex
 10
176681.322922
 20
1676227.811379
 30
2.5
 70
    32
  0
VERTEX
  5
665
100
AcDbEntity
  8
CURVASTG
  6
CONTINUO
 62
     2
100
AcDbVertex
100
AcDb3dPolylineVertex
 10
176682.045099
 20
1676231.579824
 30
2.5
 70
    32
  0
VERTEX
  5
666
100
AcDbEntity
  8
CURVASTG
  6
CONTINUO
 62
     2
100
AcDbVertex
100
AcDb3dPolylineVertex
 10
176682.915191
 20
1676235.721198
 30
2.5
 70
    32
  0
VERTEX
  5
667
100
AcDbEntity
  8
CURVASTG
  6
CONTINUO
 62
     2
100
AcDbVertex
100
AcDb3dPolylineVertex
 10
176683.88642
 20
1676239.388082
 30
2.5
 70
    32
  0
VERTEX
  5
668
100
AcDbEntity
  8
CURVASTG
  6
CONTINUO
 62
     2
100
AcDbVertex
100
AcDb3dPolylineVertex
 10
176684.993293
 20
1676241.996666
 30
2.5
 70
    32
  0
VERTEX
  5
669
100
AcDbEntity
  8
CURVASTG
  6
CONTINUO
 62
     2
100
AcDbVertex
100
AcDb3dPolylineVertex
 10
176686.595475
 20
1676244.017595
 30
2.5
 70
    32
  0
VERTEX
  5
66A
100
AcDbEntity
  8
CURVASTG
  6
CONTINUO
 62
     2
100
AcDbVertex
100
AcDb3dPolylineVertex
 10
176689.133918
 20
1676246.185127
 30
2.5
 70
    32
  0
VERTEX
  5
66B
100
AcDbEntity
  8
CURVASTG
  6
CONTINUO
 62
     2
100
AcDbVertex
100
AcDb3dPolylineVertex
 10
176692.815203
 20
1676249.000866
 30
2.5
 70
    32
  0
VERTEX
  5
66C
100
AcDbEntity
  8
CURVASTG
  6
CONTINUO
 62
     2
100
AcDbVertex
100
AcDb3dPolylineVertex
 10
176696.90842
 20
1676252.035799
 30
2.5
 70
    32
  0
VERTEX
  5
66D
100
AcDbEntity
  8
CURVASTG
  6
CONTINUO
 62
     2
100
AcDbVertex
100
AcDb3dPolylineVertex
 10
176700.448284
 20
1676254.628259
 30
2.5
 70
    32
  0
VERTEX
  5
66E
100
AcDbEntity
  8
CURVASTG
  6
CONTINUO
 62
     2
100
AcDbVertex
100
AcDb3dPolylineVertex
 10
176702.704746
 20
1676256.282529
 30
2.5
 70
    32
  0
VERTEX
  5
66F
100
AcDbEntity
  8
CURVASTG
  6
CONTINUO
 62
     2
100
AcDbVertex
100
AcDb3dPolylineVertex
 10
176703.888698
 20
1676257.166682
 30
2.5
 70
    32
  0
VERTEX
  5
670
100
AcDbEntity
  8
CURVASTG
  6
CONTINUO
 62
     2
100
AcDbVertex
100
AcDb3dPolylineVertex
 10
176704.446268
 20
1676257.614742
 30
2.5
 70
    32
  0
VERTEX
  5
671
100
AcDbEntity
  8
CURVASTG
  6
CONTINUO
 62
     2
100
AcDbVertex
100
AcDb3dPolylineVertex
 10
176704.757294
 20
1676257.942356
 30
2.5
 70
    32
  0
VERTEX
  5
672
100
AcDbEntity
  8
CURVASTG
  6
CONTINUO
 62
     2
100
AcDbVertex
100
AcDb3dPolylineVertex
 10
176704.936464
 20
1676258.391679
 30
2.5
 70
    32
  0
VERTEX
  5
673
100
AcDbEntity
  8
CURVASTG
  6
CONTINUO
 62
     2
100
AcDbVertex
100
AcDb3dPolylineVertex
 10
176705.032178
 20
1676259.186489
 30
2.5
 70
    32
  0
VERTEX
  5
674
100
AcDbEntity
  8
CURVASTG
  6
CONTINUO
 62
     2
100
AcDbVertex
100
AcDb3dPolylineVertex
 10
176704.98606
 20
1676260.385437
 30
2.5
 70
    32
  0
VERTEX
  5
675
100
AcDbEntity
  8
CURVASTG
  6
CONTINUO
 62
     2
100
AcDbVertex
100
AcDb3dPolylineVertex
 10
176704.312631
 20
1676261.386663
 30
2.5
 70
    32
  0
VERTEX
  5
676
100
AcDbEntity
  8
CURVASTG
  6
CONTINUO
 62
     2
100
AcDbVertex
100
AcDb3dPolylineVertex
 10
176702.419634
 20
1676261.423179
 30
2.5
 70
    32
  0
VERTEX
  5
677
100
AcDbEntity
  8
CURVASTG
  6
CONTINUO
 62
     2
100
AcDbVertex
100
AcDb3dPolylineVertex
 10
176699.014513
 20
1676260.013127
 30
2.5
 70
    32
  0
VERTEX
  5
678
100
AcDbEntity
  8
CURVASTG
  6
CONTINUO
 62
     2
100
AcDbVertex
100
AcDb3dPolylineVertex
 10
176695.003502
 20
1676257.81517
 30
2.5
 70
    32
  0
VERTEX
  5
679
100
AcDbEntity
  8
CURVASTG
  6
CONTINUO
 62
     2
100
AcDbVertex
100
AcDb3dPolylineVertex
 10
176691.592536
 20
1676255.773103
 30
2.5
 70
    32
  0
VERTEX
  5
67A
100
AcDbEntity
  8
CURVASTG
  6
CONTINUO
 62
     2
100
AcDbVertex
100
AcDb3dPolylineVertex
 10
176689.686226
 20
1676254.612326
 30
2.5
 70
    32
  0
VERTEX
  5
67B
100
AcDbEntity
  8
CURVASTG
  6
CONTINUO
 62
     2
100
AcDbVertex
100
AcDb3dPolylineVertex
 10
176688.983902
 20
1676254.184672
 30
2.5
 70
    32
  0
VERTEX
  5
67C
100
AcDbEntity
  8
CURVASTG
  6
CONTINUO
 62
     2
100
AcDbVertex
100
AcDb3dPolylineVertex
 10
176688.88357
 20
1676254.123578
 30
2.5
 70
    32
  0
SEQEND
  5
67D
100
AcDbEntity
  8
CURVASTG
  6
CONTINUO
 62
     2
  0
POLYLINE
  5
67E
100
AcDbEntity
  8
CURVASTG
  6
CONTINUO
 62
     2
100
AcDb3dPolyline
 66
     1
 10
0.0
 20
0.0
 30
2.5
 70
     8
  0
VERTEX
  5
67F
100
AcDbEntity
  8
CURVASTG
  6
CONTINUO
 62
     2
100
AcDbVertex
100
AcDb3dPolylineVertex
 10
176728.722934
 20
1676165.695259
 30
2.5
 70
    32
  0
VERTEX
  5
680
100
AcDbEntity
  8
CURVASTG
  6
CONTINUO
 62
     2
100
AcDbVertex
100
AcDb3dPolylineVertex
 10
176728.855306
 20
1676165.535264
 30
2.5
 70
    32
  0
SEQEND
  5
681
100
AcDbEntity
  8
CURVASTG
  6
CONTINUO
 62
     2
  0
TEXT
  5
682
100
AcDbEntity
  8
CURVASTG
 62
     2
100
AcDbText
 10
176729.060407
 20
1676164.699091
 30
2.5
 40
0.75
  1
2.500
 50
309.602694
 41
0.699986
  7
SIMPLEX
100
AcDbText
  0
POLYLINE
  5
683
100
AcDbEntity
  8
CURVASTG
  6
CONTINUO
 62
     2
100
AcDb3dPolyline
 66
     1
 10
0.0
 20
0.0
 30
2.5
 70
     8
  0
VERTEX
  5
684
100
AcDbEntity
  8
CURVASTG
  6
CONTINUO
 62
     2
100
AcDbVertex
100
AcDb3dPolylineVertex
 10
176731.277655
 20
1676162.607427
 30
2.5
 70
    32
  0
VERTEX
  5
685
100
AcDbEntity
  8
CURVASTG
  6
CONTINUO
 62
     2
100
AcDbVertex
100
AcDb3dPolylineVertex
 10
176731.410027
 20
1676162.447432
 30
2.5
 70
    32
  0
VERTEX
  5
686
100
AcDbEntity
  8
CURVASTG
  6
CONTINUO
 62
     2
100
AcDbVertex
100
AcDb3dPolylineVertex
 10
176733.24204
 20
1676160.286488
 30
2.5
 70
    32
  0
VERTEX
  5
687
100
AcDbEntity
  8
CURVASTG
  6
CONTINUO
 62
     2
100
AcDbVertex
100
AcDb3dPolylineVertex
 10
176734.943206
 20
1676158.385463
 30
2.5
 70
    32
  0
VERTEX
  5
688
100
AcDbEntity
  8
CURVASTG
  6
CONTINUO
 62
     2
100
AcDbVertex
100
AcDb3dPolylineVertex
 10
176736.154198
 20
1676157.196095
 30
2.5
 70
    32
  0
VERTEX
  5
689
100
AcDbEntity
  8
CURVASTG
  6
CONTINUO
 62
     2
100
AcDbVertex
100
AcDb3dPolylineVertex
 10
176736.919377
 20
1676156.543396
 30
2.5
 70
    32
  0
VERTEX
  5
68A
100
AcDbEntity
  8
CURVASTG
  6
CONTINUO
 62
     2
100
AcDbVertex
100
AcDb3dPolylineVertex
 10
176737.384029
 20
1676156.095693
 30
2.5
 70
    32
  0
VERTEX
  5
68B
100
AcDbEntity
  8
CURVASTG
  6
CONTINUO
 62
     2
100
AcDbVertex
100
AcDb3dPolylineVertex
 10
176737.64773
 20
1676155.586684
 30
2.5
 70
    32
  0
VERTEX
  5
68C
100
AcDbEntity
  8
CURVASTG
  6
CONTINUO
 62
     2
100
AcDbVertex
100
AcDb3dPolylineVertex
 10
176737.627211
 20
1676155.011539
 30
2.5
 70
    32
  0
VERTEX
  5
68D
100
AcDbEntity
  8
CURVASTG
  6
CONTINUO
 62
     2
100
AcDbVertex
100
AcDb3dPolylineVertex
 10
176737.193496
 20
1676154.430801
 30
2.5
 70
    32
  0
VERTEX
  5
68E
100
AcDbEntity
  8
CURVASTG
  6
CONTINUO
 62
     2
100
AcDbVertex
100
AcDb3dPolylineVertex
 10
176736.294374
 20
1676153.90462
 30
2.5
 70
    32
  0
VERTEX
  5
68F
100
AcDbEntity
  8
CURVASTG
  6
CONTINUO
 62
     2
100
AcDbVertex
100
AcDb3dPolylineVertex
 10
176735.184697
 20
1676153.491584
 30
2.5
 70
    32
  0
VERTEX
  5
690
100
AcDbEntity
  8
CURVASTG
  6
CONTINUO
 62
     2
100
AcDbVertex
100
AcDb3dPolylineVertex
 10
176734.196087
 20
1676153.249893
 30
2.5
 70
    32
  0
VERTEX
  5
691
100
AcDbEntity
  8
CURVASTG
  6
CONTINUO
 62
     2
100
AcDbVertex
100
AcDb3dPolylineVertex
 10
176733.55528
 20
1676153.286551
 30
2.5
 70
    32
  0
VERTEX
  5
692
100
AcDbEntity
  8
CURVASTG
  6
CONTINUO
 62
     2
100
AcDbVertex
100
AcDb3dPolylineVertex
 10
176733.069483
 20
1676153.903774
 30
2.5
 70
    32
  0
VERTEX
  5
693
100
AcDbEntity
  8
CURVASTG
  6
CONTINUO
 62
     2
100
AcDbVertex
100
AcDb3dPolylineVertex
 10
176732.44102
 20
1676155.452586
 30
2.5
 70
    32
  0
VERTEX
  5
694
100
AcDbEntity
  8
CURVASTG
  6
CONTINUO
 62
     2
100
AcDbVertex
100
AcDb3dPolylineVertex
 10
176731.473321
 20
1676158.079146
 30
2.5
 70
    32
  0
VERTEX
  5
695
100
AcDbEntity
  8
CURVASTG
  6
CONTINUO
 62
     2
100
AcDbVertex
100
AcDb3dPolylineVertex
 10
176730.374231
 20
1676161.110166
 30
2.5
 70
    32
  0
VERTEX
  5
696
100
AcDbEntity
  8
CURVASTG
  6
CONTINUO
 62
     2
100
AcDbVertex
100
AcDb3dPolylineVertex
 10
176729.452701
 20
1676163.667494
 30
2.5
 70
    32
  0
VERTEX
  5
697
100
AcDbEntity
  8
CURVASTG
  6
CONTINUO
 62
     2
100
AcDbVertex
100
AcDb3dPolylineVertex
 10
176728.939161
 20
1676165.094439
 30
2.5
 70
    32
  0
VERTEX
  5
698
100
AcDbEntity
  8
CURVASTG
  6
CONTINUO
 62
     2
100
AcDbVertex
100
AcDb3dPolylineVertex
 10
176728.749963
 20
1676165.620156
 30
2.5
 70
    32
  0
VERTEX
  5
699
100
AcDbEntity
  8
CURVASTG
  6
CONTINUO
 62
     2
100
AcDbVertex
100
AcDb3dPolylineVertex
 10
176728.722934
 20
1676165.695259
 30
2.5
 70
    32
  0
SEQEND
  5
69A
100
AcDbEntity
  8
CURVASTG
  6
CONTINUO
 62
     2
  0
POLYLINE
  5
69B
100
AcDbEntity
  8
CURVASTG
  6
CONTINUO
 62
    54
100
AcDb3dPolyline
 66
     1
 10
0.0
 20
0.0
 30
2.0
 70
     8
  0
VERTEX
  5
69C
100
AcDbEntity
  8
CURVASTG
  6
CONTINUO
 62
    54
100
AcDbVertex
100
AcDb3dPolylineVertex
 10
176681.927947
 20
1676241.055361
 30
2.0
 70
    32
  0
VERTEX
  5
69D
100
AcDbEntity
  8
CURVASTG
  6
CONTINUO
 62
    54
100
AcDbVertex
100
AcDb3dPolylineVertex
 10
176682.038358
 20
1676241.664581
 30
2.0
 70
    32
  0
VERTEX
  5
69E
100
AcDbEntity
  8
CURVASTG
  6
CONTINUO
 62
    54
100
AcDbVertex
100
AcDb3dPolylineVertex
 10
176682.115484
 20
1676242.069128
 30
2.0
 70
    32
  0
VERTEX
  5
69F
100
AcDbEntity
  8
CURVASTG
  6
CONTINUO
 62
    54
100
AcDbVertex
100
AcDb3dPolylineVertex
 10
176682.190762
 20
1676242.423398
 30
2.0
 70
    32
  0
VERTEX
  5
6A0
100
AcDbEntity
  8
CURVASTG
  6
CONTINUO
 62
    54
100
AcDbVertex
100
AcDb3dPolylineVertex
 10
176682.265699
 20
1676242.651286
 30
2.0
 70
    32
  0
VERTEX
  5
6A1
100
AcDbEntity
  8
CURVASTG
  6
CONTINUO
 62
    54
100
AcDbVertex
100
AcDb3dPolylineVertex
 10
176682.416246
 20
1676242.831891
 30
2.0
 70
    32
  0
VERTEX
  5
6A2
100
AcDbEntity
  8
CURVASTG
  6
CONTINUO
 62
    54
100
AcDbVertex
100
AcDb3dPolylineVertex
 10
176682.736964
 20
1676243.083114
 30
2.0
 70
    32
  0
VERTEX
  5
6A3
100
AcDbEntity
  8
CURVASTG
  6
CONTINUO
 62
    54
100
AcDbVertex
100
AcDb3dPolylineVertex
 10
176683.261457
 20
1676243.472303
 30
2.0
 70
    32
  0
VERTEX
  5
6A4
100
AcDbEntity
  8
CURVASTG
  6
CONTINUO
 62
    54
100
AcDbVertex
100
AcDb3dPolylineVertex
 10
176683.779497
 20
1676243.864606
 30
2.0
 70
    32
  0
VERTEX
  5
6A5
100
AcDbEntity
  8
CURVASTG
  6
CONTINUO
 62
    54
100
AcDbVertex
100
AcDb3dPolylineVertex
 10
176684.019901
 20
1676244.074622
 30
2.0
 70
    32
  0
VERTEX
  5
6A6
100
AcDbEntity
  8
CURVASTG
  6
CONTINUO
 62
    54
100
AcDbVertex
100
AcDb3dPolylineVertex
 10
176683.802207
 20
1676243.977431
 30
2.0
 70
    32
  0
VERTEX
  5
6A7
100
AcDbEntity
  8
CURVASTG
  6
CONTINUO
 62
    54
100
AcDbVertex
100
AcDb3dPolylineVertex
 10
176683.308858
 20
1676243.690055
 30
2.0
 70
    32
  0
VERTEX
  5
6A8
100
AcDbEntity
  8
CURVASTG
  6
CONTINUO
 62
    54
100
AcDbVertex
100
AcDb3dPolylineVertex
 10
176682.813023
 20
1676243.389996
 30
2.0
 70
    32
  0
VERTEX
  5
6A9
100
AcDbEntity
  8
CURVASTG
  6
CONTINUO
 62
    54
100
AcDbVertex
100
AcDb3dPolylineVertex
 10
176682.527303
 20
1676243.216017
 30
2.0
 70
    32
  0
VERTEX
  5
6AA
100
AcDbEntity
  8
CURVASTG
  6
CONTINUO
 62
    54
100
AcDbVertex
100
AcDb3dPolylineVertex
 10
176682.422038
 20
1676243.15192
 30
2.0
 70
    32
  0
VERTEX
  5
6AB
100
AcDbEntity
  8
CURVASTG
  6
CONTINUO
 62
    54
100
AcDbVertex
100
AcDb3dPolylineVertex
 10
176682.407
 20
1676243.142763
 30
2.0
 70
    32
  0
SEQEND
  5
6AC
100
AcDbEntity
  8
CURVASTG
  6
CONTINUO
 62
    54
  0
POLYLINE
  5
6AD
100
AcDbEntity
  8
CURVASTG
  6
CONTINUO
 62
    54
100
AcDb3dPolyline
 66
     1
 10
0.0
 20
0.0
 30
2.0
 70
     9
  0
VERTEX
  5
6AE
100
AcDbEntity
  8
CURVASTG
  6
CONTINUO
 62
    54
100
AcDbVertex
100
AcDb3dPolylineVertex
 10
176706.208628
 20
1676182.991704
 30
2.0
 70
    32
  0
VERTEX
  5
6AF
100
AcDbEntity
  8
CURVASTG
  6
CONTINUO
 62
    54
100
AcDbVertex
100
AcDb3dPolylineVertex
 10
176710.457153
 20
1676181.386284
 30
2.0
 70
    32
  0
VERTEX
  5
6B0
100
AcDbEntity
  8
CURVASTG
  6
CONTINUO
 62
    54
100
AcDbVertex
100
AcDb3dPolylineVertex
 10
176713.297761
 20
1676180.293815
 30
2.0
 70
    32
  0
VERTEX
  5
6B1
100
AcDbEntity
  8
CURVASTG
  6
CONTINUO
 62
    54
100
AcDbVertex
100
AcDb3dPolylineVertex
 10
176715.824775
 20
1676179.283483
 30
2.0
 70
    32
  0
VERTEX
  5
6B2
100
AcDbEntity
  8
CURVASTG
  6
CONTINUO
 62
    54
100
AcDbVertex
100
AcDb3dPolylineVertex
 10
176717.459338
 20
1676178.541732
 30
2.0
 70
    32
  0
VERTEX
  5
6B3
100
AcDbEntity
  8
CURVASTG
  6
CONTINUO
 62
    54
100
AcDbVertex
100
AcDb3dPolylineVertex
 10
176718.4366
 20
1676177.892744
 30
2.0
 70
    32
  0
VERTEX
  5
6B4
100
AcDbEntity
  8
CURVASTG
  6
CONTINUO
 62
    54
100
AcDbVertex
100
AcDb3dPolylineVertex
 10
176719.195214
 20
1676177.070133
 30
2.0
 70
    32
  0
VERTEX
  5
6B5
100
AcDbEntity
  8
CURVASTG
  6
CONTINUO
 62
    54
100
AcDbVertex
100
AcDb3dPolylineVertex
 10
176720.045818
 20
1676175.906302
 30
2.0
 70
    32
  0
VERTEX
  5
6B6
100
AcDbEntity
  8
CURVASTG
  6
CONTINUO
 62
    54
100
AcDbVertex
100
AcDb3dPolylineVertex
 10
176720.787001
 20
1676174.628804
 30
2.0
 70
    32
  0
VERTEX
  5
6B7
100
AcDbEntity
  8
CURVASTG
  6
CONTINUO
 62
    54
100
AcDbVertex
100
AcDb3dPolylineVertex
 10
176721.089337
 20
1676173.563976
 30
2.0
 70
    32
  0
VERTEX
  5
6B8
100
AcDbEntity
  8
CURVASTG
  6
CONTINUO
 62
    54
100
AcDbVertex
100
AcDb3dPolylineVertex
 10
176720.72711
 20
1676172.946912
 30
2.0
 70
    32
  0
VERTEX
  5
6B9
100
AcDbEntity
  8
CURVASTG
  6
CONTINUO
 62
    54
100
AcDbVertex
100
AcDb3dPolylineVertex
 10
176719.88943
 20
1676172.647721
 30
2.0
 70
    32
  0
VERTEX
  5
6BA
100
AcDbEntity
  8
CURVASTG
  6
CONTINUO
 62
    54
100
AcDbVertex
100
AcDb3dPolylineVertex
 10
176718.869116
 20
1676172.445265
 30
2.0
 70
    32
  0
VERTEX
  5
6BB
100
AcDbEntity
  8
CURVASTG
  6
CONTINUO
 62
    54
100
AcDbVertex
100
AcDb3dPolylineVertex
 10
176717.858364
 20
1676172.241474
 30
2.0
 70
    32
  0
VERTEX
  5
6BC
100
AcDbEntity
  8
CURVASTG
  6
CONTINUO
 62
    54
100
AcDbVertex
100
AcDb3dPolylineVertex
 10
176716.646893
 20
1676172.430536
 30
2.0
 70
    32
  0
VERTEX
  5
6BD
100
AcDbEntity
  8
CURVASTG
  6
CONTINUO
 62
    54
100
AcDbVertex
100
AcDb3dPolylineVertex
 10
176714.923802
 20
1676173.529704
 30
2.0
 70
    32
  0
VERTEX
  5
6BE
100
AcDbEntity
  8
CURVASTG
  6
CONTINUO
 62
    54
100
AcDbVertex
100
AcDb3dPolylineVertex
 10
176712.537114
 20
1676175.819102
 30
2.0
 70
    32
  0
VERTEX
  5
6BF
100
AcDbEntity
  8
CURVASTG
  6
CONTINUO
 62
    54
100
AcDbVertex
100
AcDb3dPolylineVertex
 10
176709.970558
 20
1676178.630332
 30
2.0
 70
    32
  0
VERTEX
  5
6C0
100
AcDbEntity
  8
CURVASTG
  6
CONTINUO
 62
    54
100
AcDbVertex
100
AcDb3dPolylineVertex
 10
176707.866788
 20
1676181.057864
 30
2.0
 70
    32
  0
VERTEX
  5
6C1
100
AcDbEntity
  8
CURVASTG
  6
CONTINUO
 62
    54
100
AcDbVertex
100
AcDb3dPolylineVertex
 10
176706.699935
 20
1676182.418714
 30
2.0
 70
    32
  0
VERTEX
  5
6C2
100
AcDbEntity
  8
CURVASTG
  6
CONTINUO
 62
    54
100
AcDbVertex
100
AcDb3dPolylineVertex
 10
176706.270042
 20
1676182.92008
 30
2.0
 70
    32
  0
VERTEX
  5
6C3
100
AcDbEntity
  8
CURVASTG
  6
CONTINUO
 62
    54
100
AcDbVertex
100
AcDb3dPolylineVertex
 10
176706.208628
 20
1676182.991704
 30
2.0
 70
    32
  0
SEQEND
  5
6C4
100
AcDbEntity
  8
CURVASTG
  6
CONTINUO
 62
    54
  0
POLYLINE
  5
6C5
100
AcDbEntity
  8
CURVASTG
  6
CONTINUO
 62
    54
100
AcDb3dPolyline
 66
     1
 10
0.0
 20
0.0
 30
2.0
 70
     9
  0
VERTEX
  5
6C6
100
AcDbEntity
  8
CURVASTG
  6
CONTINUO
 62
    54
100
AcDbVertex
100
AcDb3dPolylineVertex
 10
176733.871936
 20
1676157.884046
 30
2.0
 70
    32
  0
VERTEX
  5
6C7
100
AcDbEntity
  8
CURVASTG
  6
CONTINUO
 62
    54
100
AcDbVertex
100
AcDb3dPolylineVertex
 10
176734.385005
 20
1676157.263911
 30
2.0
 70
    32
  0
VERTEX
  5
6C8
100
AcDbEntity
  8
CURVASTG
  6
CONTINUO
 62
    54
100
AcDbVertex
100
AcDb3dPolylineVertex
 10
176734.734807
 20
1676156.851304
 30
2.0
 70
    32
  0
VERTEX
  5
6C9
100
AcDbEntity
  8
CURVASTG
  6
CONTINUO
 62
    54
100
AcDbVertex
100
AcDb3dPolylineVertex
 10
176735.059625
 20
1676156.488325
 30
2.0
 70
    32
  0
VERTEX
  5
6CA
100
AcDbEntity
  8
CURVASTG
  6
CONTINUO
 62
    54
100
AcDbVertex
100
AcDb3dPolylineVertex
 10
176735.29085
 20
1676156.261229
 30
2.0
 70
    32
  0
VERTEX
  5
6CB
100
AcDbEntity
  8
CURVASTG
  6
CONTINUO
 62
    54
100
AcDbVertex
100
AcDb3dPolylineVertex
 10
176735.436952
 20
1676156.136603
 30
2.0
 70
    32
  0
VERTEX
  5
6CC
100
AcDbEntity
  8
CURVASTG
  6
CONTINUO
 62
    54
100
AcDbVertex
100
AcDb3dPolylineVertex
 10
176735.525672
 20
1676156.051119
 30
2.0
 70
    32
  0
VERTEX
  5
6CD
100
AcDbEntity
  8
CURVASTG
  6
CONTINUO
 62
    54
100
AcDbVertex
100
AcDb3dPolylineVertex
 10
176735.576023
 20
1676155.95393
 30
2.0
 70
    32
  0
VERTEX
  5
6CE
100
AcDbEntity
  8
CURVASTG
  6
CONTINUO
 62
    54
100
AcDbVertex
100
AcDb3dPolylineVertex
 10
176735.572105
 20
1676155.844113
 30
2.0
 70
    32
  0
VERTEX
  5
6CF
100
AcDbEntity
  8
CURVASTG
  6
CONTINUO
 62
    54
100
AcDbVertex
100
AcDb3dPolylineVertex
 10
176735.489292
 20
1676155.733227
 30
2.0
 70
    32
  0
VERTEX
  5
6D0
100
AcDbEntity
  8
CURVASTG
  6
CONTINUO
 62
    54
100
AcDbVertex
100
AcDb3dPolylineVertex
 10
176735.317615
 20
1676155.632759
 30
2.0
 70
    32
  0
VERTEX
  5
6D1
100
AcDbEntity
  8
CURVASTG
  6
CONTINUO
 62
    54
100
AcDbVertex
100
AcDb3dPolylineVertex
 10
176735.105735
 20
1676155.553895
 30
2.0
 70
    32
  0
VERTEX
  5
6D2
100
AcDbEntity
  8
CURVASTG
  6
CONTINUO
 62
    54
100
AcDbVertex
100
AcDb3dPolylineVertex
 10
176734.916971
 20
1676155.507747
 30
2.0
 70
    32
  0
VERTEX
  5
6D3
100
AcDbEntity
  8
CURVASTG
  6
CONTINUO
 62
    54
100
AcDbVertex
100
AcDb3dPolylineVertex
 10
176734.794616
 20
1676155.514746
 30
2.0
 70
    32
  0
VERTEX
  5
6D4
100
AcDbEntity
  8
CURVASTG
  6
CONTINUO
 62
    54
100
AcDbVertex
100
AcDb3dPolylineVertex
 10
176734.701859
 20
1676155.632598
 30
2.0
 70
    32
  0
VERTEX
  5
6D5
100
AcDbEntity
  8
CURVASTG
  6
CONTINUO
 62
    54
100
AcDbVertex
100
AcDb3dPolylineVertex
 10
176734.581861
 20
1676155.928325
 30
2.0
 70
    32
  0
VERTEX
  5
6D6
100
AcDbEntity
  8
CURVASTG
  6
CONTINUO
 62
    54
100
AcDbVertex
100
AcDb3dPolylineVertex
 10
176734.39709
 20
1676156.429837
 30
2.0
 70
    32
  0
VERTEX
  5
6D7
100
AcDbEntity
  8
CURVASTG
  6
CONTINUO
 62
    54
100
AcDbVertex
100
AcDb3dPolylineVertex
 10
176734.187232
 20
1676157.008575
 30
2.0
 70
    32
  0
VERTEX
  5
6D8
100
AcDbEntity
  8
CURVASTG
  6
CONTINUO
 62
    54
100
AcDbVertex
100
AcDb3dPolylineVertex
 10
176734.011276
 20
1676157.496868
 30
2.0
 70
    32
  0
VERTEX
  5
6D9
100
AcDbEntity
  8
CURVASTG
  6
CONTINUO
 62
    54
100
AcDbVertex
100
AcDb3dPolylineVertex
 10
176733.913222
 20
1676157.769327
 30
2.0
 70
    32
  0
VERTEX
  5
6DA
100
AcDbEntity
  8
CURVASTG
  6
CONTINUO
 62
    54
100
AcDbVertex
100
AcDb3dPolylineVertex
 10
176733.877096
 20
1676157.869706
 30
2.0
 70
    32
  0
VERTEX
  5
6DB
100
AcDbEntity
  8
CURVASTG
  6
CONTINUO
 62
    54
100
AcDbVertex
100
AcDb3dPolylineVertex
 10
176733.871936
 20
1676157.884046
 30
2.0
 70
    32
  0
SEQEND
  5
6DC
100
AcDbEntity
  8
CURVASTG
  6
CONTINUO
 62
    54
  0
ENDSEC
  0
SECTION
  2
OBJECTS
  0
DICTIONARY
  5
19
100
AcDbDictionary
  3
ACAD_GROUP
350
1A
  3
ACAD_MLINESTYLE
350
1B
  0
DICTIONARY
  5
1A
102
{ACAD_REACTORS
330
19
102
}
100
AcDbDictionary
  0
DICTIONARY
  5
1B
102
{ACAD_REACTORS
330
19
102
}
100
AcDbDictionary
  3
STANDARD
350
1C
  0
MLINESTYLE
  5
1C
102
{ACAD_REACTORS
330
1B
102
}
100
AcDbMlineStyle
  2
STANDARD
 70
     0
  3

 62
     0
 51
90.0
 52
90.0
 71
     2
 49
0.5
 62
   256
  6
BYLAYER
 49
-0.5
 62
   256
  6
BYLAYER
  0
ENDSEC
  0
EOF
