  0
SECTION
  2
HEADER
  9
$ACADVER
  1
AC1014
  9
$ACADMAINTVER
 70
     0
  9
$DWGCODEPAGE
  3
ANSI_1252
  9
$INSBASE
 10
0.0
 20
0.0
 30
0.0
  9
$EXTMIN
 10
185130.278928
 20
1674691.780947
 30
0.0
  9
$EXTMAX
 10
186105.847847
 20
1675299.645864
 30
0.0
  9
$LIMMIN
 10
0.0
 20
0.0
  9
$LIMMAX
 10
0.0
 20
0.0
  9
$ORTHOMODE
 70
     0
  9
$REGENMODE
 70
     1
  9
$FILLMODE
 70
     1
  9
$QTEXTMODE
 70
     0
  9
$MIRRTEXT
 70
     1
  9
$DRAGMODE
 70
     2
  9
$LTSCALE
 40
1.0
  9
$OSMODE
 70
     0
  9
$ATTMODE
 70
     1
  9
$TEXTSIZE
 40
0.2
  9
$TRACEWID
 40
0.05
  9
$TEXTSTYLE
  7
STANDARD
  9
$CLAYER
  8
0
  9
$CELTYPE
  6
CONTINUOUS
  9
$CECOLOR
 62
   256
  9
$CELTSCALE
 40
1.0
  9
$DELOBJ
 70
     1
  9
$DISPSILH
 70
     0
  9
$DIMSCALE
 40
1.0
  9
$DIMASZ
 40
0.18
  9
$DIMEXO
 40
0.0625
  9
$DIMDLI
 40
0.38
  9
$DIMRND
 40
0.0
  9
$DIMDLE
 40
0.0
  9
$DIMEXE
 40
0.18
  9
$DIMTP
 40
0.0
  9
$DIMTM
 40
0.0
  9
$DIMTXT
 40
0.18
  9
$DIMCEN
 40
0.09
  9
$DIMTSZ
 40
0.0
  9
$DIMTOL
 70
     0
  9
$DIMLIM
 70
     0
  9
$DIMTIH
 70
     1
  9
$DIMTOH
 70
     1
  9
$DIMSE1
 70
     0
  9
$DIMSE2
 70
     0
  9
$DIMTAD
 70
     0
  9
$DIMZIN
 70
     0
  9
$DIMBLK
  1

  9
$DIMASO
 70
     1
  9
$DIMSHO
 70
     1
  9
$DIMPOST
  1

  9
$DIMAPOST
  1

  9
$DIMALT
 70
     0
  9
$DIMALTD
 70
     2
  9
$DIMALTF
 40
25.4
  9
$DIMLFAC
 40
1.0
  9
$DIMTOFL
 70
     0
  9
$DIMTVP
 40
0.0
  9
$DIMTIX
 70
     0
  9
$DIMSOXD
 70
     0
  9
$DIMSAH
 70
     0
  9
$DIMBLK1
  1

  9
$DIMBLK2
  1

  9
$DIMSTYLE
  2
STANDARD
  9
$DIMCLRD
 70
     0
  9
$DIMCLRE
 70
     0
  9
$DIMCLRT
 70
     0
  9
$DIMTFAC
 40
1.0
  9
$DIMGAP
 40
0.09
  9
$DIMJUST
 70
     0
  9
$DIMSD1
 70
     0
  9
$DIMSD2
 70
     0
  9
$DIMTOLJ
 70
     1
  9
$DIMTZIN
 70
     0
  9
$DIMALTZ
 70
     0
  9
$DIMALTTZ
 70
     0
  9
$DIMFIT
 70
     3
  9
$DIMUPT
 70
     0
  9
$DIMUNIT
 70
     2
  9
$DIMDEC
 70
     4
  9
$DIMTDEC
 70
     4
  9
$DIMALTU
 70
     2
  9
$DIMALTTD
 70
     2
  9
$DIMTXSTY
  7
STANDARD
  9
$DIMAUNIT
 70
     0
  9
$LUNITS
 70
     2
  9
$LUPREC
 70
     4
  9
$SKETCHINC
 40
0.1
  9
$FILLETRAD
 40
0.0
  9
$AUNITS
 70
     0
  9
$AUPREC
 70
     0
  9
$MENU
  1
acad
  9
$ELEVATION
 40
0.0
  9
$PELEVATION
 40
0.0
  9
$THICKNESS
 40
0.0
  9
$LIMCHECK
 70
     0
  9
$BLIPMODE
 70
     1
  9
$CHAMFERA
 40
0.0
  9
$CHAMFERB
 40
0.0
  9
$CHAMFERC
 40
0.0
  9
$CHAMFERD
 40
0.0
  9
$SKPOLY
 70
     0
  9
$TDCREATE
 40
0.000000000
  9
$TDUPDATE
 40
0.000000000
  9
$TDINDWG
 40
0.0000000000
  9
$TDUSRTIMER
 40
0.0000000000
  9
$USRTIMER
 70
     1
  9
$ANGBASE
 50
0.0
  9
$ANGDIR
 70
     0
  9
$PDMODE
 70
     0
  9
$PDSIZE
 40
0.0
  9
$PLINEWID
 40
0.0
  9
$COORDS
 70
     0
  9
$SPLFRAME
 70
     0
  9
$SPLINETYPE
 70
     6
  9
$SPLINESEGS
 70
     8
  9
$ATTDIA
 70
     0
  9
$ATTREQ
 70
     1
  9
$HANDLING
 70
     1
  9
$HANDSEED
  5
225
  9
$SURFTAB1
 70
     6
  9
$SURFTAB2
 70
     6
  9
$SURFTYPE
 70
     6
  9
$SURFU
 70
     6
  9
$SURFV
 70
     6
  9
$UCSNAME
  2

  9
$UCSORG
 10
0.0
 20
0.0
 30
0.0
  9
$UCSXDIR
 10
1.0
 20
0.0
 30
0.0
  9
$UCSYDIR
 10
0.0
 20
1.0
 30
0.0
  9
$PUCSNAME
  2

  9
$PUCSORG
 10
0.0
 20
0.0
 30
0.0
  9
$PUCSXDIR
 10
1.0
 20
0.0
 30
0.0
  9
$PUCSYDIR
 10
0.0
 20
1.0
 30
0.0
  9
$USERI1
 70
     0
  9
$USERI2
 70
     0
  9
$USERI3
 70
     0
  9
$USERI4
 70
     0
  9
$USERI5
 70
     0
  9
$USERR1
 40
0.0
  9
$USERR2
 40
0.0
  9
$USERR3
 40
0.0
  9
$USERR4
 40
0.0
  9
$USERR5
 40
0.0
  9
$WORLDVIEW
 70
     1
  9
$SHADEDGE
 70
     3
  9
$SHADEDIF
 70
    70
  9
$TILEMODE
 70
     1
  9
$MAXACTVP
 70
    16
  9
$PINSBASE
 10
0.0
 20
0.0
 30
0.0
  9
$PLIMCHECK
 70
     0
  9
$PEXTMIN
 10
1.000000E+20
 20
1.000000E+20
 30
1.000000E+20
  9
$PEXTMAX
 10
-1.000000E+20
 20
-1.000000E+20
 30
-1.000000E+20
  9
$PLIMMIN
 10
0.0
 20
0.0
  9
$PLIMMAX
 10
12.0
 20
9.0
  9
$UNITMODE
 70
     0
  9
$VISRETAIN
 70
     0
  9
$PLINEGEN
 70
     1
  9
$PSLTSCALE
 70
     0
  9
$TREEDEPTH
 70
  3020
  9
$PICKSTYLE
 70
     1
  9
$CMLSTYLE
  2
STANDARD
  9
$CMLJUST
 70
     0
  9
$CMLSCALE
 40
1.0
  9
$PROXYGRAPHICS
 70
     0
  9
$MEASUREMENT
 70
     0
  0
ENDSEC
  0
SECTION
  2
CLASSES
  0
CLASS
  1
LWPOLYLINE
  2
AcDbPolyline
  3
"AutoCAD"
 90
        0
280
     0
281
     1
  0
CLASS
  1
IMAGE
  2
AcDbRasterImage
  3
ISM
 90
      127
280
     0
281
     1
  0
CLASS
  1
OLE2FRAME
  2
AcDbOle2Frame
  3
""
 90
        0
280
     0
281
     1
  0
CLASS
  1
HATCH
  2
AcDbHatch
  3
"ACAD_SEDONA"
 90
        0
280
     0
281
     1
  0
CLASS
  1
DICTIONARYVAR
  2
AcDbDictionaryVar
  3
"AutoCAD"
 90
        0
280
     0
281
     0
  0
CLASS
  1
RASTERVARIABLES
  2
AcDbRasterVariables
  3
ISM
 90
        0
280
     0
281
     0
  0
CLASS
  1
IMAGEDEF
  2
AcDbRasterImageDef
  3
ISM
 90
        0
280
     0
281
     0
  0
CLASS
  1
IMAGEDEF_REACTOR
  2
AcDbRasterImageDefReactor
  3
ISM
 90
        1
280
     0
281
     0
  0
CLASS
  1
IDBUFFER
  2
AcDbIdBuffer
  3
"Acad"
 90
        0
280
     0
281
     0
  0
CLASS
  1
SPATIAL_FILTER
  2
AcDbSpatialFilter
  3
"Acad"
 90
        0
280
     0
281
     0
  0
CLASS
  1
XRECORD
  2
AcDbXrecord
  3
"<Built In>"
 90
        0
280
     0
281
     0
  0
CLASS
  1
SORTENTSTABLE
  2
AcDbSortentsTable
  3
"AutoCAD"
 90
        0
280
     0
281
     0
  0
CLASS
  1
LAYER_INDEX
  2
AcDbLayerIndex
  3
"Acad"
 90
        0
280
     0
281
     0
  0
CLASS
  1
SPATIAL_INDEX
  2
AcDbSpatialIndex
  3
"Acad"
 90
        0
280
     0
281
     0
  0
CLASS
  1
OBJECT_PTR
  2
CAseDLPNTableRecord
  3
"ASE-LPNTableRecord"
 90
        1
280
     0
281
     0
  0
ENDSEC
  0
SECTION
  2
TABLES
  0
TABLE
  2
VPORT
  5
7
100
AcDbSymbolTable
 70
     1
  0
VPORT
  5
15
100
AcDbSymbolTableRecord
100
AcDbViewportTableRecord
  2
*ACTIVE
 70
     0
 10
0.0
 20
0.0
 11
1.0
 21
1.0
 12
6.591288
 22
4.579184
 13
0.0
 23
0.0
 14
1.0
 24
1.0
 15
0.0
 25
0.0
 16
0.0
 26
0.0
 36
1.0
 17
0.0
 27
0.0
 37
0.0
 40
9.158369
 41
0.688564
 42
50.0
 43
0.0
 44
0.0
 50
0.0
 51
0.0
 71
     0
 72
   100
 73
     1
 74
     1
 75
     0
 76
     0
 77
     0
 78
     0
  0
ENDTAB
  0
TABLE
  2
LTYPE
  5
4
100
AcDbSymbolTable
 70
    10
  0
LTYPE
  5
11
100
AcDbSymbolTableRecord
100
AcDbLinetypeTableRecord
  2
BYBLOCK
 70
     0
  3

 72
    65
 73
     0
 40
0.0
  0
LTYPE
  5
12
100
AcDbSymbolTableRecord
100
AcDbLinetypeTableRecord
  2
BYLAYER
 70
     0
  3

 72
    65
 73
     0
 40
0.0
  0
LTYPE
  5
13
100
AcDbSymbolTableRecord
100
AcDbLinetypeTableRecord
  2
CONTINUOUS
 70
     0
  3
Solid line
 72
    65
 73
     0
 40
0.0
  0
LTYPE
  5
1D
100
AcDbSymbolTableRecord
100
AcDbLinetypeTableRecord
  2
TRACEJADO
 70
     0
  3
topoGRAPH
 72
    65
 73
     2
 40
4.35
 49
4.0
 74
     0
 49
-0.35
 74
     0
  0
LTYPE
  5
1E
100
AcDbSymbolTableRecord
100
AcDbLinetypeTableRecord
  2
TRACO-PONTO
 70
     0
  3
topoGRAPH
 72
    65
 73
     4
 40
4.7
 49
4.0
 74
     0
 49
-0.35
 74
     0
 49
0.0
 74
     0
 49
-0.35
 74
     0
  0
LTYPE
  5
1F
100
AcDbSymbolTableRecord
100
AcDbLinetypeTableRecord
  2
CERCA
 70
     0
  3
topoGRAPH
 72
    65
 73
     4
 40
4.7
 49
4.0
 74
     0
 49
-0.35
 74
     0
 49
0.0
 74
     0
 49
-0.35
 74
     0
  0
LTYPE
  5
20
100
AcDbSymbolTableRecord
100
AcDbLinetypeTableRecord
  2
PONTILHADO
 70
     0
  3
topoGRAPH
 72
    65
 73
     2
 40
0.5
 49
0.0
 74
     0
 49
-0.5
 74
     0
  0
LTYPE
  5
21
100
AcDbSymbolTableRecord
100
AcDbLinetypeTableRecord
  2
CERCA_VIVA
 70
     0
  3
topoGRAPH
 72
    65
 73
     4
 40
4.7
 49
4.0
 74
     0
 49
-0.35
 74
     0
 49
0.0
 74
     0
 49
-0.35
 74
     0
  0
LTYPE
  5
22
100
AcDbSymbolTableRecord
100
AcDbLinetypeTableRecord
  2
TAPUME
 70
     0
  3
topoGRAPH
 72
    65
 73
     4
 40
4.7
 49
4.0
 74
     0
 49
-0.35
 74
     0
 49
0.0
 74
     0
 49
-0.35
 74
     0
  0
LTYPE
  5
23
100
AcDbSymbolTableRecord
100
AcDbLinetypeTableRecord
  2
CONTINUO
 70
     0
  3
topoGRAPH
 72
    65
 73
     0
 40
0.0
  0
ENDTAB
  0
TABLE
  2
LAYER
  5
2
100
AcDbSymbolTable
 70
     3
  0
LAYER
  5
14
100
AcDbSymbolTableRecord
100
AcDbLayerTableRecord
  2
0
 70
     0
 62
     7
  6
CONTINUOUS
  0
LAYER
  5
33
100
AcDbSymbolTableRecord
100
AcDbLayerTableRecord
  2
TG
 70
     0
 62
     7
  6
CONTINUO
  0
LAYER
  5
AD
100
AcDbSymbolTableRecord
100
AcDbLayerTableRecord
  2
_TG
 70
     0
 62
     7
  6
CONTINUO
  0
ENDTAB
  0
TABLE
  2
STYLE
  5
3
100
AcDbSymbolTable
 70
    16
  0
STYLE
  5
17
100
AcDbSymbolTableRecord
100
AcDbTextStyleTableRecord
  2
STANDARD
 70
     0
 40
0.0
 41
1.0
 50
0.0
 71
     0
 42
0.0
  3
txt
  4

  0
STYLE
  5
24
100
AcDbSymbolTableRecord
100
AcDbTextStyleTableRecord
  2
TXT
 70
     0
 40
0.2
 41
1.0
 50
0.0
 71
     0
 42
0.2
  3
txt
  4

  0
STYLE
  5
25
100
AcDbSymbolTableRecord
100
AcDbTextStyleTableRecord
  2
MONOTXT
 70
     0
 40
0.2
 41
1.0
 50
0.0
 71
     0
 42
0.2
  3
monotxt
  4

  0
STYLE
  5
26
100
AcDbSymbolTableRecord
100
AcDbTextStyleTableRecord
  2
SIMPLEX
 70
     0
 40
0.2
 41
1.0
 50
0.0
 71
     0
 42
0.2
  3
simplex
  4

  0
STYLE
  5
27
100
AcDbSymbolTableRecord
100
AcDbTextStyleTableRecord
  2
COMPLEX
 70
     0
 40
0.2
 41
1.0
 50
0.0
 71
     0
 42
0.2
  3
complex
  4

  0
STYLE
  5
28
100
AcDbSymbolTableRecord
100
AcDbTextStyleTableRecord
  2
ROMANS
 70
     0
 40
0.2
 41
1.0
 50
0.0
 71
     0
 42
0.2
  3
romans
  4

  0
STYLE
  5
29
100
AcDbSymbolTableRecord
100
AcDbTextStyleTableRecord
  2
ROMAND
 70
     0
 40
0.2
 41
1.0
 50
0.0
 71
     0
 42
0.2
  3
romand
  4

  0
STYLE
  5
2A
100
AcDbSymbolTableRecord
100
AcDbTextStyleTableRecord
  2
ROMANC
 70
     0
 40
0.2
 41
1.0
 50
0.0
 71
     0
 42
0.2
  3
romanc
  4

  0
STYLE
  5
2B
100
AcDbSymbolTableRecord
100
AcDbTextStyleTableRecord
  2
ROMANT
 70
     0
 40
0.2
 41
1.0
 50
0.0
 71
     0
 42
0.2
  3
romant
  4

  0
STYLE
  5
2C
100
AcDbSymbolTableRecord
100
AcDbTextStyleTableRecord
  2
ITALIC
 70
     0
 40
0.2
 41
1.0
 50
0.0
 71
     0
 42
0.2
  3
italic
  4

  0
STYLE
  5
2D
100
AcDbSymbolTableRecord
100
AcDbTextStyleTableRecord
  2
ITALICC
 70
     0
 40
0.2
 41
1.0
 50
0.0
 71
     0
 42
0.2
  3
italicc
  4

  0
STYLE
  5
2E
100
AcDbSymbolTableRecord
100
AcDbTextStyleTableRecord
  2
ITALICT
 70
     0
 40
0.2
 41
1.0
 50
0.0
 71
     0
 42
0.2
  3
italict
  4

  0
STYLE
  5
2F
100
AcDbSymbolTableRecord
100
AcDbTextStyleTableRecord
  2
SCRIPTC
 70
     0
 40
0.2
 41
1.0
 50
0.0
 71
     0
 42
0.2
  3
scriptc
  4

  0
STYLE
  5
30
100
AcDbSymbolTableRecord
100
AcDbTextStyleTableRecord
  2
SCRIPTS
 70
     0
 40
0.2
 41
1.0
 50
0.0
 71
     0
 42
0.2
  3
scripts
  4

  0
STYLE
  5
31
100
AcDbSymbolTableRecord
100
AcDbTextStyleTableRecord
  2
GOTHICE
 70
     0
 40
0.2
 41
1.0
 50
0.0
 71
     0
 42
0.2
  3
gothice
  4

  0
STYLE
  5
32
100
AcDbSymbolTableRecord
100
AcDbTextStyleTableRecord
  2
GOTHICG
 70
     0
 40
0.2
 41
1.0
 50
0.0
 71
     0
 42
0.2
  3
gothicg
  4

  0
ENDTAB
  0
TABLE
  2
VIEW
  5
5
100
AcDbSymbolTable
 70
     0
  0
ENDTAB
  0
TABLE
  2
UCS
  5
6
100
AcDbSymbolTable
 70
     0
  0
ENDTAB
  0
TABLE
  2
APPID
  5
8
100
AcDbSymbolTable
 70
     1
  0
APPID
  5
16
100
AcDbSymbolTableRecord
100
AcDbRegAppTableRecord
  2
ACAD
 70
     0
  0
ENDTAB
  0
TABLE
  2
DIMSTYLE
  5
9
100
AcDbSymbolTable
 70
     1
  0
DIMSTYLE
105
18
100
AcDbSymbolTableRecord
100
AcDbDimStyleTableRecord
  2
STANDARD
 70
     0
  3

  4

  5

  6

  7

 40
1.0
 41
0.18
 42
0.0625
 43
0.38
 44
0.18
 45
0.0
 46
0.0
 47
0.0
 48
0.0
140
0.18
141
0.09
142
0.0
143
25.4
144
1.0
145
0.0
146
1.0
147
0.09
 71
     0
 72
     0
 73
     1
 74
     1
 75
     0
 76
     0
 77
     0
 78
     0
170
     0
171
     2
172
     0
173
     0
174
     0
175
     0
176
     0
177
     0
178
     0
270
     2
271
     4
272
     4
273
     2
274
     2
340
17
275
     0
280
     0
281
     0
282
     0
283
     1
284
     0
285
     0
286
     0
287
     0
288
     0
  0
ENDTAB
  0
TABLE
  2
BLOCK_RECORD
  5
1
100
AcDbSymbolTable
 70
    10
  0
BLOCK_RECORD
  5
A
100
AcDbSymbolTableRecord
100
AcDbBlockTableRecord
  2
*MODEL_SPACE
  0
BLOCK_RECORD
  5
B
100
AcDbSymbolTableRecord
100
AcDbBlockTableRecord
  2
*PAPER_SPACE
  0
BLOCK_RECORD
  5
34
100
AcDbSymbolTableRecord
100
AcDbBlockTableRecord
  2
SIMB_XIS
  0
BLOCK_RECORD
  5
42
100
AcDbSymbolTableRecord
100
AcDbBlockTableRecord
  2
SIMB_CIRCULO
  0
BLOCK_RECORD
  5
4A
100
AcDbSymbolTableRecord
100
AcDbBlockTableRecord
  2
SIMB_ARVORE
  0
BLOCK_RECORD
  5
56
100
AcDbSymbolTableRecord
100
AcDbBlockTableRecord
  2
SIMB_QUADRADO
  0
BLOCK_RECORD
  5
63
100
AcDbSymbolTableRecord
100
AcDbBlockTableRecord
  2
SIMB_BOLINHA
  0
BLOCK_RECORD
  5
6B
100
AcDbSymbolTableRecord
100
AcDbBlockTableRecord
  2
SIMB_CRUZETA
  0
BLOCK_RECORD
  5
79
100
AcDbSymbolTableRecord
100
AcDbBlockTableRecord
  2
SIMB_BARRAS
  0
BLOCK_RECORD
  5
88
100
AcDbSymbolTableRecord
100
AcDbBlockTableRecord
  2
SIMB_PONTO
  0
BLOCK_RECORD
  5
8F
100
AcDbSymbolTableRecord
100
AcDbBlockTableRecord
  2
SIMB_TRIANGULO
  0
BLOCK_RECORD
  5
9B
100
AcDbSymbolTableRecord
100
AcDbBlockTableRecord
  2
SIMB_POSTE
  0
ENDTAB
  0
ENDSEC
  0
SECTION
  2
BLOCKS
  0
BLOCK
  5
D
100
AcDbEntity
  8
0
100
AcDbBlockBegin
  2
*MODEL_SPACE
 70
     0
 10
0.0
 20
0.0
 30
0.0
  3
*MODEL_SPACE
  1

  0
ENDBLK
  5
E
100
AcDbEntity
  8
0
100
AcDbBlockEnd
  0
BLOCK
  5
F
100
AcDbEntity
 67
     1
  8
0
100
AcDbBlockBegin
  2
*PAPER_SPACE
 70
     0
 10
0.0
 20
0.0
 30
0.0
  3
*PAPER_SPACE
  1

  0
ENDBLK
  5
10
100
AcDbEntity
 67
     1
  8
0
100
AcDbBlockEnd
  0
BLOCK
  5
35
100
AcDbEntity
  8
0
100
AcDbBlockBegin
  2
SIMB_XIS
 70
     0
 10
0.0
 20
0.0
 30
0.0
  3
SIMB_XIS
  1

  0
POLYLINE
  5
36
100
AcDbEntity
  8
0
 62
     0
100
AcDb2dPolyline
 66
     1
 10
0.0
 20
0.0
 30
0.0
  0
VERTEX
  5
37
100
AcDbEntity
  8
0
 62
     0
100
AcDbVertex
100
AcDb2dVertex
 10
-0.175
 20
-0.25
 30
0.0
  0
VERTEX
  5
38
100
AcDbEntity
  8
0
 62
     0
100
AcDbVertex
100
AcDb2dVertex
 10
0.175
 20
0.25
 30
0.0
  0
SEQEND
  5
39
100
AcDbEntity
  8
0
 62
     0
  0
POLYLINE
  5
3A
100
AcDbEntity
  8
0
 62
     0
100
AcDb2dPolyline
 66
     1
 10
0.0
 20
0.0
 30
0.0
  0
VERTEX
  5
3B
100
AcDbEntity
  8
0
 62
     0
100
AcDbVertex
100
AcDb2dVertex
 10
0.175
 20
-0.25
 30
0.0
  0
VERTEX
  5
3C
100
AcDbEntity
  8
0
 62
     0
100
AcDbVertex
100
AcDb2dVertex
 10
-0.175
 20
0.25
 30
0.0
  0
SEQEND
  5
3D
100
AcDbEntity
  8
0
 62
     0
  0
ATTDEF
  5
3E
100
AcDbEntity
  8
0
100
AcDbText
 10
0.0
 20
0.0
 30
0.0
 40
1.0
  1

100
AcDbAttributeDefinition
  3
pto:
  2
PONTO
 70
     0
  0
ATTDEF
  5
3F
100
AcDbEntity
  8
0
100
AcDbText
 10
0.0
 20
0.0
 30
0.0
 40
1.0
  1

100
AcDbAttributeDefinition
  3
desc:
  2
DESC
 70
     0
  0
ATTDEF
  5
40
100
AcDbEntity
  8
0
100
AcDbText
 10
0.0
 20
0.0
 30
0.0
 40
1.0
  1

100
AcDbAttributeDefinition
  3
ct:
  2
COTA
 70
     0
  0
ENDBLK
  5
41
100
AcDbEntity
  8
0
100
AcDbBlockEnd
  0
BLOCK
  5
43
100
AcDbEntity
  8
0
100
AcDbBlockBegin
  2
SIMB_CIRCULO
 70
     0
 10
0.0
 20
0.0
 30
0.0
  3
SIMB_CIRCULO
  1

  0
CIRCLE
  5
44
100
AcDbEntity
  8
0
 62
     0
100
AcDbCircle
 10
0.0
 20
0.0
 30
0.0
 40
0.25
  0
POINT
  5
45
100
AcDbEntity
  8
0
 62
     0
100
AcDbPoint
 10
0.0
 20
0.0
 30
0.0
  0
ATTDEF
  5
46
100
AcDbEntity
  8
0
100
AcDbText
 10
0.0
 20
0.0
 30
0.0
 40
1.0
  1

100
AcDbAttributeDefinition
  3
pto:
  2
PONTO
 70
     0
  0
ATTDEF
  5
47
100
AcDbEntity
  8
0
100
AcDbText
 10
0.0
 20
0.0
 30
0.0
 40
1.0
  1

100
AcDbAttributeDefinition
  3
desc:
  2
DESC
 70
     0
  0
ATTDEF
  5
48
100
AcDbEntity
  8
0
100
AcDbText
 10
0.0
 20
0.0
 30
0.0
 40
1.0
  1

100
AcDbAttributeDefinition
  3
ct:
  2
COTA
 70
     0
  0
ENDBLK
  5
49
100
AcDbEntity
  8
0
100
AcDbBlockEnd
  0
BLOCK
  5
4B
100
AcDbEntity
  8
0
100
AcDbBlockBegin
  2
SIMB_ARVORE
 70
     0
 10
0.0
 20
0.0
 30
0.0
  3
SIMB_ARVORE
  1

  0
ARC
  5
4C
100
AcDbEntity
  8
0
 62
     0
100
AcDbCircle
 10
-0.545
 20
0.75
 30
0.0
 40
0.575
100
AcDbArc
 50
18.749758
 51
233.130102
  0
ARC
  5
4D
100
AcDbEntity
  8
0
 62
     0
100
AcDbCircle
 10
-0.88
 20
-0.285
 30
0.0
 40
0.575
100
AcDbArc
 50
87.013363
 51
319.184916
  0
ARC
  5
4E
100
AcDbEntity
  8
0
 62
     0
100
AcDbCircle
 10
0.0
 20
-0.925
 30
0.0
 40
0.575
100
AcDbArc
 50
162.824096
 51
17.175904
  0
ARC
  5
4F
100
AcDbEntity
  8
0
 62
     0
100
AcDbCircle
 10
0.88
 20
-0.285
 30
0.0
 40
0.575
100
AcDbArc
 50
234.926246
 51
89.003652
  0
ARC
  5
50
100
AcDbEntity
  8
0
 62
     0
100
AcDbCircle
 10
0.545
 20
0.75
 30
0.0
 40
0.575
100
AcDbArc
 50
306.869898
 51
161.250242
  0
POINT
  5
51
100
AcDbEntity
  8
0
 62
     0
100
AcDbPoint
 10
0.0
 20
0.0
 30
0.0
  0
ATTDEF
  5
52
100
AcDbEntity
  8
0
100
AcDbText
 10
0.0
 20
0.0
 30
0.0
 40
1.0
  1

100
AcDbAttributeDefinition
  3
pto:
  2
PONTO
 70
     0
  0
ATTDEF
  5
53
100
AcDbEntity
  8
0
100
AcDbText
 10
0.0
 20
0.0
 30
0.0
 40
1.0
  1

100
AcDbAttributeDefinition
  3
desc:
  2
DESC
 70
     0
  0
ATTDEF
  5
54
100
AcDbEntity
  8
0
100
AcDbText
 10
0.0
 20
0.0
 30
0.0
 40
1.0
  1

100
AcDbAttributeDefinition
  3
ct:
  2
COTA
 70
     0
  0
ENDBLK
  5
55
100
AcDbEntity
  8
0
100
AcDbBlockEnd
  0
BLOCK
  5
57
100
AcDbEntity
  8
0
100
AcDbBlockBegin
  2
SIMB_QUADRADO
 70
     0
 10
0.0
 20
0.0
 30
0.0
  3
SIMB_QUADRADO
  1

  0
POLYLINE
  5
58
100
AcDbEntity
  8
0
 62
     0
100
AcDb2dPolyline
 66
     1
 10
0.0
 20
0.0
 30
0.0
 70
     1
  0
VERTEX
  5
59
100
AcDbEntity
  8
0
 62
     0
100
AcDbVertex
100
AcDb2dVertex
 10
-0.125
 20
-0.125
 30
0.0
  0
VERTEX
  5
5A
100
AcDbEntity
  8
0
 62
     0
100
AcDbVertex
100
AcDb2dVertex
 10
0.125
 20
-0.125
 30
0.0
  0
VERTEX
  5
5B
100
AcDbEntity
  8
0
 62
     0
100
AcDbVertex
100
AcDb2dVertex
 10
0.125
 20
0.125
 30
0.0
  0
VERTEX
  5
5C
100
AcDbEntity
  8
0
 62
     0
100
AcDbVertex
100
AcDb2dVertex
 10
-0.125
 20
0.125
 30
0.0
  0
SEQEND
  5
5D
100
AcDbEntity
  8
0
 62
     0
  0
POINT
  5
5E
100
AcDbEntity
  8
0
 62
     0
100
AcDbPoint
 10
0.0
 20
0.0
 30
0.0
  0
ATTDEF
  5
5F
100
AcDbEntity
  8
0
100
AcDbText
 10
0.0
 20
0.0
 30
0.0
 40
1.0
  1

100
AcDbAttributeDefinition
  3
pto:
  2
PONTO
 70
     0
  0
ATTDEF
  5
60
100
AcDbEntity
  8
0
100
AcDbText
 10
0.0
 20
0.0
 30
0.0
 40
1.0
  1

100
AcDbAttributeDefinition
  3
desc:
  2
DESC
 70
     0
  0
ATTDEF
  5
61
100
AcDbEntity
  8
0
100
AcDbText
 10
0.0
 20
0.0
 30
0.0
 40
1.0
  1

100
AcDbAttributeDefinition
  3
ct:
  2
COTA
 70
     0
  0
ENDBLK
  5
62
100
AcDbEntity
  8
0
100
AcDbBlockEnd
  0
BLOCK
  5
64
100
AcDbEntity
  8
0
100
AcDbBlockBegin
  2
SIMB_BOLINHA
 70
     0
 10
0.0
 20
0.0
 30
0.0
  3
SIMB_BOLINHA
  1

  0
CIRCLE
  5
65
100
AcDbEntity
  8
0
 62
     0
100
AcDbCircle
 10
0.0
 20
0.0
 30
0.0
 40
0.15
  0
POINT
  5
66
100
AcDbEntity
  8
0
 62
     0
100
AcDbPoint
 10
0.0
 20
0.0
 30
0.0
  0
ATTDEF
  5
67
100
AcDbEntity
  8
0
100
AcDbText
 10
0.0
 20
0.0
 30
0.0
 40
1.0
  1

100
AcDbAttributeDefinition
  3
pto:
  2
PONTO
 70
     0
  0
ATTDEF
  5
68
100
AcDbEntity
  8
0
100
AcDbText
 10
0.0
 20
0.0
 30
0.0
 40
1.0
  1

100
AcDbAttributeDefinition
  3
desc:
  2
DESC
 70
     0
  0
ATTDEF
  5
69
100
AcDbEntity
  8
0
100
AcDbText
 10
0.0
 20
0.0
 30
0.0
 40
1.0
  1

100
AcDbAttributeDefinition
  3
ct:
  2
COTA
 70
     0
  0
ENDBLK
  5
6A
100
AcDbEntity
  8
0
100
AcDbBlockEnd
  0
BLOCK
  5
6C
100
AcDbEntity
  8
0
100
AcDbBlockBegin
  2
SIMB_CRUZETA
 70
     0
 10
0.0
 20
0.0
 30
0.0
  3
SIMB_CRUZETA
  1

  0
POLYLINE
  5
6D
100
AcDbEntity
  8
0
 62
     0
100
AcDb2dPolyline
 66
     1
 10
0.0
 20
0.0
 30
0.0
  0
VERTEX
  5
6E
100
AcDbEntity
  8
0
 62
     0
100
AcDbVertex
100
AcDb2dVertex
 10
-0.25
 20
0.0
 30
0.0
  0
VERTEX
  5
6F
100
AcDbEntity
  8
0
 62
     0
100
AcDbVertex
100
AcDb2dVertex
 10
0.25
 20
0.0
 30
0.0
  0
SEQEND
  5
70
100
AcDbEntity
  8
0
 62
     0
  0
POLYLINE
  5
71
100
AcDbEntity
  8
0
 62
     0
100
AcDb2dPolyline
 66
     1
 10
0.0
 20
0.0
 30
0.0
  0
VERTEX
  5
72
100
AcDbEntity
  8
0
 62
     0
100
AcDbVertex
100
AcDb2dVertex
 10
0.0
 20
-0.25
 30
0.0
  0
VERTEX
  5
73
100
AcDbEntity
  8
0
 62
     0
100
AcDbVertex
100
AcDb2dVertex
 10
0.0
 20
0.25
 30
0.0
  0
SEQEND
  5
74
100
AcDbEntity
  8
0
 62
     0
  0
ATTDEF
  5
75
100
AcDbEntity
  8
0
100
AcDbText
 10
0.0
 20
0.0
 30
0.0
 40
1.0
  1

100
AcDbAttributeDefinition
  3
pto:
  2
PONTO
 70
     0
  0
ATTDEF
  5
76
100
AcDbEntity
  8
0
100
AcDbText
 10
0.0
 20
0.0
 30
0.0
 40
1.0
  1

100
AcDbAttributeDefinition
  3
desc:
  2
DESC
 70
     0
  0
ATTDEF
  5
77
100
AcDbEntity
  8
0
100
AcDbText
 10
0.0
 20
0.0
 30
0.0
 40
1.0
  1

100
AcDbAttributeDefinition
  3
ct:
  2
COTA
 70
     0
  0
ENDBLK
  5
78
100
AcDbEntity
  8
0
100
AcDbBlockEnd
  0
BLOCK
  5
7A
100
AcDbEntity
  8
0
100
AcDbBlockBegin
  2
SIMB_BARRAS
 70
     0
 10
0.0
 20
0.0
 30
0.0
  3
SIMB_BARRAS
  1

  0
POLYLINE
  5
7B
100
AcDbEntity
  8
0
 62
     0
100
AcDb2dPolyline
 66
     1
 10
0.0
 20
0.0
 30
0.0
  0
VERTEX
  5
7C
100
AcDbEntity
  8
0
 62
     0
100
AcDbVertex
100
AcDb2dVertex
 10
-0.175
 20
-0.25
 30
0.0
  0
VERTEX
  5
7D
100
AcDbEntity
  8
0
 62
     0
100
AcDbVertex
100
AcDb2dVertex
 10
-0.05
 20
0.25
 30
0.0
  0
SEQEND
  5
7E
100
AcDbEntity
  8
0
 62
     0
  0
POLYLINE
  5
7F
100
AcDbEntity
  8
0
 62
     0
100
AcDb2dPolyline
 66
     1
 10
0.0
 20
0.0
 30
0.0
  0
VERTEX
  5
80
100
AcDbEntity
  8
0
 62
     0
100
AcDbVertex
100
AcDb2dVertex
 10
0.175
 20
0.25
 30
0.0
  0
VERTEX
  5
81
100
AcDbEntity
  8
0
 62
     0
100
AcDbVertex
100
AcDb2dVertex
 10
0.05
 20
-0.25
 30
0.0
  0
SEQEND
  5
82
100
AcDbEntity
  8
0
 62
     0
  0
POINT
  5
83
100
AcDbEntity
  8
0
 62
     0
100
AcDbPoint
 10
0.0
 20
0.0
 30
0.0
  0
ATTDEF
  5
84
100
AcDbEntity
  8
0
100
AcDbText
 10
0.0
 20
0.0
 30
0.0
 40
1.0
  1

100
AcDbAttributeDefinition
  3
pto:
  2
PONTO
 70
     0
  0
ATTDEF
  5
85
100
AcDbEntity
  8
0
100
AcDbText
 10
0.0
 20
0.0
 30
0.0
 40
1.0
  1

100
AcDbAttributeDefinition
  3
desc:
  2
DESC
 70
     0
  0
ATTDEF
  5
86
100
AcDbEntity
  8
0
100
AcDbText
 10
0.0
 20
0.0
 30
0.0
 40
1.0
  1

100
AcDbAttributeDefinition
  3
ct:
  2
COTA
 70
     0
  0
ENDBLK
  5
87
100
AcDbEntity
  8
0
100
AcDbBlockEnd
  0
BLOCK
  5
89
100
AcDbEntity
  8
0
100
AcDbBlockBegin
  2
SIMB_PONTO
 70
     0
 10
0.0
 20
0.0
 30
0.0
  3
SIMB_PONTO
  1

  0
POINT
  5
8A
100
AcDbEntity
  8
0
 62
     0
100
AcDbPoint
 10
0.0
 20
0.0
 30
0.0
  0
ATTDEF
  5
8B
100
AcDbEntity
  8
0
100
AcDbText
 10
0.0
 20
0.0
 30
0.0
 40
1.0
  1

100
AcDbAttributeDefinition
  3
pto:
  2
PONTO
 70
     0
  0
ATTDEF
  5
8C
100
AcDbEntity
  8
0
100
AcDbText
 10
0.0
 20
0.0
 30
0.0
 40
1.0
  1

100
AcDbAttributeDefinition
  3
desc:
  2
DESC
 70
     0
  0
ATTDEF
  5
8D
100
AcDbEntity
  8
0
100
AcDbText
 10
0.0
 20
0.0
 30
0.0
 40
1.0
  1

100
AcDbAttributeDefinition
  3
ct:
  2
COTA
 70
     0
  0
ENDBLK
  5
8E
100
AcDbEntity
  8
0
100
AcDbBlockEnd
  0
BLOCK
  5
90
100
AcDbEntity
  8
0
100
AcDbBlockBegin
  2
SIMB_TRIANGULO
 70
     0
 10
0.0
 20
0.0
 30
0.0
  3
SIMB_TRIANGULO
  1

  0
POLYLINE
  5
91
100
AcDbEntity
  8
0
 62
     0
100
AcDb2dPolyline
 66
     1
 10
0.0
 20
0.0
 30
0.0
 70
     1
  0
VERTEX
  5
92
100
AcDbEntity
  8
0
 62
     0
100
AcDbVertex
100
AcDb2dVertex
 10
-0.3
 20
-0.15
 30
0.0
  0
VERTEX
  5
93
100
AcDbEntity
  8
0
 62
     0
100
AcDbVertex
100
AcDb2dVertex
 10
0.0
 20
0.35
 30
0.0
  0
VERTEX
  5
94
100
AcDbEntity
  8
0
 62
     0
100
AcDbVertex
100
AcDb2dVertex
 10
0.3
 20
-0.15
 30
0.0
  0
SEQEND
  5
95
100
AcDbEntity
  8
0
 62
     0
  0
POINT
  5
96
100
AcDbEntity
  8
0
 62
     0
100
AcDbPoint
 10
0.0
 20
0.0
 30
0.0
  0
ATTDEF
  5
97
100
AcDbEntity
  8
0
100
AcDbText
 10
0.0
 20
0.0
 30
0.0
 40
1.0
  1

100
AcDbAttributeDefinition
  3
pto:
  2
PONTO
 70
     0
  0
ATTDEF
  5
98
100
AcDbEntity
  8
0
100
AcDbText
 10
0.0
 20
0.0
 30
0.0
 40
1.0
  1

100
AcDbAttributeDefinition
  3
desc:
  2
DESC
 70
     0
  0
ATTDEF
  5
99
100
AcDbEntity
  8
0
100
AcDbText
 10
0.0
 20
0.0
 30
0.0
 40
1.0
  1

100
AcDbAttributeDefinition
  3
ct:
  2
COTA
 70
     0
  0
ENDBLK
  5
9A
100
AcDbEntity
  8
0
100
AcDbBlockEnd
  0
BLOCK
  5
9C
100
AcDbEntity
  8
0
100
AcDbBlockBegin
  2
SIMB_POSTE
 70
     0
 10
0.0
 20
0.0
 30
0.0
  3
SIMB_POSTE
  1

  0
POLYLINE
  5
9D
100
AcDbEntity
  8
0
 62
     0
100
AcDb2dPolyline
 66
     1
 10
0.0
 20
0.0
 30
0.0
  0
VERTEX
  5
9E
100
AcDbEntity
  8
0
 62
     0
100
AcDbVertex
100
AcDb2dVertex
 10
0.0
 20
0.0
 30
0.0
  0
VERTEX
  5
9F
100
AcDbEntity
  8
0
 62
     0
100
AcDbVertex
100
AcDb2dVertex
 10
0.0
 20
2.5
 30
0.0
  0
SEQEND
  5
A0
100
AcDbEntity
  8
0
 62
     0
  0
POLYLINE
  5
A1
100
AcDbEntity
  8
0
 62
     0
100
AcDb2dPolyline
 66
     1
 10
0.0
 20
0.0
 30
0.0
  0
VERTEX
  5
A2
100
AcDbEntity
  8
0
 62
     0
100
AcDbVertex
100
AcDb2dVertex
 10
-0.75
 20
1.5
 30
0.0
  0
VERTEX
  5
A3
100
AcDbEntity
  8
0
 62
     0
100
AcDbVertex
100
AcDb2dVertex
 10
0.75
 20
1.5
 30
0.0
  0
SEQEND
  5
A4
100
AcDbEntity
  8
0
 62
     0
  0
POLYLINE
  5
A5
100
AcDbEntity
  8
0
 62
     0
100
AcDb2dPolyline
 66
     1
 10
0.0
 20
0.0
 30
0.0
  0
VERTEX
  5
A6
100
AcDbEntity
  8
0
 62
     0
100
AcDbVertex
100
AcDb2dVertex
 10
-0.5
 20
2.0
 30
0.0
  0
VERTEX
  5
A7
100
AcDbEntity
  8
0
 62
     0
100
AcDbVertex
100
AcDb2dVertex
 10
0.5
 20
2.0
 30
0.0
  0
SEQEND
  5
A8
100
AcDbEntity
  8
0
 62
     0
  0
ATTDEF
  5
A9
100
AcDbEntity
  8
0
100
AcDbText
 10
0.0
 20
0.0
 30
0.0
 40
1.0
  1

100
AcDbAttributeDefinition
  3
pto:
  2
PONTO
 70
     0
  0
ATTDEF
  5
AA
100
AcDbEntity
  8
0
100
AcDbText
 10
0.0
 20
0.0
 30
0.0
 40
1.0
  1

100
AcDbAttributeDefinition
  3
desc:
  2
DESC
 70
     0
  0
ATTDEF
  5
AB
100
AcDbEntity
  8
0
100
AcDbText
 10
0.0
 20
0.0
 30
0.0
 40
1.0
  1

100
AcDbAttributeDefinition
  3
ct:
  2
COTA
 70
     0
  0
ENDBLK
  5
AC
100
AcDbEntity
  8
0
100
AcDbBlockEnd
  0
ENDSEC
  0
SECTION
  2
ENTITIES
  0
INSERT
  5
AE
100
AcDbEntity
  8
_TG
 62
     3
100
AcDbBlockReference
 66
     1
  2
SIMB_PONTO
 10
185504.085955
 20
1675046.89541
 30
0.0
  0
ATTRIB
  5
AF
100
AcDbEntity
  8
0
 62
     1
100
AcDbText
 10
185504.435955
 20
1675047.24541
 30
0.0
 40
0.75
  1
1
 41
0.954526
  7
SIMPLEX
100
AcDbAttribute
  2
PONTO
 70
     8
  0
ATTRIB
  5
B0
100
AcDbEntity
  8
0
 62
     4
100
AcDbText
 10
185504.435955
 20
1675048.14541
 30
0.0
 40
0.75
  1

 41
0.699986
  7
SIMPLEX
100
AcDbAttribute
  2
DESC
 70
     9
  0
ATTRIB
  5
B1
100
AcDbEntity
  8
0
 62
     2
100
AcDbText
 10
185504.435955
 20
1675045.79541
 30
0.0
 40
0.75
  1

 41
0.699986
  7
SIMPLEX
100
AcDbAttribute
  2
COTA
 70
     9
  0
SEQEND
  5
B2
100
AcDbEntity
  8
0
  0
INSERT
  5
B3
100
AcDbEntity
  8
_TG
 62
     3
100
AcDbBlockReference
 66
     1
  2
SIMB_PONTO
 10
185525.128432
 20
1675145.133135
 30
0.0
  0
ATTRIB
  5
B4
100
AcDbEntity
  8
0
 62
     1
100
AcDbText
 10
185525.478432
 20
1675145.483135
 30
0.0
 40
0.75
  1
10
 41
0.954526
  7
SIMPLEX
100
AcDbAttribute
  2
PONTO
 70
     8
  0
ATTRIB
  5
B5
100
AcDbEntity
  8
0
 62
     4
100
AcDbText
 10
185525.478432
 20
1675146.383135
 30
0.0
 40
0.75
  1

 41
0.699986
  7
SIMPLEX
100
AcDbAttribute
  2
DESC
 70
     9
  0
ATTRIB
  5
B6
100
AcDbEntity
  8
0
 62
     2
100
AcDbText
 10
185525.478432
 20
1675144.033135
 30
0.0
 40
0.75
  1

 41
0.699986
  7
SIMPLEX
100
AcDbAttribute
  2
COTA
 70
     9
  0
SEQEND
  5
B7
100
AcDbEntity
  8
0
  0
INSERT
  5
B8
100
AcDbEntity
  8
_TG
 62
     3
100
AcDbBlockReference
 66
     1
  2
SIMB_PONTO
 10
185518.287631
 20
1675129.28001
 30
0.0
  0
ATTRIB
  5
B9
100
AcDbEntity
  8
0
 62
     1
100
AcDbText
 10
185518.637631
 20
1675129.63001
 30
0.0
 40
0.75
  1
11
 41
0.954526
  7
SIMPLEX
100
AcDbAttribute
  2
PONTO
 70
     8
  0
ATTRIB
  5
BA
100
AcDbEntity
  8
0
 62
     4
100
AcDbText
 10
185518.637631
 20
1675130.53001
 30
0.0
 40
0.75
  1

 41
0.699986
  7
SIMPLEX
100
AcDbAttribute
  2
DESC
 70
     9
  0
ATTRIB
  5
BB
100
AcDbEntity
  8
0
 62
     2
100
AcDbText
 10
185518.637631
 20
1675128.18001
 30
0.0
 40
0.75
  1

 41
0.699986
  7
SIMPLEX
100
AcDbAttribute
  2
COTA
 70
     9
  0
SEQEND
  5
BC
100
AcDbEntity
  8
0
  0
INSERT
  5
BD
100
AcDbEntity
  8
_TG
 62
     3
100
AcDbBlockReference
 66
     1
  2
SIMB_PONTO
 10
185523.297206
 20
1675135.466261
 30
0.0
  0
ATTRIB
  5
BE
100
AcDbEntity
  8
0
 62
     1
100
AcDbText
 10
185523.647206
 20
1675135.816261
 30
0.0
 40
0.75
  1
12
 41
0.954526
  7
SIMPLEX
100
AcDbAttribute
  2
PONTO
 70
     8
  0
ATTRIB
  5
BF
100
AcDbEntity
  8
0
 62
     4
100
AcDbText
 10
185523.647206
 20
1675136.716261
 30
0.0
 40
0.75
  1

 41
0.699986
  7
SIMPLEX
100
AcDbAttribute
  2
DESC
 70
     9
  0
ATTRIB
  5
C0
100
AcDbEntity
  8
0
 62
     2
100
AcDbText
 10
185523.647206
 20
1675134.366261
 30
0.0
 40
0.75
  1

 41
0.699986
  7
SIMPLEX
100
AcDbAttribute
  2
COTA
 70
     9
  0
SEQEND
  5
C1
100
AcDbEntity
  8
0
  0
INSERT
  5
C2
100
AcDbEntity
  8
_TG
 62
     3
100
AcDbBlockReference
 66
     1
  2
SIMB_PONTO
 10
185499.21938
 20
1674940.548994
 30
0.0
  0
ATTRIB
  5
C3
100
AcDbEntity
  8
0
 62
     1
100
AcDbText
 10
185499.56938
 20
1674940.898994
 30
0.0
 40
0.75
  1
13
 41
0.954526
  7
SIMPLEX
100
AcDbAttribute
  2
PONTO
 70
     8
  0
ATTRIB
  5
C4
100
AcDbEntity
  8
0
 62
     4
100
AcDbText
 10
185499.56938
 20
1674941.798994
 30
0.0
 40
0.75
  1

 41
0.699986
  7
SIMPLEX
100
AcDbAttribute
  2
DESC
 70
     9
  0
ATTRIB
  5
C5
100
AcDbEntity
  8
0
 62
     2
100
AcDbText
 10
185499.56938
 20
1674939.448994
 30
0.0
 40
0.75
  1

 41
0.699986
  7
SIMPLEX
100
AcDbAttribute
  2
COTA
 70
     9
  0
SEQEND
  5
C6
100
AcDbEntity
  8
0
  0
INSERT
  5
C7
100
AcDbEntity
  8
_TG
 62
     3
100
AcDbBlockReference
 66
     1
  2
SIMB_PONTO
 10
185492.668081
 20
1674940.489935
 30
0.0
  0
ATTRIB
  5
C8
100
AcDbEntity
  8
0
 62
     1
100
AcDbText
 10
185493.018081
 20
1674940.839935
 30
0.0
 40
0.75
  1
14
 41
0.954526
  7
SIMPLEX
100
AcDbAttribute
  2
PONTO
 70
     8
  0
ATTRIB
  5
C9
100
AcDbEntity
  8
0
 62
     4
100
AcDbText
 10
185493.018081
 20
1674941.739935
 30
0.0
 40
0.75
  1

 41
0.699986
  7
SIMPLEX
100
AcDbAttribute
  2
DESC
 70
     9
  0
ATTRIB
  5
CA
100
AcDbEntity
  8
0
 62
     2
100
AcDbText
 10
185493.018081
 20
1674939.389935
 30
0.0
 40
0.75
  1

 41
0.699986
  7
SIMPLEX
100
AcDbAttribute
  2
COTA
 70
     9
  0
SEQEND
  5
CB
100
AcDbEntity
  8
0
  0
INSERT
  5
CC
100
AcDbEntity
  8
_TG
 62
     3
100
AcDbBlockReference
 66
     1
  2
SIMB_PONTO
 10
185490.76742
 20
1674965.94761
 30
0.0
  0
ATTRIB
  5
CD
100
AcDbEntity
  8
0
 62
     1
100
AcDbText
 10
185491.11742
 20
1674966.29761
 30
0.0
 40
0.75
  1
15
 41
0.954526
  7
SIMPLEX
100
AcDbAttribute
  2
PONTO
 70
     8
  0
ATTRIB
  5
CE
100
AcDbEntity
  8
0
 62
     4
100
AcDbText
 10
185491.11742
 20
1674967.19761
 30
0.0
 40
0.75
  1

 41
0.699986
  7
SIMPLEX
100
AcDbAttribute
  2
DESC
 70
     9
  0
ATTRIB
  5
CF
100
AcDbEntity
  8
0
 62
     2
100
AcDbText
 10
185491.11742
 20
1674964.84761
 30
0.0
 40
0.75
  1

 41
0.699986
  7
SIMPLEX
100
AcDbAttribute
  2
COTA
 70
     9
  0
SEQEND
  5
D0
100
AcDbEntity
  8
0
  0
INSERT
  5
D1
100
AcDbEntity
  8
_TG
 62
     3
100
AcDbBlockReference
 66
     1
  2
SIMB_PONTO
 10
185497.330041
 20
1674966.266105
 30
0.0
  0
ATTRIB
  5
D2
100
AcDbEntity
  8
0
 62
     1
100
AcDbText
 10
185497.680041
 20
1674966.616105
 30
0.0
 40
0.75
  1
16
 41
0.954526
  7
SIMPLEX
100
AcDbAttribute
  2
PONTO
 70
     8
  0
ATTRIB
  5
D3
100
AcDbEntity
  8
0
 62
     4
100
AcDbText
 10
185497.680041
 20
1674967.516105
 30
0.0
 40
0.75
  1

 41
0.699986
  7
SIMPLEX
100
AcDbAttribute
  2
DESC
 70
     9
  0
ATTRIB
  5
D4
100
AcDbEntity
  8
0
 62
     2
100
AcDbText
 10
185497.680041
 20
1674965.166105
 30
0.0
 40
0.75
  1

 41
0.699986
  7
SIMPLEX
100
AcDbAttribute
  2
COTA
 70
     9
  0
SEQEND
  5
D5
100
AcDbEntity
  8
0
  0
INSERT
  5
D6
100
AcDbEntity
  8
_TG
 62
     3
100
AcDbBlockReference
 66
     1
  2
SIMB_PONTO
 10
185489.76786
 20
1674977.398488
 30
0.0
  0
ATTRIB
  5
D7
100
AcDbEntity
  8
0
 62
     1
100
AcDbText
 10
185490.11786
 20
1674977.748488
 30
0.0
 40
0.75
  1
17
 41
0.954526
  7
SIMPLEX
100
AcDbAttribute
  2
PONTO
 70
     8
  0
ATTRIB
  5
D8
100
AcDbEntity
  8
0
 62
     4
100
AcDbText
 10
185490.11786
 20
1674978.648488
 30
0.0
 40
0.75
  1

 41
0.699986
  7
SIMPLEX
100
AcDbAttribute
  2
DESC
 70
     9
  0
ATTRIB
  5
D9
100
AcDbEntity
  8
0
 62
     2
100
AcDbText
 10
185490.11786
 20
1674976.298488
 30
0.0
 40
0.75
  1

 41
0.699986
  7
SIMPLEX
100
AcDbAttribute
  2
COTA
 70
     9
  0
SEQEND
  5
DA
100
AcDbEntity
  8
0
  0
INSERT
  5
DB
100
AcDbEntity
  8
_TG
 62
     3
100
AcDbBlockReference
 66
     1
  2
SIMB_PONTO
 10
185496.861222
 20
1674978.733354
 30
0.0
  0
ATTRIB
  5
DC
100
AcDbEntity
  8
0
 62
     1
100
AcDbText
 10
185497.211222
 20
1674979.083354
 30
0.0
 40
0.75
  1
18
 41
0.954526
  7
SIMPLEX
100
AcDbAttribute
  2
PONTO
 70
     8
  0
ATTRIB
  5
DD
100
AcDbEntity
  8
0
 62
     4
100
AcDbText
 10
185497.211222
 20
1674979.983354
 30
0.0
 40
0.75
  1

 41
0.699986
  7
SIMPLEX
100
AcDbAttribute
  2
DESC
 70
     9
  0
ATTRIB
  5
DE
100
AcDbEntity
  8
0
 62
     2
100
AcDbText
 10
185497.211222
 20
1674977.633354
 30
0.0
 40
0.75
  1

 41
0.699986
  7
SIMPLEX
100
AcDbAttribute
  2
COTA
 70
     9
  0
SEQEND
  5
DF
100
AcDbEntity
  8
0
  0
INSERT
  5
E0
100
AcDbEntity
  8
_TG
 62
     3
100
AcDbBlockReference
 66
     1
  2
SIMB_PONTO
 10
185497.392061
 20
1674993.309437
 30
0.0
  0
ATTRIB
  5
E1
100
AcDbEntity
  8
0
 62
     1
100
AcDbText
 10
185497.742061
 20
1674993.659437
 30
0.0
 40
0.75
  1
19
 41
0.954526
  7
SIMPLEX
100
AcDbAttribute
  2
PONTO
 70
     8
  0
ATTRIB
  5
E2
100
AcDbEntity
  8
0
 62
     4
100
AcDbText
 10
185497.742061
 20
1674994.559437
 30
0.0
 40
0.75
  1

 41
0.699986
  7
SIMPLEX
100
AcDbAttribute
  2
DESC
 70
     9
  0
ATTRIB
  5
E3
100
AcDbEntity
  8
0
 62
     2
100
AcDbText
 10
185497.742061
 20
1674992.209437
 30
0.0
 40
0.75
  1

 41
0.699986
  7
SIMPLEX
100
AcDbAttribute
  2
COTA
 70
     9
  0
SEQEND
  5
E4
100
AcDbEntity
  8
0
  0
INSERT
  5
E5
100
AcDbEntity
  8
_TG
 62
     3
100
AcDbBlockReference
 66
     1
  2
SIMB_PONTO
 10
185497.57037
 20
1675047.860637
 30
0.0
  0
ATTRIB
  5
E6
100
AcDbEntity
  8
0
 62
     1
100
AcDbText
 10
185497.92037
 20
1675048.210637
 30
0.0
 40
0.75
  1
2
 41
0.954526
  7
SIMPLEX
100
AcDbAttribute
  2
PONTO
 70
     8
  0
ATTRIB
  5
E7
100
AcDbEntity
  8
0
 62
     4
100
AcDbText
 10
185497.92037
 20
1675049.110637
 30
0.0
 40
0.75
  1

 41
0.699986
  7
SIMPLEX
100
AcDbAttribute
  2
DESC
 70
     9
  0
ATTRIB
  5
E8
100
AcDbEntity
  8
0
 62
     2
100
AcDbText
 10
185497.92037
 20
1675046.760637
 30
0.0
 40
0.75
  1

 41
0.699986
  7
SIMPLEX
100
AcDbAttribute
  2
COTA
 70
     9
  0
SEQEND
  5
E9
100
AcDbEntity
  8
0
  0
INSERT
  5
EA
100
AcDbEntity
  8
_TG
 62
     3
100
AcDbBlockReference
 66
     1
  2
SIMB_PONTO
 10
185501.162495
 20
1674909.392181
 30
0.0
  0
ATTRIB
  5
EB
100
AcDbEntity
  8
0
 62
     1
100
AcDbText
 10
185501.512495
 20
1674909.742181
 30
0.0
 40
0.75
  1
20
 41
0.954526
  7
SIMPLEX
100
AcDbAttribute
  2
PONTO
 70
     8
  0
ATTRIB
  5
EC
100
AcDbEntity
  8
0
 62
     4
100
AcDbText
 10
185501.512495
 20
1674910.642181
 30
0.0
 40
0.75
  1

 41
0.699986
  7
SIMPLEX
100
AcDbAttribute
  2
DESC
 70
     9
  0
ATTRIB
  5
ED
100
AcDbEntity
  8
0
 62
     2
100
AcDbText
 10
185501.512495
 20
1674908.292181
 30
0.0
 40
0.75
  1

 41
0.699986
  7
SIMPLEX
100
AcDbAttribute
  2
COTA
 70
     9
  0
SEQEND
  5
EE
100
AcDbEntity
  8
0
  0
INSERT
  5
EF
100
AcDbEntity
  8
_TG
 62
     3
100
AcDbBlockReference
 66
     1
  2
SIMB_PONTO
 10
185503.988023
 20
1674906.83506
 30
0.0
  0
ATTRIB
  5
F0
100
AcDbEntity
  8
0
 62
     1
100
AcDbText
 10
185504.338023
 20
1674907.18506
 30
0.0
 40
0.75
  1
21
 41
0.954526
  7
SIMPLEX
100
AcDbAttribute
  2
PONTO
 70
     8
  0
ATTRIB
  5
F1
100
AcDbEntity
  8
0
 62
     4
100
AcDbText
 10
185504.338023
 20
1674908.08506
 30
0.0
 40
0.75
  1

 41
0.699986
  7
SIMPLEX
100
AcDbAttribute
  2
DESC
 70
     9
  0
ATTRIB
  5
F2
100
AcDbEntity
  8
0
 62
     2
100
AcDbText
 10
185504.338023
 20
1674905.73506
 30
0.0
 40
0.75
  1

 41
0.699986
  7
SIMPLEX
100
AcDbAttribute
  2
COTA
 70
     9
  0
SEQEND
  5
F3
100
AcDbEntity
  8
0
  0
INSERT
  5
F4
100
AcDbEntity
  8
_TG
 62
     3
100
AcDbBlockReference
 66
     1
  2
SIMB_PONTO
 10
185510.9775
 20
1674908.218598
 30
0.0
  0
ATTRIB
  5
F5
100
AcDbEntity
  8
0
 62
     1
100
AcDbText
 10
185511.3275
 20
1674908.568598
 30
0.0
 40
0.75
  1
22
 41
0.954526
  7
SIMPLEX
100
AcDbAttribute
  2
PONTO
 70
     8
  0
ATTRIB
  5
F6
100
AcDbEntity
  8
0
 62
     4
100
AcDbText
 10
185511.3275
 20
1674909.468598
 30
0.0
 40
0.75
  1

 41
0.699986
  7
SIMPLEX
100
AcDbAttribute
  2
DESC
 70
     9
  0
ATTRIB
  5
F7
100
AcDbEntity
  8
0
 62
     2
100
AcDbText
 10
185511.3275
 20
1674907.118598
 30
0.0
 40
0.75
  1

 41
0.699986
  7
SIMPLEX
100
AcDbAttribute
  2
COTA
 70
     9
  0
SEQEND
  5
F8
100
AcDbEntity
  8
0
  0
INSERT
  5
F9
100
AcDbEntity
  8
_TG
 62
     3
100
AcDbBlockReference
 66
     1
  2
SIMB_PONTO
 10
185503.451028
 20
1674894.166013
 30
0.0
  0
ATTRIB
  5
FA
100
AcDbEntity
  8
0
 62
     1
100
AcDbText
 10
185503.801028
 20
1674894.516013
 30
0.0
 40
0.75
  1
23
 41
0.954526
  7
SIMPLEX
100
AcDbAttribute
  2
PONTO
 70
     8
  0
ATTRIB
  5
FB
100
AcDbEntity
  8
0
 62
     4
100
AcDbText
 10
185503.801028
 20
1674895.416013
 30
0.0
 40
0.75
  1

 41
0.699986
  7
SIMPLEX
100
AcDbAttribute
  2
DESC
 70
     9
  0
ATTRIB
  5
FC
100
AcDbEntity
  8
0
 62
     2
100
AcDbText
 10
185503.801028
 20
1674893.066013
 30
0.0
 40
0.75
  1

 41
0.699986
  7
SIMPLEX
100
AcDbAttribute
  2
COTA
 70
     9
  0
SEQEND
  5
FD
100
AcDbEntity
  8
0
  0
INSERT
  5
FE
100
AcDbEntity
  8
_TG
 62
     3
100
AcDbBlockReference
 66
     1
  2
SIMB_PONTO
 10
185513.571513
 20
1674896.576866
 30
0.0
  0
ATTRIB
  5
FF
100
AcDbEntity
  8
0
 62
     1
100
AcDbText
 10
185513.921513
 20
1674896.926866
 30
0.0
 40
0.75
  1
24
 41
0.954526
  7
SIMPLEX
100
AcDbAttribute
  2
PONTO
 70
     8
  0
ATTRIB
  5
100
100
AcDbEntity
  8
0
 62
     4
100
AcDbText
 10
185513.921513
 20
1674897.826866
 30
0.0
 40
0.75
  1

 41
0.699986
  7
SIMPLEX
100
AcDbAttribute
  2
DESC
 70
     9
  0
ATTRIB
  5
101
100
AcDbEntity
  8
0
 62
     2
100
AcDbText
 10
185513.921513
 20
1674895.476866
 30
0.0
 40
0.75
  1

 41
0.699986
  7
SIMPLEX
100
AcDbAttribute
  2
COTA
 70
     9
  0
SEQEND
  5
102
100
AcDbEntity
  8
0
  0
INSERT
  5
103
100
AcDbEntity
  8
_TG
 62
     3
100
AcDbBlockReference
 66
     1
  2
SIMB_PONTO
 10
185504.887773
 20
1674891.348163
 30
0.0
  0
ATTRIB
  5
104
100
AcDbEntity
  8
0
 62
     1
100
AcDbText
 10
185505.237773
 20
1674891.698163
 30
0.0
 40
0.75
  1
25
 41
0.954526
  7
SIMPLEX
100
AcDbAttribute
  2
PONTO
 70
     8
  0
ATTRIB
  5
105
100
AcDbEntity
  8
0
 62
     4
100
AcDbText
 10
185505.237773
 20
1674892.598163
 30
0.0
 40
0.75
  1

 41
0.699986
  7
SIMPLEX
100
AcDbAttribute
  2
DESC
 70
     9
  0
ATTRIB
  5
106
100
AcDbEntity
  8
0
 62
     2
100
AcDbText
 10
185505.237773
 20
1674890.248163
 30
0.0
 40
0.75
  1

 41
0.699986
  7
SIMPLEX
100
AcDbAttribute
  2
COTA
 70
     9
  0
SEQEND
  5
107
100
AcDbEntity
  8
0
  0
INSERT
  5
108
100
AcDbEntity
  8
_TG
 62
     3
100
AcDbBlockReference
 66
     1
  2
SIMB_PONTO
 10
185503.427905
 20
1674877.338066
 30
0.0
  0
ATTRIB
  5
109
100
AcDbEntity
  8
0
 62
     1
100
AcDbText
 10
185503.777905
 20
1674877.688066
 30
0.0
 40
0.75
  1
26
 41
0.954526
  7
SIMPLEX
100
AcDbAttribute
  2
PONTO
 70
     8
  0
ATTRIB
  5
10A
100
AcDbEntity
  8
0
 62
     4
100
AcDbText
 10
185503.777905
 20
1674878.588066
 30
0.0
 40
0.75
  1

 41
0.699986
  7
SIMPLEX
100
AcDbAttribute
  2
DESC
 70
     9
  0
ATTRIB
  5
10B
100
AcDbEntity
  8
0
 62
     2
100
AcDbText
 10
185503.777905
 20
1674876.238066
 30
0.0
 40
0.75
  1

 41
0.699986
  7
SIMPLEX
100
AcDbAttribute
  2
COTA
 70
     9
  0
SEQEND
  5
10C
100
AcDbEntity
  8
0
  0
INSERT
  5
10D
100
AcDbEntity
  8
_TG
 62
     3
100
AcDbBlockReference
 66
     1
  2
SIMB_PONTO
 10
185506.072555
 20
1674877.257172
 30
0.0
  0
ATTRIB
  5
10E
100
AcDbEntity
  8
0
 62
     1
100
AcDbText
 10
185506.422555
 20
1674877.607172
 30
0.0
 40
0.75
  1
27
 41
0.954526
  7
SIMPLEX
100
AcDbAttribute
  2
PONTO
 70
     8
  0
ATTRIB
  5
10F
100
AcDbEntity
  8
0
 62
     4
100
AcDbText
 10
185506.422555
 20
1674878.507172
 30
0.0
 40
0.75
  1

 41
0.699986
  7
SIMPLEX
100
AcDbAttribute
  2
DESC
 70
     9
  0
ATTRIB
  5
110
100
AcDbEntity
  8
0
 62
     2
100
AcDbText
 10
185506.422555
 20
1674876.157172
 30
0.0
 40
0.75
  1

 41
0.699986
  7
SIMPLEX
100
AcDbAttribute
  2
COTA
 70
     9
  0
SEQEND
  5
111
100
AcDbEntity
  8
0
  0
INSERT
  5
112
100
AcDbEntity
  8
_TG
 62
     3
100
AcDbBlockReference
 66
     1
  2
SIMB_PONTO
 10
185506.963568
 20
1674867.679904
 30
0.0
  0
ATTRIB
  5
113
100
AcDbEntity
  8
0
 62
     1
100
AcDbText
 10
185507.313568
 20
1674868.029904
 30
0.0
 40
0.75
  1
28
 41
0.954526
  7
SIMPLEX
100
AcDbAttribute
  2
PONTO
 70
     8
  0
ATTRIB
  5
114
100
AcDbEntity
  8
0
 62
     4
100
AcDbText
 10
185507.313568
 20
1674868.929904
 30
0.0
 40
0.75
  1

 41
0.699986
  7
SIMPLEX
100
AcDbAttribute
  2
DESC
 70
     9
  0
ATTRIB
  5
115
100
AcDbEntity
  8
0
 62
     2
100
AcDbText
 10
185507.313568
 20
1674866.579904
 30
0.0
 40
0.75
  1

 41
0.699986
  7
SIMPLEX
100
AcDbAttribute
  2
COTA
 70
     9
  0
SEQEND
  5
116
100
AcDbEntity
  8
0
  0
INSERT
  5
117
100
AcDbEntity
  8
_TG
 62
     3
100
AcDbBlockReference
 66
     1
  2
SIMB_PONTO
 10
185507.924737
 20
1674855.891276
 30
0.0
  0
ATTRIB
  5
118
100
AcDbEntity
  8
0
 62
     1
100
AcDbText
 10
185508.274737
 20
1674856.241276
 30
0.0
 40
0.75
  1
29
 41
0.954526
  7
SIMPLEX
100
AcDbAttribute
  2
PONTO
 70
     8
  0
ATTRIB
  5
119
100
AcDbEntity
  8
0
 62
     4
100
AcDbText
 10
185508.274737
 20
1674857.141276
 30
0.0
 40
0.75
  1

 41
0.699986
  7
SIMPLEX
100
AcDbAttribute
  2
DESC
 70
     9
  0
ATTRIB
  5
11A
100
AcDbEntity
  8
0
 62
     2
100
AcDbText
 10
185508.274737
 20
1674854.791276
 30
0.0
 40
0.75
  1

 41
0.699986
  7
SIMPLEX
100
AcDbAttribute
  2
COTA
 70
     9
  0
SEQEND
  5
11B
100
AcDbEntity
  8
0
  0
INSERT
  5
11C
100
AcDbEntity
  8
_TG
 62
     3
100
AcDbBlockReference
 66
     1
  2
SIMB_PONTO
 10
185501.442012
 20
1675030.37334
 30
0.0
  0
ATTRIB
  5
11D
100
AcDbEntity
  8
0
 62
     1
100
AcDbText
 10
185501.792012
 20
1675030.72334
 30
0.0
 40
0.75
  1
3
 41
0.954526
  7
SIMPLEX
100
AcDbAttribute
  2
PONTO
 70
     8
  0
ATTRIB
  5
11E
100
AcDbEntity
  8
0
 62
     4
100
AcDbText
 10
185501.792012
 20
1675031.62334
 30
0.0
 40
0.75
  1

 41
0.699986
  7
SIMPLEX
100
AcDbAttribute
  2
DESC
 70
     9
  0
ATTRIB
  5
11F
100
AcDbEntity
  8
0
 62
     2
100
AcDbText
 10
185501.792012
 20
1675029.27334
 30
0.0
 40
0.75
  1

 41
0.699986
  7
SIMPLEX
100
AcDbAttribute
  2
COTA
 70
     9
  0
SEQEND
  5
120
100
AcDbEntity
  8
0
  0
INSERT
  5
121
100
AcDbEntity
  8
_TG
 62
     3
100
AcDbBlockReference
 66
     1
  2
SIMB_PONTO
 10
185505.501863
 20
1674855.646924
 30
0.0
  0
ATTRIB
  5
122
100
AcDbEntity
  8
0
 62
     1
100
AcDbText
 10
185505.851863
 20
1674855.996924
 30
0.0
 40
0.75
  1
30
 41
0.954526
  7
SIMPLEX
100
AcDbAttribute
  2
PONTO
 70
     8
  0
ATTRIB
  5
123
100
AcDbEntity
  8
0
 62
     4
100
AcDbText
 10
185505.851863
 20
1674856.896924
 30
0.0
 40
0.75
  1

 41
0.699986
  7
SIMPLEX
100
AcDbAttribute
  2
DESC
 70
     9
  0
ATTRIB
  5
124
100
AcDbEntity
  8
0
 62
     2
100
AcDbText
 10
185505.851863
 20
1674854.546924
 30
0.0
 40
0.75
  1

 41
0.699986
  7
SIMPLEX
100
AcDbAttribute
  2
COTA
 70
     9
  0
SEQEND
  5
125
100
AcDbEntity
  8
0
  0
INSERT
  5
126
100
AcDbEntity
  8
_TG
 62
     3
100
AcDbBlockReference
 66
     1
  2
SIMB_PONTO
 10
185502.705817
 20
1674811.097822
 30
0.0
  0
ATTRIB
  5
127
100
AcDbEntity
  8
0
 62
     1
100
AcDbText
 10
185503.055817
 20
1674811.447822
 30
0.0
 40
0.75
  1
31
 41
0.954526
  7
SIMPLEX
100
AcDbAttribute
  2
PONTO
 70
     8
  0
ATTRIB
  5
128
100
AcDbEntity
  8
0
 62
     4
100
AcDbText
 10
185503.055817
 20
1674812.347822
 30
0.0
 40
0.75
  1

 41
0.699986
  7
SIMPLEX
100
AcDbAttribute
  2
DESC
 70
     9
  0
ATTRIB
  5
129
100
AcDbEntity
  8
0
 62
     2
100
AcDbText
 10
185503.055817
 20
1674809.997822
 30
0.0
 40
0.75
  1

 41
0.699986
  7
SIMPLEX
100
AcDbAttribute
  2
COTA
 70
     9
  0
SEQEND
  5
12A
100
AcDbEntity
  8
0
  0
INSERT
  5
12B
100
AcDbEntity
  8
_TG
 62
     3
100
AcDbBlockReference
 66
     1
  2
SIMB_PONTO
 10
185501.674201
 20
1674810.197776
 30
0.0
  0
ATTRIB
  5
12C
100
AcDbEntity
  8
0
 62
     1
100
AcDbText
 10
185502.024201
 20
1674810.547776
 30
0.0
 40
0.75
  1
32
 41
0.954526
  7
SIMPLEX
100
AcDbAttribute
  2
PONTO
 70
     8
  0
ATTRIB
  5
12D
100
AcDbEntity
  8
0
 62
     4
100
AcDbText
 10
185502.024201
 20
1674811.447776
 30
0.0
 40
0.75
  1

 41
0.699986
  7
SIMPLEX
100
AcDbAttribute
  2
DESC
 70
     9
  0
ATTRIB
  5
12E
100
AcDbEntity
  8
0
 62
     2
100
AcDbText
 10
185502.024201
 20
1674809.097776
 30
0.0
 40
0.75
  1

 41
0.699986
  7
SIMPLEX
100
AcDbAttribute
  2
COTA
 70
     9
  0
SEQEND
  5
12F
100
AcDbEntity
  8
0
  0
INSERT
  5
130
100
AcDbEntity
  8
_TG
 62
     3
100
AcDbBlockReference
 66
     1
  2
SIMB_PONTO
 10
185499.538219
 20
1674832.1679
 30
0.0
  0
ATTRIB
  5
131
100
AcDbEntity
  8
0
 62
     1
100
AcDbText
 10
185499.888219
 20
1674832.5179
 30
0.0
 40
0.75
  1
33
 41
0.954526
  7
SIMPLEX
100
AcDbAttribute
  2
PONTO
 70
     8
  0
ATTRIB
  5
132
100
AcDbEntity
  8
0
 62
     4
100
AcDbText
 10
185499.888219
 20
1674833.4179
 30
0.0
 40
0.75
  1

 41
0.699986
  7
SIMPLEX
100
AcDbAttribute
  2
DESC
 70
     9
  0
ATTRIB
  5
133
100
AcDbEntity
  8
0
 62
     2
100
AcDbText
 10
185499.888219
 20
1674831.0679
 30
0.0
 40
0.75
  1

 41
0.699986
  7
SIMPLEX
100
AcDbAttribute
  2
COTA
 70
     9
  0
SEQEND
  5
134
100
AcDbEntity
  8
0
  0
INSERT
  5
135
100
AcDbEntity
  8
_TG
 62
     3
100
AcDbBlockReference
 66
     1
  2
SIMB_PONTO
 10
185500.75819
 20
1674832.355445
 30
0.0
  0
ATTRIB
  5
136
100
AcDbEntity
  8
0
 62
     1
100
AcDbText
 10
185501.10819
 20
1674832.705445
 30
0.0
 40
0.75
  1
34
 41
0.954526
  7
SIMPLEX
100
AcDbAttribute
  2
PONTO
 70
     8
  0
ATTRIB
  5
137
100
AcDbEntity
  8
0
 62
     4
100
AcDbText
 10
185501.10819
 20
1674833.605445
 30
0.0
 40
0.75
  1

 41
0.699986
  7
SIMPLEX
100
AcDbAttribute
  2
DESC
 70
     9
  0
ATTRIB
  5
138
100
AcDbEntity
  8
0
 62
     2
100
AcDbText
 10
185501.10819
 20
1674831.255445
 30
0.0
 40
0.75
  1

 41
0.699986
  7
SIMPLEX
100
AcDbAttribute
  2
COTA
 70
     9
  0
SEQEND
  5
139
100
AcDbEntity
  8
0
  0
INSERT
  5
13A
100
AcDbEntity
  8
_TG
 62
     3
100
AcDbBlockReference
 66
     1
  2
SIMB_PONTO
 10
185498.935834
 20
1674840.164186
 30
0.0
  0
ATTRIB
  5
13B
100
AcDbEntity
  8
0
 62
     1
100
AcDbText
 10
185499.285834
 20
1674840.514186
 30
0.0
 40
0.75
  1
35
 41
0.954526
  7
SIMPLEX
100
AcDbAttribute
  2
PONTO
 70
     8
  0
ATTRIB
  5
13C
100
AcDbEntity
  8
0
 62
     4
100
AcDbText
 10
185499.285834
 20
1674841.414186
 30
0.0
 40
0.75
  1

 41
0.699986
  7
SIMPLEX
100
AcDbAttribute
  2
DESC
 70
     9
  0
ATTRIB
  5
13D
100
AcDbEntity
  8
0
 62
     2
100
AcDbText
 10
185499.285834
 20
1674839.064186
 30
0.0
 40
0.75
  1

 41
0.699986
  7
SIMPLEX
100
AcDbAttribute
  2
COTA
 70
     9
  0
SEQEND
  5
13E
100
AcDbEntity
  8
0
  0
INSERT
  5
13F
100
AcDbEntity
  8
_TG
 62
     3
100
AcDbBlockReference
 66
     1
  2
SIMB_PONTO
 10
185497.702428
 20
1674850.732851
 30
0.0
  0
ATTRIB
  5
140
100
AcDbEntity
  8
0
 62
     1
100
AcDbText
 10
185498.052428
 20
1674851.082851
 30
0.0
 40
0.75
  1
36
 41
0.954526
  7
SIMPLEX
100
AcDbAttribute
  2
PONTO
 70
     8
  0
ATTRIB
  5
141
100
AcDbEntity
  8
0
 62
     4
100
AcDbText
 10
185498.052428
 20
1674851.982851
 30
0.0
 40
0.75
  1

 41
0.699986
  7
SIMPLEX
100
AcDbAttribute
  2
DESC
 70
     9
  0
ATTRIB
  5
142
100
AcDbEntity
  8
0
 62
     2
100
AcDbText
 10
185498.052428
 20
1674849.632851
 30
0.0
 40
0.75
  1

 41
0.699986
  7
SIMPLEX
100
AcDbAttribute
  2
COTA
 70
     9
  0
SEQEND
  5
143
100
AcDbEntity
  8
0
  0
INSERT
  5
144
100
AcDbEntity
  8
_TG
 62
     3
100
AcDbBlockReference
 66
     1
  2
SIMB_PONTO
 10
185497.653823
 20
1674854.783715
 30
0.0
  0
ATTRIB
  5
145
100
AcDbEntity
  8
0
 62
     1
100
AcDbText
 10
185498.003823
 20
1674855.133715
 30
0.0
 40
0.75
  1
37
 41
0.954526
  7
SIMPLEX
100
AcDbAttribute
  2
PONTO
 70
     8
  0
ATTRIB
  5
146
100
AcDbEntity
  8
0
 62
     4
100
AcDbText
 10
185498.003823
 20
1674856.033715
 30
0.0
 40
0.75
  1

 41
0.699986
  7
SIMPLEX
100
AcDbAttribute
  2
DESC
 70
     9
  0
ATTRIB
  5
147
100
AcDbEntity
  8
0
 62
     2
100
AcDbText
 10
185498.003823
 20
1674853.683715
 30
0.0
 40
0.75
  1

 41
0.699986
  7
SIMPLEX
100
AcDbAttribute
  2
COTA
 70
     9
  0
SEQEND
  5
148
100
AcDbEntity
  8
0
  0
INSERT
  5
149
100
AcDbEntity
  8
_TG
 62
     3
100
AcDbBlockReference
 66
     1
  2
SIMB_PONTO
 10
185498.616763
 20
1674854.967435
 30
0.0
  0
ATTRIB
  5
14A
100
AcDbEntity
  8
0
 62
     1
100
AcDbText
 10
185498.966763
 20
1674855.317435
 30
0.0
 40
0.75
  1
38
 41
0.954526
  7
SIMPLEX
100
AcDbAttribute
  2
PONTO
 70
     8
  0
ATTRIB
  5
14B
100
AcDbEntity
  8
0
 62
     4
100
AcDbText
 10
185498.966763
 20
1674856.217435
 30
0.0
 40
0.75
  1

 41
0.699986
  7
SIMPLEX
100
AcDbAttribute
  2
DESC
 70
     9
  0
ATTRIB
  5
14C
100
AcDbEntity
  8
0
 62
     2
100
AcDbText
 10
185498.966763
 20
1674853.867435
 30
0.0
 40
0.75
  1

 41
0.699986
  7
SIMPLEX
100
AcDbAttribute
  2
COTA
 70
     9
  0
SEQEND
  5
14D
100
AcDbEntity
  8
0
  0
INSERT
  5
14E
100
AcDbEntity
  8
_TG
 62
     3
100
AcDbBlockReference
 66
     1
  2
SIMB_PONTO
 10
185497.283536
 20
1674859.376767
 30
0.0
  0
ATTRIB
  5
14F
100
AcDbEntity
  8
0
 62
     1
100
AcDbText
 10
185497.633536
 20
1674859.726767
 30
0.0
 40
0.75
  1
39
 41
0.954526
  7
SIMPLEX
100
AcDbAttribute
  2
PONTO
 70
     8
  0
ATTRIB
  5
150
100
AcDbEntity
  8
0
 62
     4
100
AcDbText
 10
185497.633536
 20
1674860.626767
 30
0.0
 40
0.75
  1

 41
0.699986
  7
SIMPLEX
100
AcDbAttribute
  2
DESC
 70
     9
  0
ATTRIB
  5
151
100
AcDbEntity
  8
0
 62
     2
100
AcDbText
 10
185497.633536
 20
1674858.276767
 30
0.0
 40
0.75
  1

 41
0.699986
  7
SIMPLEX
100
AcDbAttribute
  2
COTA
 70
     9
  0
SEQEND
  5
152
100
AcDbEntity
  8
0
  0
INSERT
  5
153
100
AcDbEntity
  8
_TG
 62
     3
100
AcDbBlockReference
 66
     1
  2
SIMB_PONTO
 10
185493.443781
 20
1675020.183924
 30
0.0
  0
ATTRIB
  5
154
100
AcDbEntity
  8
0
 62
     1
100
AcDbText
 10
185493.793781
 20
1675020.533924
 30
0.0
 40
0.75
  1
4
 41
0.954526
  7
SIMPLEX
100
AcDbAttribute
  2
PONTO
 70
     8
  0
ATTRIB
  5
155
100
AcDbEntity
  8
0
 62
     4
100
AcDbText
 10
185493.793781
 20
1675021.433924
 30
0.0
 40
0.75
  1

 41
0.699986
  7
SIMPLEX
100
AcDbAttribute
  2
DESC
 70
     9
  0
ATTRIB
  5
156
100
AcDbEntity
  8
0
 62
     2
100
AcDbText
 10
185493.793781
 20
1675019.083924
 30
0.0
 40
0.75
  1

 41
0.699986
  7
SIMPLEX
100
AcDbAttribute
  2
COTA
 70
     9
  0
SEQEND
  5
157
100
AcDbEntity
  8
0
  0
INSERT
  5
158
100
AcDbEntity
  8
_TG
 62
     3
100
AcDbBlockReference
 66
     1
  2
SIMB_PONTO
 10
185496.208002
 20
1674870.286177
 30
0.0
  0
ATTRIB
  5
159
100
AcDbEntity
  8
0
 62
     1
100
AcDbText
 10
185496.558002
 20
1674870.636177
 30
0.0
 40
0.75
  1
40
 41
0.954526
  7
SIMPLEX
100
AcDbAttribute
  2
PONTO
 70
     8
  0
ATTRIB
  5
15A
100
AcDbEntity
  8
0
 62
     4
100
AcDbText
 10
185496.558002
 20
1674871.536177
 30
0.0
 40
0.75
  1

 41
0.699986
  7
SIMPLEX
100
AcDbAttribute
  2
DESC
 70
     9
  0
ATTRIB
  5
15B
100
AcDbEntity
  8
0
 62
     2
100
AcDbText
 10
185496.558002
 20
1674869.186177
 30
0.0
 40
0.75
  1

 41
0.699986
  7
SIMPLEX
100
AcDbAttribute
  2
COTA
 70
     9
  0
SEQEND
  5
15C
100
AcDbEntity
  8
0
  0
INSERT
  5
15D
100
AcDbEntity
  8
_TG
 62
     3
100
AcDbBlockReference
 66
     1
  2
SIMB_PONTO
 10
185494.984956
 20
1674870.326814
 30
0.0
  0
ATTRIB
  5
15E
100
AcDbEntity
  8
0
 62
     1
100
AcDbText
 10
185495.334956
 20
1674870.676814
 30
0.0
 40
0.75
  1
41
 41
0.954526
  7
SIMPLEX
100
AcDbAttribute
  2
PONTO
 70
     8
  0
ATTRIB
  5
15F
100
AcDbEntity
  8
0
 62
     4
100
AcDbText
 10
185495.334956
 20
1674871.576814
 30
0.0
 40
0.75
  1

 41
0.699986
  7
SIMPLEX
100
AcDbAttribute
  2
DESC
 70
     9
  0
ATTRIB
  5
160
100
AcDbEntity
  8
0
 62
     2
100
AcDbText
 10
185495.334956
 20
1674869.226814
 30
0.0
 40
0.75
  1

 41
0.699986
  7
SIMPLEX
100
AcDbAttribute
  2
COTA
 70
     9
  0
SEQEND
  5
161
100
AcDbEntity
  8
0
  0
INSERT
  5
162
100
AcDbEntity
  8
_TG
 62
     3
100
AcDbBlockReference
 66
     1
  2
SIMB_PONTO
 10
185494.075638
 20
1674884.966013
 30
0.0
  0
ATTRIB
  5
163
100
AcDbEntity
  8
0
 62
     1
100
AcDbText
 10
185494.425638
 20
1674885.316013
 30
0.0
 40
0.75
  1
42
 41
0.954526
  7
SIMPLEX
100
AcDbAttribute
  2
PONTO
 70
     8
  0
ATTRIB
  5
164
100
AcDbEntity
  8
0
 62
     4
100
AcDbText
 10
185494.425638
 20
1674886.216013
 30
0.0
 40
0.75
  1

 41
0.699986
  7
SIMPLEX
100
AcDbAttribute
  2
DESC
 70
     9
  0
ATTRIB
  5
165
100
AcDbEntity
  8
0
 62
     2
100
AcDbText
 10
185494.425638
 20
1674883.866013
 30
0.0
 40
0.75
  1

 41
0.699986
  7
SIMPLEX
100
AcDbAttribute
  2
COTA
 70
     9
  0
SEQEND
  5
166
100
AcDbEntity
  8
0
  0
INSERT
  5
167
100
AcDbEntity
  8
_TG
 62
     3
100
AcDbBlockReference
 66
     1
  2
SIMB_PONTO
 10
185495.738724
 20
1674884.84226
 30
0.0
  0
ATTRIB
  5
168
100
AcDbEntity
  8
0
 62
     1
100
AcDbText
 10
185496.088724
 20
1674885.19226
 30
0.0
 40
0.75
  1
43
 41
0.954526
  7
SIMPLEX
100
AcDbAttribute
  2
PONTO
 70
     8
  0
ATTRIB
  5
169
100
AcDbEntity
  8
0
 62
     4
100
AcDbText
 10
185496.088724
 20
1674886.09226
 30
0.0
 40
0.75
  1

 41
0.699986
  7
SIMPLEX
100
AcDbAttribute
  2
DESC
 70
     9
  0
ATTRIB
  5
16A
100
AcDbEntity
  8
0
 62
     2
100
AcDbText
 10
185496.088724
 20
1674883.74226
 30
0.0
 40
0.75
  1

 41
0.699986
  7
SIMPLEX
100
AcDbAttribute
  2
COTA
 70
     9
  0
SEQEND
  5
16B
100
AcDbEntity
  8
0
  0
INSERT
  5
16C
100
AcDbEntity
  8
_TG
 62
     3
100
AcDbBlockReference
 66
     1
  2
SIMB_PONTO
 10
185495.122796
 20
1674890.941644
 30
0.0
  0
ATTRIB
  5
16D
100
AcDbEntity
  8
0
 62
     1
100
AcDbText
 10
185495.472796
 20
1674891.291644
 30
0.0
 40
0.75
  1
44
 41
0.954526
  7
SIMPLEX
100
AcDbAttribute
  2
PONTO
 70
     8
  0
ATTRIB
  5
16E
100
AcDbEntity
  8
0
 62
     4
100
AcDbText
 10
185495.472796
 20
1674892.191644
 30
0.0
 40
0.75
  1

 41
0.699986
  7
SIMPLEX
100
AcDbAttribute
  2
DESC
 70
     9
  0
ATTRIB
  5
16F
100
AcDbEntity
  8
0
 62
     2
100
AcDbText
 10
185495.472796
 20
1674889.841644
 30
0.0
 40
0.75
  1

 41
0.699986
  7
SIMPLEX
100
AcDbAttribute
  2
COTA
 70
     9
  0
SEQEND
  5
170
100
AcDbEntity
  8
0
  0
INSERT
  5
171
100
AcDbEntity
  8
_TG
 62
     3
100
AcDbBlockReference
 66
     1
  2
SIMB_PONTO
 10
185493.689529
 20
1674893.616849
 30
0.0
  0
ATTRIB
  5
172
100
AcDbEntity
  8
0
 62
     1
100
AcDbText
 10
185494.039529
 20
1674893.966849
 30
0.0
 40
0.75
  1
45
 41
0.954526
  7
SIMPLEX
100
AcDbAttribute
  2
PONTO
 70
     8
  0
ATTRIB
  5
173
100
AcDbEntity
  8
0
 62
     4
100
AcDbText
 10
185494.039529
 20
1674894.866849
 30
0.0
 40
0.75
  1

 41
0.699986
  7
SIMPLEX
100
AcDbAttribute
  2
DESC
 70
     9
  0
ATTRIB
  5
174
100
AcDbEntity
  8
0
 62
     2
100
AcDbText
 10
185494.039529
 20
1674892.516849
 30
0.0
 40
0.75
  1

 41
0.699986
  7
SIMPLEX
100
AcDbAttribute
  2
COTA
 70
     9
  0
SEQEND
  5
175
100
AcDbEntity
  8
0
  0
INSERT
  5
176
100
AcDbEntity
  8
_TG
 62
     3
100
AcDbBlockReference
 66
     1
  2
SIMB_PONTO
 10
185494.386018
 20
1674902.941625
 30
0.0
  0
ATTRIB
  5
177
100
AcDbEntity
  8
0
 62
     1
100
AcDbText
 10
185494.736018
 20
1674903.291625
 30
0.0
 40
0.75
  1
46
 41
0.954526
  7
SIMPLEX
100
AcDbAttribute
  2
PONTO
 70
     8
  0
ATTRIB
  5
178
100
AcDbEntity
  8
0
 62
     4
100
AcDbText
 10
185494.736018
 20
1674904.191625
 30
0.0
 40
0.75
  1

 41
0.699986
  7
SIMPLEX
100
AcDbAttribute
  2
DESC
 70
     9
  0
ATTRIB
  5
179
100
AcDbEntity
  8
0
 62
     2
100
AcDbText
 10
185494.736018
 20
1674901.841625
 30
0.0
 40
0.75
  1

 41
0.699986
  7
SIMPLEX
100
AcDbAttribute
  2
COTA
 70
     9
  0
SEQEND
  5
17A
100
AcDbEntity
  8
0
  0
INSERT
  5
17B
100
AcDbEntity
  8
_TG
 62
     3
100
AcDbBlockReference
 66
     1
  2
SIMB_PONTO
 10
185520.224453
 20
1674728.748596
 30
0.0
  0
ATTRIB
  5
17C
100
AcDbEntity
  8
0
 62
     1
100
AcDbText
 10
185520.574453
 20
1674729.098596
 30
0.0
 40
0.75
  1
47
 41
0.954526
  7
SIMPLEX
100
AcDbAttribute
  2
PONTO
 70
     8
  0
ATTRIB
  5
17D
100
AcDbEntity
  8
0
 62
     4
100
AcDbText
 10
185520.574453
 20
1674729.998596
 30
0.0
 40
0.75
  1

 41
0.699986
  7
SIMPLEX
100
AcDbAttribute
  2
DESC
 70
     9
  0
ATTRIB
  5
17E
100
AcDbEntity
  8
0
 62
     2
100
AcDbText
 10
185520.574453
 20
1674727.648596
 30
0.0
 40
0.75
  1

 41
0.699986
  7
SIMPLEX
100
AcDbAttribute
  2
COTA
 70
     9
  0
SEQEND
  5
17F
100
AcDbEntity
  8
0
  0
INSERT
  5
180
100
AcDbEntity
  8
_TG
 62
     3
100
AcDbBlockReference
 66
     1
  2
SIMB_PONTO
 10
185517.693712
 20
1674728.337353
 30
0.0
  0
ATTRIB
  5
181
100
AcDbEntity
  8
0
 62
     1
100
AcDbText
 10
185518.043712
 20
1674728.687353
 30
0.0
 40
0.75
  1
48
 41
0.954526
  7
SIMPLEX
100
AcDbAttribute
  2
PONTO
 70
     8
  0
ATTRIB
  5
182
100
AcDbEntity
  8
0
 62
     4
100
AcDbText
 10
185518.043712
 20
1674729.587353
 30
0.0
 40
0.75
  1

 41
0.699986
  7
SIMPLEX
100
AcDbAttribute
  2
DESC
 70
     9
  0
ATTRIB
  5
183
100
AcDbEntity
  8
0
 62
     2
100
AcDbText
 10
185518.043712
 20
1674727.237353
 30
0.0
 40
0.75
  1

 41
0.699986
  7
SIMPLEX
100
AcDbAttribute
  2
COTA
 70
     9
  0
SEQEND
  5
184
100
AcDbEntity
  8
0
  0
INSERT
  5
185
100
AcDbEntity
  8
_TG
 62
     3
100
AcDbBlockReference
 66
     1
  2
SIMB_PONTO
 10
185518.395524
 20
1674748.747957
 30
0.0
  0
ATTRIB
  5
186
100
AcDbEntity
  8
0
 62
     1
100
AcDbText
 10
185518.745524
 20
1674749.097957
 30
0.0
 40
0.75
  1
49
 41
0.954526
  7
SIMPLEX
100
AcDbAttribute
  2
PONTO
 70
     8
  0
ATTRIB
  5
187
100
AcDbEntity
  8
0
 62
     4
100
AcDbText
 10
185518.745524
 20
1674749.997957
 30
0.0
 40
0.75
  1

 41
0.699986
  7
SIMPLEX
100
AcDbAttribute
  2
DESC
 70
     9
  0
ATTRIB
  5
188
100
AcDbEntity
  8
0
 62
     2
100
AcDbText
 10
185518.745524
 20
1674747.647957
 30
0.0
 40
0.75
  1

 41
0.699986
  7
SIMPLEX
100
AcDbAttribute
  2
COTA
 70
     9
  0
SEQEND
  5
189
100
AcDbEntity
  8
0
  0
INSERT
  5
18A
100
AcDbEntity
  8
_TG
 62
     3
100
AcDbBlockReference
 66
     1
  2
SIMB_PONTO
 10
185500.78154
 20
1675069.560931
 30
0.0
  0
ATTRIB
  5
18B
100
AcDbEntity
  8
0
 62
     1
100
AcDbText
 10
185501.13154
 20
1675069.910931
 30
0.0
 40
0.75
  1
5
 41
0.954526
  7
SIMPLEX
100
AcDbAttribute
  2
PONTO
 70
     8
  0
ATTRIB
  5
18C
100
AcDbEntity
  8
0
 62
     4
100
AcDbText
 10
185501.13154
 20
1675070.810931
 30
0.0
 40
0.75
  1

 41
0.699986
  7
SIMPLEX
100
AcDbAttribute
  2
DESC
 70
     9
  0
ATTRIB
  5
18D
100
AcDbEntity
  8
0
 62
     2
100
AcDbText
 10
185501.13154
 20
1675068.460931
 30
0.0
 40
0.75
  1

 41
0.699986
  7
SIMPLEX
100
AcDbAttribute
  2
COTA
 70
     9
  0
SEQEND
  5
18E
100
AcDbEntity
  8
0
  0
INSERT
  5
18F
100
AcDbEntity
  8
_TG
 62
     3
100
AcDbBlockReference
 66
     1
  2
SIMB_PONTO
 10
185515.597655
 20
1674776.224405
 30
0.0
  0
ATTRIB
  5
190
100
AcDbEntity
  8
0
 62
     1
100
AcDbText
 10
185515.947655
 20
1674776.574405
 30
0.0
 40
0.75
  1
50
 41
0.954526
  7
SIMPLEX
100
AcDbAttribute
  2
PONTO
 70
     8
  0
ATTRIB
  5
191
100
AcDbEntity
  8
0
 62
     4
100
AcDbText
 10
185515.947655
 20
1674777.474405
 30
0.0
 40
0.75
  1

 41
0.699986
  7
SIMPLEX
100
AcDbAttribute
  2
DESC
 70
     9
  0
ATTRIB
  5
192
100
AcDbEntity
  8
0
 62
     2
100
AcDbText
 10
185515.947655
 20
1674775.124405
 30
0.0
 40
0.75
  1

 41
0.699986
  7
SIMPLEX
100
AcDbAttribute
  2
COTA
 70
     9
  0
SEQEND
  5
193
100
AcDbEntity
  8
0
  0
INSERT
  5
194
100
AcDbEntity
  8
_TG
 62
     3
100
AcDbBlockReference
 66
     1
  2
SIMB_PONTO
 10
185513.029164
 20
1674776.542022
 30
0.0
  0
ATTRIB
  5
195
100
AcDbEntity
  8
0
 62
     1
100
AcDbText
 10
185513.379164
 20
1674776.892022
 30
0.0
 40
0.75
  1
51
 41
0.954526
  7
SIMPLEX
100
AcDbAttribute
  2
PONTO
 70
     8
  0
ATTRIB
  5
196
100
AcDbEntity
  8
0
 62
     4
100
AcDbText
 10
185513.379164
 20
1674777.792022
 30
0.0
 40
0.75
  1

 41
0.699986
  7
SIMPLEX
100
AcDbAttribute
  2
DESC
 70
     9
  0
ATTRIB
  5
197
100
AcDbEntity
  8
0
 62
     2
100
AcDbText
 10
185513.379164
 20
1674775.442022
 30
0.0
 40
0.75
  1

 41
0.699986
  7
SIMPLEX
100
AcDbAttribute
  2
COTA
 70
     9
  0
SEQEND
  5
198
100
AcDbEntity
  8
0
  0
INSERT
  5
199
100
AcDbEntity
  8
_TG
 62
     3
100
AcDbBlockReference
 66
     1
  2
SIMB_PONTO
 10
185745.72
 20
1675259.697
 30
0.0
  0
ATTRIB
  5
19A
100
AcDbEntity
  8
0
 62
     1
100
AcDbText
 10
185746.07
 20
1675260.047
 30
0.0
 40
0.75
  1
5139
 41
0.954526
  7
SIMPLEX
100
AcDbAttribute
  2
PONTO
 70
     8
  0
ATTRIB
  5
19B
100
AcDbEntity
  8
0
 62
     4
100
AcDbText
 10
185746.07
 20
1675260.947
 30
0.0
 40
0.75
  1

 41
0.699986
  7
SIMPLEX
100
AcDbAttribute
  2
DESC
 70
     9
  0
ATTRIB
  5
19C
100
AcDbEntity
  8
0
 62
     2
100
AcDbText
 10
185746.07
 20
1675258.597
 30
0.0
 40
0.75
  1

 41
0.699986
  7
SIMPLEX
100
AcDbAttribute
  2
COTA
 70
     9
  0
SEQEND
  5
19D
100
AcDbEntity
  8
0
  0
INSERT
  5
19E
100
AcDbEntity
  8
_TG
 62
     3
100
AcDbBlockReference
 66
     1
  2
SIMB_PONTO
 10
185506.314395
 20
1674774.225224
 30
0.0
  0
ATTRIB
  5
19F
100
AcDbEntity
  8
0
 62
     1
100
AcDbText
 10
185506.664395
 20
1674774.575224
 30
0.0
 40
0.75
  1
52
 41
0.954526
  7
SIMPLEX
100
AcDbAttribute
  2
PONTO
 70
     8
  0
ATTRIB
  5
1A0
100
AcDbEntity
  8
0
 62
     4
100
AcDbText
 10
185506.664395
 20
1674775.475224
 30
0.0
 40
0.75
  1

 41
0.699986
  7
SIMPLEX
100
AcDbAttribute
  2
DESC
 70
     9
  0
ATTRIB
  5
1A1
100
AcDbEntity
  8
0
 62
     2
100
AcDbText
 10
185506.664395
 20
1674773.125224
 30
0.0
 40
0.75
  1

 41
0.699986
  7
SIMPLEX
100
AcDbAttribute
  2
COTA
 70
     9
  0
SEQEND
  5
1A2
100
AcDbEntity
  8
0
  0
INSERT
  5
1A3
100
AcDbEntity
  8
_TG
 62
     3
100
AcDbBlockReference
 66
     1
  2
SIMB_PONTO
 10
185505.427061
 20
1674774.084653
 30
0.0
  0
ATTRIB
  5
1A4
100
AcDbEntity
  8
0
 62
     1
100
AcDbText
 10
185505.777061
 20
1674774.434653
 30
0.0
 40
0.75
  1
53
 41
0.954526
  7
SIMPLEX
100
AcDbAttribute
  2
PONTO
 70
     8
  0
ATTRIB
  5
1A5
100
AcDbEntity
  8
0
 62
     4
100
AcDbText
 10
185505.777061
 20
1674775.334653
 30
0.0
 40
0.75
  1

 41
0.699986
  7
SIMPLEX
100
AcDbAttribute
  2
DESC
 70
     9
  0
ATTRIB
  5
1A6
100
AcDbEntity
  8
0
 62
     2
100
AcDbText
 10
185505.777061
 20
1674772.984653
 30
0.0
 40
0.75
  1

 41
0.699986
  7
SIMPLEX
100
AcDbAttribute
  2
COTA
 70
     9
  0
SEQEND
  5
1A7
100
AcDbEntity
  8
0
  0
INSERT
  5
1A8
100
AcDbEntity
  8
_TG
 62
     3
100
AcDbBlockReference
 66
     1
  2
SIMB_PONTO
 10
185507.449159
 20
1674752.941484
 30
0.0
  0
ATTRIB
  5
1A9
100
AcDbEntity
  8
0
 62
     1
100
AcDbText
 10
185507.799159
 20
1674753.291484
 30
0.0
 40
0.75
  1
54
 41
0.954526
  7
SIMPLEX
100
AcDbAttribute
  2
PONTO
 70
     8
  0
ATTRIB
  5
1AA
100
AcDbEntity
  8
0
 62
     4
100
AcDbText
 10
185507.799159
 20
1674754.191484
 30
0.0
 40
0.75
  1

 41
0.699986
  7
SIMPLEX
100
AcDbAttribute
  2
DESC
 70
     9
  0
ATTRIB
  5
1AB
100
AcDbEntity
  8
0
 62
     2
100
AcDbText
 10
185507.799159
 20
1674751.841484
 30
0.0
 40
0.75
  1

 41
0.699986
  7
SIMPLEX
100
AcDbAttribute
  2
COTA
 70
     9
  0
SEQEND
  5
1AC
100
AcDbEntity
  8
0
  0
INSERT
  5
1AD
100
AcDbEntity
  8
_TG
 62
     3
100
AcDbBlockReference
 66
     1
  2
SIMB_PONTO
 10
185509.526988
 20
1674733.117933
 30
0.0
  0
ATTRIB
  5
1AE
100
AcDbEntity
  8
0
 62
     1
100
AcDbText
 10
185509.876988
 20
1674733.467933
 30
0.0
 40
0.75
  1
55
 41
0.954526
  7
SIMPLEX
100
AcDbAttribute
  2
PONTO
 70
     8
  0
ATTRIB
  5
1AF
100
AcDbEntity
  8
0
 62
     4
100
AcDbText
 10
185509.876988
 20
1674734.367933
 30
0.0
 40
0.75
  1

 41
0.699986
  7
SIMPLEX
100
AcDbAttribute
  2
DESC
 70
     9
  0
ATTRIB
  5
1B0
100
AcDbEntity
  8
0
 62
     2
100
AcDbText
 10
185509.876988
 20
1674732.017933
 30
0.0
 40
0.75
  1

 41
0.699986
  7
SIMPLEX
100
AcDbAttribute
  2
COTA
 70
     9
  0
SEQEND
  5
1B1
100
AcDbEntity
  8
0
  0
INSERT
  5
1B2
100
AcDbEntity
  8
_TG
 62
     3
100
AcDbBlockReference
 66
     1
  2
SIMB_PONTO
 10
185510.284528
 20
1674733.2379
 30
0.0
  0
ATTRIB
  5
1B3
100
AcDbEntity
  8
0
 62
     1
100
AcDbText
 10
185510.634528
 20
1674733.5879
 30
0.0
 40
0.75
  1
56
 41
0.954526
  7
SIMPLEX
100
AcDbAttribute
  2
PONTO
 70
     8
  0
ATTRIB
  5
1B4
100
AcDbEntity
  8
0
 62
     4
100
AcDbText
 10
185510.634528
 20
1674734.4879
 30
0.0
 40
0.75
  1

 41
0.699986
  7
SIMPLEX
100
AcDbAttribute
  2
DESC
 70
     9
  0
ATTRIB
  5
1B5
100
AcDbEntity
  8
0
 62
     2
100
AcDbText
 10
185510.634528
 20
1674732.1379
 30
0.0
 40
0.75
  1

 41
0.699986
  7
SIMPLEX
100
AcDbAttribute
  2
COTA
 70
     9
  0
SEQEND
  5
1B6
100
AcDbEntity
  8
0
  0
INSERT
  5
1B7
100
AcDbEntity
  8
_TG
 62
     3
100
AcDbBlockReference
 66
     1
  2
SIMB_PONTO
 10
185511.810834
 20
1674708.999185
 30
0.0
  0
ATTRIB
  5
1B8
100
AcDbEntity
  8
0
 62
     1
100
AcDbText
 10
185512.160834
 20
1674709.349185
 30
0.0
 40
0.75
  1
57
 41
0.954526
  7
SIMPLEX
100
AcDbAttribute
  2
PONTO
 70
     8
  0
ATTRIB
  5
1B9
100
AcDbEntity
  8
0
 62
     4
100
AcDbText
 10
185512.160834
 20
1674710.249185
 30
0.0
 40
0.75
  1

 41
0.699986
  7
SIMPLEX
100
AcDbAttribute
  2
DESC
 70
     9
  0
ATTRIB
  5
1BA
100
AcDbEntity
  8
0
 62
     2
100
AcDbText
 10
185512.160834
 20
1674707.899185
 30
0.0
 40
0.75
  1

 41
0.699986
  7
SIMPLEX
100
AcDbAttribute
  2
COTA
 70
     9
  0
SEQEND
  5
1BB
100
AcDbEntity
  8
0
  0
INSERT
  5
1BC
100
AcDbEntity
  8
_TG
 62
     3
100
AcDbBlockReference
 66
     1
  2
SIMB_PONTO
 10
185512.436817
 20
1674702.694901
 30
0.0
  0
ATTRIB
  5
1BD
100
AcDbEntity
  8
0
 62
     1
100
AcDbText
 10
185512.786817
 20
1674703.044901
 30
0.0
 40
0.75
  1
58
 41
0.954526
  7
SIMPLEX
100
AcDbAttribute
  2
PONTO
 70
     8
  0
ATTRIB
  5
1BE
100
AcDbEntity
  8
0
 62
     4
100
AcDbText
 10
185512.786817
 20
1674703.944901
 30
0.0
 40
0.75
  1

 41
0.699986
  7
SIMPLEX
100
AcDbAttribute
  2
DESC
 70
     9
  0
ATTRIB
  5
1BF
100
AcDbEntity
  8
0
 62
     2
100
AcDbText
 10
185512.786817
 20
1674701.594901
 30
0.0
 40
0.75
  1

 41
0.699986
  7
SIMPLEX
100
AcDbAttribute
  2
COTA
 70
     9
  0
SEQEND
  5
1C0
100
AcDbEntity
  8
0
  0
INSERT
  5
1C1
100
AcDbEntity
  8
_TG
 62
     3
100
AcDbBlockReference
 66
     1
  2
SIMB_PONTO
 10
185514.141049
 20
1674693.959958
 30
0.0
  0
ATTRIB
  5
1C2
100
AcDbEntity
  8
0
 62
     1
100
AcDbText
 10
185514.491049
 20
1674694.309958
 30
0.0
 40
0.75
  1
59
 41
0.954526
  7
SIMPLEX
100
AcDbAttribute
  2
PONTO
 70
     8
  0
ATTRIB
  5
1C3
100
AcDbEntity
  8
0
 62
     4
100
AcDbText
 10
185514.491049
 20
1674695.209958
 30
0.0
 40
0.75
  1

 41
0.699986
  7
SIMPLEX
100
AcDbAttribute
  2
DESC
 70
     9
  0
ATTRIB
  5
1C4
100
AcDbEntity
  8
0
 62
     2
100
AcDbText
 10
185514.491049
 20
1674692.859958
 30
0.0
 40
0.75
  1

 41
0.699986
  7
SIMPLEX
100
AcDbAttribute
  2
COTA
 70
     9
  0
SEQEND
  5
1C5
100
AcDbEntity
  8
0
  0
INSERT
  5
1C6
100
AcDbEntity
  8
_TG
 62
     3
100
AcDbBlockReference
 66
     1
  2
SIMB_PONTO
 10
185498.694786
 20
1675071.811789
 30
0.0
  0
ATTRIB
  5
1C7
100
AcDbEntity
  8
0
 62
     1
100
AcDbText
 10
185499.044786
 20
1675072.161789
 30
0.0
 40
0.75
  1
6
 41
0.954526
  7
SIMPLEX
100
AcDbAttribute
  2
PONTO
 70
     8
  0
ATTRIB
  5
1C8
100
AcDbEntity
  8
0
 62
     4
100
AcDbText
 10
185499.044786
 20
1675073.061789
 30
0.0
 40
0.75
  1

 41
0.699986
  7
SIMPLEX
100
AcDbAttribute
  2
DESC
 70
     9
  0
ATTRIB
  5
1C9
100
AcDbEntity
  8
0
 62
     2
100
AcDbText
 10
185499.044786
 20
1675070.711789
 30
0.0
 40
0.75
  1

 41
0.699986
  7
SIMPLEX
100
AcDbAttribute
  2
COTA
 70
     9
  0
SEQEND
  5
1CA
100
AcDbEntity
  8
0
  0
INSERT
  5
1CB
100
AcDbEntity
  8
_TG
 62
     3
100
AcDbBlockReference
 66
     1
  2
SIMB_PONTO
 10
185522.338868
 20
1674708.66363
 30
0.0
  0
ATTRIB
  5
1CC
100
AcDbEntity
  8
0
 62
     1
100
AcDbText
 10
185522.688868
 20
1674709.01363
 30
0.0
 40
0.75
  1
60
 41
0.954526
  7
SIMPLEX
100
AcDbAttribute
  2
PONTO
 70
     8
  0
ATTRIB
  5
1CD
100
AcDbEntity
  8
0
 62
     4
100
AcDbText
 10
185522.688868
 20
1674709.91363
 30
0.0
 40
0.75
  1

 41
0.699986
  7
SIMPLEX
100
AcDbAttribute
  2
DESC
 70
     9
  0
ATTRIB
  5
1CE
100
AcDbEntity
  8
0
 62
     2
100
AcDbText
 10
185522.688868
 20
1674707.56363
 30
0.0
 40
0.75
  1

 41
0.699986
  7
SIMPLEX
100
AcDbAttribute
  2
COTA
 70
     9
  0
SEQEND
  5
1CF
100
AcDbEntity
  8
0
  0
INSERT
  5
1D0
100
AcDbEntity
  8
_TG
 62
     3
100
AcDbBlockReference
 66
     1
  2
SIMB_PONTO
 10
185523.391218
 20
1674694.542161
 30
0.0
  0
ATTRIB
  5
1D1
100
AcDbEntity
  8
0
 62
     1
100
AcDbText
 10
185523.741218
 20
1674694.892161
 30
0.0
 40
0.75
  1
61
 41
0.954526
  7
SIMPLEX
100
AcDbAttribute
  2
PONTO
 70
     8
  0
ATTRIB
  5
1D2
100
AcDbEntity
  8
0
 62
     4
100
AcDbText
 10
185523.741218
 20
1674695.792161
 30
0.0
 40
0.75
  1

 41
0.699986
  7
SIMPLEX
100
AcDbAttribute
  2
DESC
 70
     9
  0
ATTRIB
  5
1D3
100
AcDbEntity
  8
0
 62
     2
100
AcDbText
 10
185523.741218
 20
1674693.442161
 30
0.0
 40
0.75
  1

 41
0.699986
  7
SIMPLEX
100
AcDbAttribute
  2
COTA
 70
     9
  0
SEQEND
  5
1D4
100
AcDbEntity
  8
0
  0
INSERT
  5
1D5
100
AcDbEntity
  8
_TG
 62
     3
100
AcDbBlockReference
 66
     1
  2
SIMB_PONTO
 10
185520.927693
 20
1674694.820829
 30
0.0
  0
ATTRIB
  5
1D6
100
AcDbEntity
  8
0
 62
     1
100
AcDbText
 10
185521.277693
 20
1674695.170829
 30
0.0
 40
0.75
  1
62
 41
0.954526
  7
SIMPLEX
100
AcDbAttribute
  2
PONTO
 70
     8
  0
ATTRIB
  5
1D7
100
AcDbEntity
  8
0
 62
     4
100
AcDbText
 10
185521.277693
 20
1674696.070829
 30
0.0
 40
0.75
  1

 41
0.699986
  7
SIMPLEX
100
AcDbAttribute
  2
DESC
 70
     9
  0
ATTRIB
  5
1D8
100
AcDbEntity
  8
0
 62
     2
100
AcDbText
 10
185521.277693
 20
1674693.720829
 30
0.0
 40
0.75
  1

 41
0.699986
  7
SIMPLEX
100
AcDbAttribute
  2
COTA
 70
     9
  0
SEQEND
  5
1D9
100
AcDbEntity
  8
0
  0
INSERT
  5
1DA
100
AcDbEntity
  8
_TG
 62
     3
100
AcDbBlockReference
 66
     1
  2
SIMB_PONTO
 10
185524.009845
 20
1674686.637672
 30
0.0
  0
ATTRIB
  5
1DB
100
AcDbEntity
  8
0
 62
     1
100
AcDbText
 10
185524.359845
 20
1674686.987672
 30
0.0
 40
0.75
  1
63
 41
0.954526
  7
SIMPLEX
100
AcDbAttribute
  2
PONTO
 70
     8
  0
ATTRIB
  5
1DC
100
AcDbEntity
  8
0
 62
     4
100
AcDbText
 10
185524.359845
 20
1674687.887672
 30
0.0
 40
0.75
  1

 41
0.699986
  7
SIMPLEX
100
AcDbAttribute
  2
DESC
 70
     9
  0
ATTRIB
  5
1DD
100
AcDbEntity
  8
0
 62
     2
100
AcDbText
 10
185524.359845
 20
1674685.537672
 30
0.0
 40
0.75
  1

 41
0.699986
  7
SIMPLEX
100
AcDbAttribute
  2
COTA
 70
     9
  0
SEQEND
  5
1DE
100
AcDbEntity
  8
0
  0
INSERT
  5
1DF
100
AcDbEntity
  8
_TG
 62
     3
100
AcDbBlockReference
 66
     1
  2
SIMB_PONTO
 10
185524.436553
 20
1674680.605315
 30
0.0
  0
ATTRIB
  5
1E0
100
AcDbEntity
  8
0
 62
     1
100
AcDbText
 10
185524.786553
 20
1674680.955315
 30
0.0
 40
0.75
  1
64
 41
0.954526
  7
SIMPLEX
100
AcDbAttribute
  2
PONTO
 70
     8
  0
ATTRIB
  5
1E1
100
AcDbEntity
  8
0
 62
     4
100
AcDbText
 10
185524.786553
 20
1674681.855315
 30
0.0
 40
0.75
  1

 41
0.699986
  7
SIMPLEX
100
AcDbAttribute
  2
DESC
 70
     9
  0
ATTRIB
  5
1E2
100
AcDbEntity
  8
0
 62
     2
100
AcDbText
 10
185524.786553
 20
1674679.505315
 30
0.0
 40
0.75
  1

 41
0.699986
  7
SIMPLEX
100
AcDbAttribute
  2
COTA
 70
     9
  0
SEQEND
  5
1E3
100
AcDbEntity
  8
0
  0
INSERT
  5
1E4
100
AcDbEntity
  8
_TG
 62
     3
100
AcDbBlockReference
 66
     1
  2
SIMB_PONTO
 10
185522.360388
 20
1674680.600347
 30
0.0
  0
ATTRIB
  5
1E5
100
AcDbEntity
  8
0
 62
     1
100
AcDbText
 10
185522.710388
 20
1674680.950347
 30
0.0
 40
0.75
  1
65
 41
0.954526
  7
SIMPLEX
100
AcDbAttribute
  2
PONTO
 70
     8
  0
ATTRIB
  5
1E6
100
AcDbEntity
  8
0
 62
     4
100
AcDbText
 10
185522.710388
 20
1674681.850347
 30
0.0
 40
0.75
  1

 41
0.699986
  7
SIMPLEX
100
AcDbAttribute
  2
DESC
 70
     9
  0
ATTRIB
  5
1E7
100
AcDbEntity
  8
0
 62
     2
100
AcDbText
 10
185522.710388
 20
1674679.500347
 30
0.0
 40
0.75
  1

 41
0.699986
  7
SIMPLEX
100
AcDbAttribute
  2
COTA
 70
     9
  0
SEQEND
  5
1E8
100
AcDbEntity
  8
0
  0
INSERT
  5
1E9
100
AcDbEntity
  8
_TG
 62
     3
100
AcDbBlockReference
 66
     1
  2
SIMB_PONTO
 10
185524.990281
 20
1674673.462864
 30
0.0
  0
ATTRIB
  5
1EA
100
AcDbEntity
  8
0
 62
     1
100
AcDbText
 10
185525.340281
 20
1674673.812864
 30
0.0
 40
0.75
  1
66
 41
0.954526
  7
SIMPLEX
100
AcDbAttribute
  2
PONTO
 70
     8
  0
ATTRIB
  5
1EB
100
AcDbEntity
  8
0
 62
     4
100
AcDbText
 10
185525.340281
 20
1674674.712864
 30
0.0
 40
0.75
  1

 41
0.699986
  7
SIMPLEX
100
AcDbAttribute
  2
DESC
 70
     9
  0
ATTRIB
  5
1EC
100
AcDbEntity
  8
0
 62
     2
100
AcDbText
 10
185525.340281
 20
1674672.362864
 30
0.0
 40
0.75
  1

 41
0.699986
  7
SIMPLEX
100
AcDbAttribute
  2
COTA
 70
     9
  0
SEQEND
  5
1ED
100
AcDbEntity
  8
0
  0
INSERT
  5
1EE
100
AcDbEntity
  8
_TG
 62
     3
100
AcDbBlockReference
 66
     1
  2
SIMB_PONTO
 10
185523.023888
 20
1674673.353955
 30
0.0
  0
ATTRIB
  5
1EF
100
AcDbEntity
  8
0
 62
     1
100
AcDbText
 10
185523.373888
 20
1674673.703955
 30
0.0
 40
0.75
  1
67
 41
0.954526
  7
SIMPLEX
100
AcDbAttribute
  2
PONTO
 70
     8
  0
ATTRIB
  5
1F0
100
AcDbEntity
  8
0
 62
     4
100
AcDbText
 10
185523.373888
 20
1674674.603955
 30
0.0
 40
0.75
  1

 41
0.699986
  7
SIMPLEX
100
AcDbAttribute
  2
DESC
 70
     9
  0
ATTRIB
  5
1F1
100
AcDbEntity
  8
0
 62
     2
100
AcDbText
 10
185523.373888
 20
1674672.253955
 30
0.0
 40
0.75
  1

 41
0.699986
  7
SIMPLEX
100
AcDbAttribute
  2
COTA
 70
     9
  0
SEQEND
  5
1F2
100
AcDbEntity
  8
0
  0
INSERT
  5
1F3
100
AcDbEntity
  8
_TG
 62
     3
100
AcDbBlockReference
 66
     1
  2
SIMB_PONTO
 10
185525.617214
 20
1674666.315881
 30
0.0
  0
ATTRIB
  5
1F4
100
AcDbEntity
  8
0
 62
     1
100
AcDbText
 10
185525.967214
 20
1674666.665881
 30
0.0
 40
0.75
  1
68
 41
0.954526
  7
SIMPLEX
100
AcDbAttribute
  2
PONTO
 70
     8
  0
ATTRIB
  5
1F5
100
AcDbEntity
  8
0
 62
     4
100
AcDbText
 10
185525.967214
 20
1674667.565881
 30
0.0
 40
0.75
  1

 41
0.699986
  7
SIMPLEX
100
AcDbAttribute
  2
DESC
 70
     9
  0
ATTRIB
  5
1F6
100
AcDbEntity
  8
0
 62
     2
100
AcDbText
 10
185525.967214
 20
1674665.215881
 30
0.0
 40
0.75
  1

 41
0.699986
  7
SIMPLEX
100
AcDbAttribute
  2
COTA
 70
     9
  0
SEQEND
  5
1F7
100
AcDbEntity
  8
0
  0
INSERT
  5
1F8
100
AcDbEntity
  8
_TG
 62
     3
100
AcDbBlockReference
 66
     1
  2
SIMB_PONTO
 10
185523.700457
 20
1674666.25691
 30
0.0
  0
ATTRIB
  5
1F9
100
AcDbEntity
  8
0
 62
     1
100
AcDbText
 10
185524.050457
 20
1674666.60691
 30
0.0
 40
0.75
  1
69
 41
0.954526
  7
SIMPLEX
100
AcDbAttribute
  2
PONTO
 70
     8
  0
ATTRIB
  5
1FA
100
AcDbEntity
  8
0
 62
     4
100
AcDbText
 10
185524.050457
 20
1674667.50691
 30
0.0
 40
0.75
  1

 41
0.699986
  7
SIMPLEX
100
AcDbAttribute
  2
DESC
 70
     9
  0
ATTRIB
  5
1FB
100
AcDbEntity
  8
0
 62
     2
100
AcDbText
 10
185524.050457
 20
1674665.15691
 30
0.0
 40
0.75
  1

 41
0.699986
  7
SIMPLEX
100
AcDbAttribute
  2
COTA
 70
     9
  0
SEQEND
  5
1FC
100
AcDbEntity
  8
0
  0
INSERT
  5
1FD
100
AcDbEntity
  8
_TG
 62
     3
100
AcDbBlockReference
 66
     1
  2
SIMB_PONTO
 10
185514.460968
 20
1675078.41919
 30
0.0
  0
ATTRIB
  5
1FE
100
AcDbEntity
  8
0
 62
     1
100
AcDbText
 10
185514.810968
 20
1675078.76919
 30
0.0
 40
0.75
  1
7
 41
0.954526
  7
SIMPLEX
100
AcDbAttribute
  2
PONTO
 70
     8
  0
ATTRIB
  5
1FF
100
AcDbEntity
  8
0
 62
     4
100
AcDbText
 10
185514.810968
 20
1675079.66919
 30
0.0
 40
0.75
  1

 41
0.699986
  7
SIMPLEX
100
AcDbAttribute
  2
DESC
 70
     9
  0
ATTRIB
  5
200
100
AcDbEntity
  8
0
 62
     2
100
AcDbText
 10
185514.810968
 20
1675077.31919
 30
0.0
 40
0.75
  1

 41
0.699986
  7
SIMPLEX
100
AcDbAttribute
  2
COTA
 70
     9
  0
SEQEND
  5
201
100
AcDbEntity
  8
0
  0
INSERT
  5
202
100
AcDbEntity
  8
_TG
 62
     3
100
AcDbBlockReference
 66
     1
  2
SIMB_PONTO
 10
185514.465184
 20
1675082.403502
 30
0.0
  0
ATTRIB
  5
203
100
AcDbEntity
  8
0
 62
     1
100
AcDbText
 10
185514.815184
 20
1675082.753502
 30
0.0
 40
0.75
  1
8
 41
0.954526
  7
SIMPLEX
100
AcDbAttribute
  2
PONTO
 70
     8
  0
ATTRIB
  5
204
100
AcDbEntity
  8
0
 62
     4
100
AcDbText
 10
185514.815184
 20
1675083.653502
 30
0.0
 40
0.75
  1

 41
0.699986
  7
SIMPLEX
100
AcDbAttribute
  2
DESC
 70
     9
  0
ATTRIB
  5
205
100
AcDbEntity
  8
0
 62
     2
100
AcDbText
 10
185514.815184
 20
1675081.303502
 30
0.0
 40
0.75
  1

 41
0.699986
  7
SIMPLEX
100
AcDbAttribute
  2
COTA
 70
     9
  0
SEQEND
  5
206
100
AcDbEntity
  8
0
  0
INSERT
  5
207
100
AcDbEntity
  8
_TG
 62
     3
100
AcDbBlockReference
 66
     1
  2
SIMB_PONTO
 10
185510.759093
 20
1675083.100675
 30
0.0
  0
ATTRIB
  5
208
100
AcDbEntity
  8
0
 62
     1
100
AcDbText
 10
185511.109093
 20
1675083.450675
 30
0.0
 40
0.75
  1
9
 41
0.954526
  7
SIMPLEX
100
AcDbAttribute
  2
PONTO
 70
     8
  0
ATTRIB
  5
209
100
AcDbEntity
  8
0
 62
     4
100
AcDbText
 10
185511.109093
 20
1675084.350675
 30
0.0
 40
0.75
  1

 41
0.699986
  7
SIMPLEX
100
AcDbAttribute
  2
DESC
 70
     9
  0
ATTRIB
  5
20A
100
AcDbEntity
  8
0
 62
     2
100
AcDbText
 10
185511.109093
 20
1675082.000675
 30
0.0
 40
0.75
  1

 41
0.699986
  7
SIMPLEX
100
AcDbAttribute
  2
COTA
 70
     9
  0
SEQEND
  5
20B
100
AcDbEntity
  8
0
  0
INSERT
  5
20C
100
AcDbEntity
  8
_TG
 62
     3
100
AcDbBlockReference
 66
     1
  2
SIMB_PONTO
 10
185542.203631
 20
1675294.563851
 30
0.0
  0
ATTRIB
  5
20D
100
AcDbEntity
  8
0
 62
     1
100
AcDbText
 10
185542.553631
 20
1675294.913851
 30
0.0
 40
0.75
  1
E1
 41
0.954526
  7
SIMPLEX
100
AcDbAttribute
  2
PONTO
 70
     8
  0
ATTRIB
  5
20E
100
AcDbEntity
  8
0
 62
     4
100
AcDbText
 10
185542.553631
 20
1675295.813851
 30
0.0
 40
0.75
  1

 41
0.699986
  7
SIMPLEX
100
AcDbAttribute
  2
DESC
 70
     9
  0
ATTRIB
  5
20F
100
AcDbEntity
  8
0
 62
     2
100
AcDbText
 10
185542.553631
 20
1675293.463851
 30
0.0
 40
0.75
  1

 41
0.699986
  7
SIMPLEX
100
AcDbAttribute
  2
COTA
 70
     9
  0
SEQEND
  5
210
100
AcDbEntity
  8
0
  0
INSERT
  5
211
100
AcDbEntity
  8
_TG
 62
     3
100
AcDbBlockReference
 66
     1
  2
SIMB_PONTO
 10
185507.444528
 20
1675065.824768
 30
0.0
  0
ATTRIB
  5
212
100
AcDbEntity
  8
0
 62
     1
100
AcDbText
 10
185507.794528
 20
1675066.174768
 30
0.0
 40
0.75
  1
E2
 41
0.954526
  7
SIMPLEX
100
AcDbAttribute
  2
PONTO
 70
     8
  0
ATTRIB
  5
213
100
AcDbEntity
  8
0
 62
     4
100
AcDbText
 10
185507.794528
 20
1675067.074768
 30
0.0
 40
0.75
  1

 41
0.699986
  7
SIMPLEX
100
AcDbAttribute
  2
DESC
 70
     9
  0
ATTRIB
  5
214
100
AcDbEntity
  8
0
 62
     2
100
AcDbText
 10
185507.794528
 20
1675064.724768
 30
0.0
 40
0.75
  1

 41
0.699986
  7
SIMPLEX
100
AcDbAttribute
  2
COTA
 70
     9
  0
SEQEND
  5
215
100
AcDbEntity
  8
0
  0
INSERT
  5
216
100
AcDbEntity
  8
_TG
 62
     3
100
AcDbBlockReference
 66
     1
  2
SIMB_PONTO
 10
185490.406775
 20
1674994.144304
 30
0.0
  0
ATTRIB
  5
217
100
AcDbEntity
  8
0
 62
     1
100
AcDbText
 10
185490.756775
 20
1674994.494304
 30
0.0
 40
0.75
  1
E3
 41
0.954526
  7
SIMPLEX
100
AcDbAttribute
  2
PONTO
 70
     8
  0
ATTRIB
  5
218
100
AcDbEntity
  8
0
 62
     4
100
AcDbText
 10
185490.756775
 20
1674995.394304
 30
0.0
 40
0.75
  1

 41
0.699986
  7
SIMPLEX
100
AcDbAttribute
  2
DESC
 70
     9
  0
ATTRIB
  5
219
100
AcDbEntity
  8
0
 62
     2
100
AcDbText
 10
185490.756775
 20
1674993.044304
 30
0.0
 40
0.75
  1

 41
0.699986
  7
SIMPLEX
100
AcDbAttribute
  2
COTA
 70
     9
  0
SEQEND
  5
21A
100
AcDbEntity
  8
0
  0
INSERT
  5
21B
100
AcDbEntity
  8
_TG
 62
     3
100
AcDbBlockReference
 66
     1
  2
SIMB_PONTO
 10
185502.343765
 20
1674890.963001
 30
0.0
  0
ATTRIB
  5
21C
100
AcDbEntity
  8
0
 62
     1
100
AcDbText
 10
185502.693765
 20
1674891.313001
 30
0.0
 40
0.75
  1
E4
 41
0.954526
  7
SIMPLEX
100
AcDbAttribute
  2
PONTO
 70
     8
  0
ATTRIB
  5
21D
100
AcDbEntity
  8
0
 62
     4
100
AcDbText
 10
185502.693765
 20
1674892.213001
 30
0.0
 40
0.75
  1

 41
0.699986
  7
SIMPLEX
100
AcDbAttribute
  2
DESC
 70
     9
  0
ATTRIB
  5
21E
100
AcDbEntity
  8
0
 62
     2
100
AcDbText
 10
185502.693765
 20
1674889.863001
 30
0.0
 40
0.75
  1

 41
0.699986
  7
SIMPLEX
100
AcDbAttribute
  2
COTA
 70
     9
  0
SEQEND
  5
21F
100
AcDbEntity
  8
0
  0
INSERT
  5
220
100
AcDbEntity
  8
_TG
 62
     3
100
AcDbBlockReference
 66
     1
  2
SIMB_PONTO
 10
185516.094401
 20
1674696.86296
 30
0.0
  0
ATTRIB
  5
221
100
AcDbEntity
  8
0
 62
     1
100
AcDbText
 10
185516.444401
 20
1674697.21296
 30
0.0
 40
0.75
  1
E5
 41
0.954526
  7
SIMPLEX
100
AcDbAttribute
  2
PONTO
 70
     8
  0
ATTRIB
  5
222
100
AcDbEntity
  8
0
 62
     4
100
AcDbText
 10
185516.444401
 20
1674698.11296
 30
0.0
 40
0.75
  1

 41
0.699986
  7
SIMPLEX
100
AcDbAttribute
  2
DESC
 70
     9
  0
ATTRIB
  5
223
100
AcDbEntity
  8
0
 62
     2
100
AcDbText
 10
185516.444401
 20
1674695.76296
 30
0.0
 40
0.75
  1

 41
0.699986
  7
SIMPLEX
100
AcDbAttribute
  2
COTA
 70
     9
  0
SEQEND
  5
224
100
AcDbEntity
  8
0
  0
ENDSEC
  0
SECTION
  2
OBJECTS
  0
DICTIONARY
  5
19
100
AcDbDictionary
  3
ACAD_GROUP
350
1A
  3
ACAD_MLINESTYLE
350
1B
  0
DICTIONARY
  5
1A
102
{ACAD_REACTORS
330
19
102
}
100
AcDbDictionary
  0
DICTIONARY
  5
1B
102
{ACAD_REACTORS
330
19
102
}
100
AcDbDictionary
  3
STANDARD
350
1C
  0
MLINESTYLE
  5
1C
102
{ACAD_REACTORS
330
1B
102
}
100
AcDbMlineStyle
  2
STANDARD
 70
     0
  3

 62
     0
 51
90.0
 52
90.0
 71
     2
 49
0.5
 62
   256
  6
BYLAYER
 49
-0.5
 62
   256
  6
BYLAYER
  0
ENDSEC
  0
EOF
