  0
SECTION
  2
HEADER
  9
$ACADVER
  1
AC1014
  9
$ACADMAINTVER
 70
     0
  9
$DWGCODEPAGE
  3
ANSI_1252
  9
$INSBASE
 10
0.0
 20
0.0
 30
0.0
  9
$EXTMIN
 10
188594.280857
 20
1663973.657842
 30
0.0
  9
$EXTMAX
 10
188792.742001
 20
1664100.353079
 30
0.0
  9
$LIMMIN
 10
0.0
 20
0.0
  9
$LIMMAX
 10
0.0
 20
0.0
  9
$ORTHOMODE
 70
     0
  9
$REGENMODE
 70
     1
  9
$FILLMODE
 70
     1
  9
$QTEXTMODE
 70
     0
  9
$MIRRTEXT
 70
     1
  9
$DRAGMODE
 70
     2
  9
$LTSCALE
 40
1.0
  9
$OSMODE
 70
     0
  9
$ATTMODE
 70
     1
  9
$TEXTSIZE
 40
0.2
  9
$TRACEWID
 40
0.05
  9
$TEXTSTYLE
  7
STANDARD
  9
$CLAYER
  8
0
  9
$CELTYPE
  6
CONTINUOUS
  9
$CECOLOR
 62
   256
  9
$CELTSCALE
 40
1.0
  9
$DELOBJ
 70
     1
  9
$DISPSILH
 70
     0
  9
$DIMSCALE
 40
1.0
  9
$DIMASZ
 40
0.18
  9
$DIMEXO
 40
0.0625
  9
$DIMDLI
 40
0.38
  9
$DIMRND
 40
0.0
  9
$DIMDLE
 40
0.0
  9
$DIMEXE
 40
0.18
  9
$DIMTP
 40
0.0
  9
$DIMTM
 40
0.0
  9
$DIMTXT
 40
0.18
  9
$DIMCEN
 40
0.09
  9
$DIMTSZ
 40
0.0
  9
$DIMTOL
 70
     0
  9
$DIMLIM
 70
     0
  9
$DIMTIH
 70
     1
  9
$DIMTOH
 70
     1
  9
$DIMSE1
 70
     0
  9
$DIMSE2
 70
     0
  9
$DIMTAD
 70
     0
  9
$DIMZIN
 70
     0
  9
$DIMBLK
  1

  9
$DIMASO
 70
     1
  9
$DIMSHO
 70
     1
  9
$DIMPOST
  1

  9
$DIMAPOST
  1

  9
$DIMALT
 70
     0
  9
$DIMALTD
 70
     2
  9
$DIMALTF
 40
25.4
  9
$DIMLFAC
 40
1.0
  9
$DIMTOFL
 70
     0
  9
$DIMTVP
 40
0.0
  9
$DIMTIX
 70
     0
  9
$DIMSOXD
 70
     0
  9
$DIMSAH
 70
     0
  9
$DIMBLK1
  1

  9
$DIMBLK2
  1

  9
$DIMSTYLE
  2
STANDARD
  9
$DIMCLRD
 70
     0
  9
$DIMCLRE
 70
     0
  9
$DIMCLRT
 70
     0
  9
$DIMTFAC
 40
1.0
  9
$DIMGAP
 40
0.09
  9
$DIMJUST
 70
     0
  9
$DIMSD1
 70
     0
  9
$DIMSD2
 70
     0
  9
$DIMTOLJ
 70
     1
  9
$DIMTZIN
 70
     0
  9
$DIMALTZ
 70
     0
  9
$DIMALTTZ
 70
     0
  9
$DIMFIT
 70
     3
  9
$DIMUPT
 70
     0
  9
$DIMUNIT
 70
     2
  9
$DIMDEC
 70
     4
  9
$DIMTDEC
 70
     4
  9
$DIMALTU
 70
     2
  9
$DIMALTTD
 70
     2
  9
$DIMTXSTY
  7
STANDARD
  9
$DIMAUNIT
 70
     0
  9
$LUNITS
 70
     2
  9
$LUPREC
 70
     4
  9
$SKETCHINC
 40
0.1
  9
$FILLETRAD
 40
0.0
  9
$AUNITS
 70
     0
  9
$AUPREC
 70
     0
  9
$MENU
  1
acad
  9
$ELEVATION
 40
0.0
  9
$PELEVATION
 40
0.0
  9
$THICKNESS
 40
0.0
  9
$LIMCHECK
 70
     0
  9
$BLIPMODE
 70
     1
  9
$CHAMFERA
 40
0.0
  9
$CHAMFERB
 40
0.0
  9
$CHAMFERC
 40
0.0
  9
$CHAMFERD
 40
0.0
  9
$SKPOLY
 70
     0
  9
$TDCREATE
 40
0.000000000
  9
$TDUPDATE
 40
0.000000000
  9
$TDINDWG
 40
0.0000000000
  9
$TDUSRTIMER
 40
0.0000000000
  9
$USRTIMER
 70
     1
  9
$ANGBASE
 50
0.0
  9
$ANGDIR
 70
     0
  9
$PDMODE
 70
     0
  9
$PDSIZE
 40
0.0
  9
$PLINEWID
 40
0.0
  9
$COORDS
 70
     0
  9
$SPLFRAME
 70
     0
  9
$SPLINETYPE
 70
     6
  9
$SPLINESEGS
 70
     8
  9
$ATTDIA
 70
     0
  9
$ATTREQ
 70
     1
  9
$HANDLING
 70
     1
  9
$HANDSEED
  5
365
  9
$SURFTAB1
 70
     6
  9
$SURFTAB2
 70
     6
  9
$SURFTYPE
 70
     6
  9
$SURFU
 70
     6
  9
$SURFV
 70
     6
  9
$UCSNAME
  2

  9
$UCSORG
 10
0.0
 20
0.0
 30
0.0
  9
$UCSXDIR
 10
1.0
 20
0.0
 30
0.0
  9
$UCSYDIR
 10
0.0
 20
1.0
 30
0.0
  9
$PUCSNAME
  2

  9
$PUCSORG
 10
0.0
 20
0.0
 30
0.0
  9
$PUCSXDIR
 10
1.0
 20
0.0
 30
0.0
  9
$PUCSYDIR
 10
0.0
 20
1.0
 30
0.0
  9
$USERI1
 70
     0
  9
$USERI2
 70
     0
  9
$USERI3
 70
     0
  9
$USERI4
 70
     0
  9
$USERI5
 70
     0
  9
$USERR1
 40
0.0
  9
$USERR2
 40
0.0
  9
$USERR3
 40
0.0
  9
$USERR4
 40
0.0
  9
$USERR5
 40
0.0
  9
$WORLDVIEW
 70
     1
  9
$SHADEDGE
 70
     3
  9
$SHADEDIF
 70
    70
  9
$TILEMODE
 70
     1
  9
$MAXACTVP
 70
    16
  9
$PINSBASE
 10
0.0
 20
0.0
 30
0.0
  9
$PLIMCHECK
 70
     0
  9
$PEXTMIN
 10
1.000000E+20
 20
1.000000E+20
 30
1.000000E+20
  9
$PEXTMAX
 10
-1.000000E+20
 20
-1.000000E+20
 30
-1.000000E+20
  9
$PLIMMIN
 10
0.0
 20
0.0
  9
$PLIMMAX
 10
12.0
 20
9.0
  9
$UNITMODE
 70
     0
  9
$VISRETAIN
 70
     0
  9
$PLINEGEN
 70
     1
  9
$PSLTSCALE
 70
     0
  9
$TREEDEPTH
 70
  3020
  9
$PICKSTYLE
 70
     1
  9
$CMLSTYLE
  2
STANDARD
  9
$CMLJUST
 70
     0
  9
$CMLSCALE
 40
1.0
  9
$PROXYGRAPHICS
 70
     0
  9
$MEASUREMENT
 70
     0
  0
ENDSEC
  0
SECTION
  2
CLASSES
  0
CLASS
  1
LWPOLYLINE
  2
AcDbPolyline
  3
"AutoCAD"
 90
        0
280
     0
281
     1
  0
CLASS
  1
IMAGE
  2
AcDbRasterImage
  3
ISM
 90
      127
280
     0
281
     1
  0
CLASS
  1
OLE2FRAME
  2
AcDbOle2Frame
  3
""
 90
        0
280
     0
281
     1
  0
CLASS
  1
HATCH
  2
AcDbHatch
  3
"ACAD_SEDONA"
 90
        0
280
     0
281
     1
  0
CLASS
  1
DICTIONARYVAR
  2
AcDbDictionaryVar
  3
"AutoCAD"
 90
        0
280
     0
281
     0
  0
CLASS
  1
RASTERVARIABLES
  2
AcDbRasterVariables
  3
ISM
 90
        0
280
     0
281
     0
  0
CLASS
  1
IMAGEDEF
  2
AcDbRasterImageDef
  3
ISM
 90
        0
280
     0
281
     0
  0
CLASS
  1
IMAGEDEF_REACTOR
  2
AcDbRasterImageDefReactor
  3
ISM
 90
        1
280
     0
281
     0
  0
CLASS
  1
IDBUFFER
  2
AcDbIdBuffer
  3
"Acad"
 90
        0
280
     0
281
     0
  0
CLASS
  1
SPATIAL_FILTER
  2
AcDbSpatialFilter
  3
"Acad"
 90
        0
280
     0
281
     0
  0
CLASS
  1
XRECORD
  2
AcDbXrecord
  3
"<Built In>"
 90
        0
280
     0
281
     0
  0
CLASS
  1
SORTENTSTABLE
  2
AcDbSortentsTable
  3
"AutoCAD"
 90
        0
280
     0
281
     0
  0
CLASS
  1
LAYER_INDEX
  2
AcDbLayerIndex
  3
"Acad"
 90
        0
280
     0
281
     0
  0
CLASS
  1
SPATIAL_INDEX
  2
AcDbSpatialIndex
  3
"Acad"
 90
        0
280
     0
281
     0
  0
CLASS
  1
OBJECT_PTR
  2
CAseDLPNTableRecord
  3
"ASE-LPNTableRecord"
 90
        1
280
     0
281
     0
  0
ENDSEC
  0
SECTION
  2
TABLES
  0
TABLE
  2
VPORT
  5
7
100
AcDbSymbolTable
 70
     1
  0
VPORT
  5
15
100
AcDbSymbolTableRecord
100
AcDbViewportTableRecord
  2
*ACTIVE
 70
     0
 10
0.0
 20
0.0
 11
1.0
 21
1.0
 12
6.591288
 22
4.579184
 13
0.0
 23
0.0
 14
1.0
 24
1.0
 15
0.0
 25
0.0
 16
0.0
 26
0.0
 36
1.0
 17
0.0
 27
0.0
 37
0.0
 40
9.158369
 41
0.688564
 42
50.0
 43
0.0
 44
0.0
 50
0.0
 51
0.0
 71
     0
 72
   100
 73
     1
 74
     1
 75
     0
 76
     0
 77
     0
 78
     0
  0
ENDTAB
  0
TABLE
  2
LTYPE
  5
4
100
AcDbSymbolTable
 70
    10
  0
LTYPE
  5
11
100
AcDbSymbolTableRecord
100
AcDbLinetypeTableRecord
  2
BYBLOCK
 70
     0
  3

 72
    65
 73
     0
 40
0.0
  0
LTYPE
  5
12
100
AcDbSymbolTableRecord
100
AcDbLinetypeTableRecord
  2
BYLAYER
 70
     0
  3

 72
    65
 73
     0
 40
0.0
  0
LTYPE
  5
13
100
AcDbSymbolTableRecord
100
AcDbLinetypeTableRecord
  2
CONTINUOUS
 70
     0
  3
Solid line
 72
    65
 73
     0
 40
0.0
  0
LTYPE
  5
1D
100
AcDbSymbolTableRecord
100
AcDbLinetypeTableRecord
  2
TRACEJADO
 70
     0
  3
topoGRAPH
 72
    65
 73
     2
 40
4.35
 49
4.0
 74
     0
 49
-0.35
 74
     0
  0
LTYPE
  5
1E
100
AcDbSymbolTableRecord
100
AcDbLinetypeTableRecord
  2
TRACO-PONTO
 70
     0
  3
topoGRAPH
 72
    65
 73
     4
 40
4.7
 49
4.0
 74
     0
 49
-0.35
 74
     0
 49
0.0
 74
     0
 49
-0.35
 74
     0
  0
LTYPE
  5
1F
100
AcDbSymbolTableRecord
100
AcDbLinetypeTableRecord
  2
CERCA
 70
     0
  3
topoGRAPH
 72
    65
 73
     4
 40
4.7
 49
4.0
 74
     0
 49
-0.35
 74
     0
 49
0.0
 74
     0
 49
-0.35
 74
     0
  0
LTYPE
  5
20
100
AcDbSymbolTableRecord
100
AcDbLinetypeTableRecord
  2
PONTILHADO
 70
     0
  3
topoGRAPH
 72
    65
 73
     2
 40
0.5
 49
0.0
 74
     0
 49
-0.5
 74
     0
  0
LTYPE
  5
21
100
AcDbSymbolTableRecord
100
AcDbLinetypeTableRecord
  2
CERCA_VIVA
 70
     0
  3
topoGRAPH
 72
    65
 73
     4
 40
4.7
 49
4.0
 74
     0
 49
-0.35
 74
     0
 49
0.0
 74
     0
 49
-0.35
 74
     0
  0
LTYPE
  5
22
100
AcDbSymbolTableRecord
100
AcDbLinetypeTableRecord
  2
TAPUME
 70
     0
  3
topoGRAPH
 72
    65
 73
     4
 40
4.7
 49
4.0
 74
     0
 49
-0.35
 74
     0
 49
0.0
 74
     0
 49
-0.35
 74
     0
  0
LTYPE
  5
23
100
AcDbSymbolTableRecord
100
AcDbLinetypeTableRecord
  2
CONTINUO
 70
     0
  3
topoGRAPH
 72
    65
 73
     0
 40
0.0
  0
ENDTAB
  0
TABLE
  2
LAYER
  5
2
100
AcDbSymbolTable
 70
     3
  0
LAYER
  5
14
100
AcDbSymbolTableRecord
100
AcDbLayerTableRecord
  2
0
 70
     0
 62
     7
  6
CONTINUOUS
  0
LAYER
  5
33
100
AcDbSymbolTableRecord
100
AcDbLayerTableRecord
  2
TG
 70
     0
 62
     7
  6
CONTINUO
  0
LAYER
  5
AD
100
AcDbSymbolTableRecord
100
AcDbLayerTableRecord
  2
_TG
 70
     0
 62
     7
  6
CONTINUO
  0
ENDTAB
  0
TABLE
  2
STYLE
  5
3
100
AcDbSymbolTable
 70
    16
  0
STYLE
  5
17
100
AcDbSymbolTableRecord
100
AcDbTextStyleTableRecord
  2
STANDARD
 70
     0
 40
0.0
 41
1.0
 50
0.0
 71
     0
 42
0.0
  3
txt
  4

  0
STYLE
  5
24
100
AcDbSymbolTableRecord
100
AcDbTextStyleTableRecord
  2
TXT
 70
     0
 40
0.2
 41
1.0
 50
0.0
 71
     0
 42
0.2
  3
txt
  4

  0
STYLE
  5
25
100
AcDbSymbolTableRecord
100
AcDbTextStyleTableRecord
  2
MONOTXT
 70
     0
 40
0.2
 41
1.0
 50
0.0
 71
     0
 42
0.2
  3
monotxt
  4

  0
STYLE
  5
26
100
AcDbSymbolTableRecord
100
AcDbTextStyleTableRecord
  2
SIMPLEX
 70
     0
 40
0.2
 41
1.0
 50
0.0
 71
     0
 42
0.2
  3
simplex
  4

  0
STYLE
  5
27
100
AcDbSymbolTableRecord
100
AcDbTextStyleTableRecord
  2
COMPLEX
 70
     0
 40
0.2
 41
1.0
 50
0.0
 71
     0
 42
0.2
  3
complex
  4

  0
STYLE
  5
28
100
AcDbSymbolTableRecord
100
AcDbTextStyleTableRecord
  2
ROMANS
 70
     0
 40
0.2
 41
1.0
 50
0.0
 71
     0
 42
0.2
  3
romans
  4

  0
STYLE
  5
29
100
AcDbSymbolTableRecord
100
AcDbTextStyleTableRecord
  2
ROMAND
 70
     0
 40
0.2
 41
1.0
 50
0.0
 71
     0
 42
0.2
  3
romand
  4

  0
STYLE
  5
2A
100
AcDbSymbolTableRecord
100
AcDbTextStyleTableRecord
  2
ROMANC
 70
     0
 40
0.2
 41
1.0
 50
0.0
 71
     0
 42
0.2
  3
romanc
  4

  0
STYLE
  5
2B
100
AcDbSymbolTableRecord
100
AcDbTextStyleTableRecord
  2
ROMANT
 70
     0
 40
0.2
 41
1.0
 50
0.0
 71
     0
 42
0.2
  3
romant
  4

  0
STYLE
  5
2C
100
AcDbSymbolTableRecord
100
AcDbTextStyleTableRecord
  2
ITALIC
 70
     0
 40
0.2
 41
1.0
 50
0.0
 71
     0
 42
0.2
  3
italic
  4

  0
STYLE
  5
2D
100
AcDbSymbolTableRecord
100
AcDbTextStyleTableRecord
  2
ITALICC
 70
     0
 40
0.2
 41
1.0
 50
0.0
 71
     0
 42
0.2
  3
italicc
  4

  0
STYLE
  5
2E
100
AcDbSymbolTableRecord
100
AcDbTextStyleTableRecord
  2
ITALICT
 70
     0
 40
0.2
 41
1.0
 50
0.0
 71
     0
 42
0.2
  3
italict
  4

  0
STYLE
  5
2F
100
AcDbSymbolTableRecord
100
AcDbTextStyleTableRecord
  2
SCRIPTC
 70
     0
 40
0.2
 41
1.0
 50
0.0
 71
     0
 42
0.2
  3
scriptc
  4

  0
STYLE
  5
30
100
AcDbSymbolTableRecord
100
AcDbTextStyleTableRecord
  2
SCRIPTS
 70
     0
 40
0.2
 41
1.0
 50
0.0
 71
     0
 42
0.2
  3
scripts
  4

  0
STYLE
  5
31
100
AcDbSymbolTableRecord
100
AcDbTextStyleTableRecord
  2
GOTHICE
 70
     0
 40
0.2
 41
1.0
 50
0.0
 71
     0
 42
0.2
  3
gothice
  4

  0
STYLE
  5
32
100
AcDbSymbolTableRecord
100
AcDbTextStyleTableRecord
  2
GOTHICG
 70
     0
 40
0.2
 41
1.0
 50
0.0
 71
     0
 42
0.2
  3
gothicg
  4

  0
ENDTAB
  0
TABLE
  2
VIEW
  5
5
100
AcDbSymbolTable
 70
     0
  0
ENDTAB
  0
TABLE
  2
UCS
  5
6
100
AcDbSymbolTable
 70
     0
  0
ENDTAB
  0
TABLE
  2
APPID
  5
8
100
AcDbSymbolTable
 70
     1
  0
APPID
  5
16
100
AcDbSymbolTableRecord
100
AcDbRegAppTableRecord
  2
ACAD
 70
     0
  0
ENDTAB
  0
TABLE
  2
DIMSTYLE
  5
9
100
AcDbSymbolTable
 70
     1
  0
DIMSTYLE
105
18
100
AcDbSymbolTableRecord
100
AcDbDimStyleTableRecord
  2
STANDARD
 70
     0
  3

  4

  5

  6

  7

 40
1.0
 41
0.18
 42
0.0625
 43
0.38
 44
0.18
 45
0.0
 46
0.0
 47
0.0
 48
0.0
140
0.18
141
0.09
142
0.0
143
25.4
144
1.0
145
0.0
146
1.0
147
0.09
 71
     0
 72
     0
 73
     1
 74
     1
 75
     0
 76
     0
 77
     0
 78
     0
170
     0
171
     2
172
     0
173
     0
174
     0
175
     0
176
     0
177
     0
178
     0
270
     2
271
     4
272
     4
273
     2
274
     2
340
17
275
     0
280
     0
281
     0
282
     0
283
     1
284
     0
285
     0
286
     0
287
     0
288
     0
  0
ENDTAB
  0
TABLE
  2
BLOCK_RECORD
  5
1
100
AcDbSymbolTable
 70
    10
  0
BLOCK_RECORD
  5
A
100
AcDbSymbolTableRecord
100
AcDbBlockTableRecord
  2
*MODEL_SPACE
  0
BLOCK_RECORD
  5
B
100
AcDbSymbolTableRecord
100
AcDbBlockTableRecord
  2
*PAPER_SPACE
  0
BLOCK_RECORD
  5
34
100
AcDbSymbolTableRecord
100
AcDbBlockTableRecord
  2
SIMB_XIS
  0
BLOCK_RECORD
  5
42
100
AcDbSymbolTableRecord
100
AcDbBlockTableRecord
  2
SIMB_CIRCULO
  0
BLOCK_RECORD
  5
4A
100
AcDbSymbolTableRecord
100
AcDbBlockTableRecord
  2
SIMB_ARVORE
  0
BLOCK_RECORD
  5
56
100
AcDbSymbolTableRecord
100
AcDbBlockTableRecord
  2
SIMB_QUADRADO
  0
BLOCK_RECORD
  5
63
100
AcDbSymbolTableRecord
100
AcDbBlockTableRecord
  2
SIMB_BOLINHA
  0
BLOCK_RECORD
  5
6B
100
AcDbSymbolTableRecord
100
AcDbBlockTableRecord
  2
SIMB_CRUZETA
  0
BLOCK_RECORD
  5
79
100
AcDbSymbolTableRecord
100
AcDbBlockTableRecord
  2
SIMB_BARRAS
  0
BLOCK_RECORD
  5
88
100
AcDbSymbolTableRecord
100
AcDbBlockTableRecord
  2
SIMB_PONTO
  0
BLOCK_RECORD
  5
8F
100
AcDbSymbolTableRecord
100
AcDbBlockTableRecord
  2
SIMB_TRIANGULO
  0
BLOCK_RECORD
  5
9B
100
AcDbSymbolTableRecord
100
AcDbBlockTableRecord
  2
SIMB_POSTE
  0
ENDTAB
  0
ENDSEC
  0
SECTION
  2
BLOCKS
  0
BLOCK
  5
D
100
AcDbEntity
  8
0
100
AcDbBlockBegin
  2
*MODEL_SPACE
 70
     0
 10
0.0
 20
0.0
 30
0.0
  3
*MODEL_SPACE
  1

  0
ENDBLK
  5
E
100
AcDbEntity
  8
0
100
AcDbBlockEnd
  0
BLOCK
  5
F
100
AcDbEntity
 67
     1
  8
0
100
AcDbBlockBegin
  2
*PAPER_SPACE
 70
     0
 10
0.0
 20
0.0
 30
0.0
  3
*PAPER_SPACE
  1

  0
ENDBLK
  5
10
100
AcDbEntity
 67
     1
  8
0
100
AcDbBlockEnd
  0
BLOCK
  5
35
100
AcDbEntity
  8
0
100
AcDbBlockBegin
  2
SIMB_XIS
 70
     0
 10
0.0
 20
0.0
 30
0.0
  3
SIMB_XIS
  1

  0
POLYLINE
  5
36
100
AcDbEntity
  8
0
 62
     0
100
AcDb2dPolyline
 66
     1
 10
0.0
 20
0.0
 30
0.0
  0
VERTEX
  5
37
100
AcDbEntity
  8
0
 62
     0
100
AcDbVertex
100
AcDb2dVertex
 10
-0.175
 20
-0.25
 30
0.0
  0
VERTEX
  5
38
100
AcDbEntity
  8
0
 62
     0
100
AcDbVertex
100
AcDb2dVertex
 10
0.175
 20
0.25
 30
0.0
  0
SEQEND
  5
39
100
AcDbEntity
  8
0
 62
     0
  0
POLYLINE
  5
3A
100
AcDbEntity
  8
0
 62
     0
100
AcDb2dPolyline
 66
     1
 10
0.0
 20
0.0
 30
0.0
  0
VERTEX
  5
3B
100
AcDbEntity
  8
0
 62
     0
100
AcDbVertex
100
AcDb2dVertex
 10
0.175
 20
-0.25
 30
0.0
  0
VERTEX
  5
3C
100
AcDbEntity
  8
0
 62
     0
100
AcDbVertex
100
AcDb2dVertex
 10
-0.175
 20
0.25
 30
0.0
  0
SEQEND
  5
3D
100
AcDbEntity
  8
0
 62
     0
  0
ATTDEF
  5
3E
100
AcDbEntity
  8
0
100
AcDbText
 10
0.0
 20
0.0
 30
0.0
 40
1.0
  1

100
AcDbAttributeDefinition
  3
pto:
  2
PONTO
 70
     0
  0
ATTDEF
  5
3F
100
AcDbEntity
  8
0
100
AcDbText
 10
0.0
 20
0.0
 30
0.0
 40
1.0
  1

100
AcDbAttributeDefinition
  3
desc:
  2
DESC
 70
     0
  0
ATTDEF
  5
40
100
AcDbEntity
  8
0
100
AcDbText
 10
0.0
 20
0.0
 30
0.0
 40
1.0
  1

100
AcDbAttributeDefinition
  3
ct:
  2
COTA
 70
     0
  0
ENDBLK
  5
41
100
AcDbEntity
  8
0
100
AcDbBlockEnd
  0
BLOCK
  5
43
100
AcDbEntity
  8
0
100
AcDbBlockBegin
  2
SIMB_CIRCULO
 70
     0
 10
0.0
 20
0.0
 30
0.0
  3
SIMB_CIRCULO
  1

  0
CIRCLE
  5
44
100
AcDbEntity
  8
0
 62
     0
100
AcDbCircle
 10
0.0
 20
0.0
 30
0.0
 40
0.25
  0
POINT
  5
45
100
AcDbEntity
  8
0
 62
     0
100
AcDbPoint
 10
0.0
 20
0.0
 30
0.0
  0
ATTDEF
  5
46
100
AcDbEntity
  8
0
100
AcDbText
 10
0.0
 20
0.0
 30
0.0
 40
1.0
  1

100
AcDbAttributeDefinition
  3
pto:
  2
PONTO
 70
     0
  0
ATTDEF
  5
47
100
AcDbEntity
  8
0
100
AcDbText
 10
0.0
 20
0.0
 30
0.0
 40
1.0
  1

100
AcDbAttributeDefinition
  3
desc:
  2
DESC
 70
     0
  0
ATTDEF
  5
48
100
AcDbEntity
  8
0
100
AcDbText
 10
0.0
 20
0.0
 30
0.0
 40
1.0
  1

100
AcDbAttributeDefinition
  3
ct:
  2
COTA
 70
     0
  0
ENDBLK
  5
49
100
AcDbEntity
  8
0
100
AcDbBlockEnd
  0
BLOCK
  5
4B
100
AcDbEntity
  8
0
100
AcDbBlockBegin
  2
SIMB_ARVORE
 70
     0
 10
0.0
 20
0.0
 30
0.0
  3
SIMB_ARVORE
  1

  0
ARC
  5
4C
100
AcDbEntity
  8
0
 62
     0
100
AcDbCircle
 10
-0.545
 20
0.75
 30
0.0
 40
0.575
100
AcDbArc
 50
18.749758
 51
233.130102
  0
ARC
  5
4D
100
AcDbEntity
  8
0
 62
     0
100
AcDbCircle
 10
-0.88
 20
-0.285
 30
0.0
 40
0.575
100
AcDbArc
 50
87.013363
 51
319.184916
  0
ARC
  5
4E
100
AcDbEntity
  8
0
 62
     0
100
AcDbCircle
 10
0.0
 20
-0.925
 30
0.0
 40
0.575
100
AcDbArc
 50
162.824096
 51
17.175904
  0
ARC
  5
4F
100
AcDbEntity
  8
0
 62
     0
100
AcDbCircle
 10
0.88
 20
-0.285
 30
0.0
 40
0.575
100
AcDbArc
 50
234.926246
 51
89.003652
  0
ARC
  5
50
100
AcDbEntity
  8
0
 62
     0
100
AcDbCircle
 10
0.545
 20
0.75
 30
0.0
 40
0.575
100
AcDbArc
 50
306.869898
 51
161.250242
  0
POINT
  5
51
100
AcDbEntity
  8
0
 62
     0
100
AcDbPoint
 10
0.0
 20
0.0
 30
0.0
  0
ATTDEF
  5
52
100
AcDbEntity
  8
0
100
AcDbText
 10
0.0
 20
0.0
 30
0.0
 40
1.0
  1

100
AcDbAttributeDefinition
  3
pto:
  2
PONTO
 70
     0
  0
ATTDEF
  5
53
100
AcDbEntity
  8
0
100
AcDbText
 10
0.0
 20
0.0
 30
0.0
 40
1.0
  1

100
AcDbAttributeDefinition
  3
desc:
  2
DESC
 70
     0
  0
ATTDEF
  5
54
100
AcDbEntity
  8
0
100
AcDbText
 10
0.0
 20
0.0
 30
0.0
 40
1.0
  1

100
AcDbAttributeDefinition
  3
ct:
  2
COTA
 70
     0
  0
ENDBLK
  5
55
100
AcDbEntity
  8
0
100
AcDbBlockEnd
  0
BLOCK
  5
57
100
AcDbEntity
  8
0
100
AcDbBlockBegin
  2
SIMB_QUADRADO
 70
     0
 10
0.0
 20
0.0
 30
0.0
  3
SIMB_QUADRADO
  1

  0
POLYLINE
  5
58
100
AcDbEntity
  8
0
 62
     0
100
AcDb2dPolyline
 66
     1
 10
0.0
 20
0.0
 30
0.0
 70
     1
  0
VERTEX
  5
59
100
AcDbEntity
  8
0
 62
     0
100
AcDbVertex
100
AcDb2dVertex
 10
-0.125
 20
-0.125
 30
0.0
  0
VERTEX
  5
5A
100
AcDbEntity
  8
0
 62
     0
100
AcDbVertex
100
AcDb2dVertex
 10
0.125
 20
-0.125
 30
0.0
  0
VERTEX
  5
5B
100
AcDbEntity
  8
0
 62
     0
100
AcDbVertex
100
AcDb2dVertex
 10
0.125
 20
0.125
 30
0.0
  0
VERTEX
  5
5C
100
AcDbEntity
  8
0
 62
     0
100
AcDbVertex
100
AcDb2dVertex
 10
-0.125
 20
0.125
 30
0.0
  0
SEQEND
  5
5D
100
AcDbEntity
  8
0
 62
     0
  0
POINT
  5
5E
100
AcDbEntity
  8
0
 62
     0
100
AcDbPoint
 10
0.0
 20
0.0
 30
0.0
  0
ATTDEF
  5
5F
100
AcDbEntity
  8
0
100
AcDbText
 10
0.0
 20
0.0
 30
0.0
 40
1.0
  1

100
AcDbAttributeDefinition
  3
pto:
  2
PONTO
 70
     0
  0
ATTDEF
  5
60
100
AcDbEntity
  8
0
100
AcDbText
 10
0.0
 20
0.0
 30
0.0
 40
1.0
  1

100
AcDbAttributeDefinition
  3
desc:
  2
DESC
 70
     0
  0
ATTDEF
  5
61
100
AcDbEntity
  8
0
100
AcDbText
 10
0.0
 20
0.0
 30
0.0
 40
1.0
  1

100
AcDbAttributeDefinition
  3
ct:
  2
COTA
 70
     0
  0
ENDBLK
  5
62
100
AcDbEntity
  8
0
100
AcDbBlockEnd
  0
BLOCK
  5
64
100
AcDbEntity
  8
0
100
AcDbBlockBegin
  2
SIMB_BOLINHA
 70
     0
 10
0.0
 20
0.0
 30
0.0
  3
SIMB_BOLINHA
  1

  0
CIRCLE
  5
65
100
AcDbEntity
  8
0
 62
     0
100
AcDbCircle
 10
0.0
 20
0.0
 30
0.0
 40
0.15
  0
POINT
  5
66
100
AcDbEntity
  8
0
 62
     0
100
AcDbPoint
 10
0.0
 20
0.0
 30
0.0
  0
ATTDEF
  5
67
100
AcDbEntity
  8
0
100
AcDbText
 10
0.0
 20
0.0
 30
0.0
 40
1.0
  1

100
AcDbAttributeDefinition
  3
pto:
  2
PONTO
 70
     0
  0
ATTDEF
  5
68
100
AcDbEntity
  8
0
100
AcDbText
 10
0.0
 20
0.0
 30
0.0
 40
1.0
  1

100
AcDbAttributeDefinition
  3
desc:
  2
DESC
 70
     0
  0
ATTDEF
  5
69
100
AcDbEntity
  8
0
100
AcDbText
 10
0.0
 20
0.0
 30
0.0
 40
1.0
  1

100
AcDbAttributeDefinition
  3
ct:
  2
COTA
 70
     0
  0
ENDBLK
  5
6A
100
AcDbEntity
  8
0
100
AcDbBlockEnd
  0
BLOCK
  5
6C
100
AcDbEntity
  8
0
100
AcDbBlockBegin
  2
SIMB_CRUZETA
 70
     0
 10
0.0
 20
0.0
 30
0.0
  3
SIMB_CRUZETA
  1

  0
POLYLINE
  5
6D
100
AcDbEntity
  8
0
 62
     0
100
AcDb2dPolyline
 66
     1
 10
0.0
 20
0.0
 30
0.0
  0
VERTEX
  5
6E
100
AcDbEntity
  8
0
 62
     0
100
AcDbVertex
100
AcDb2dVertex
 10
-0.25
 20
0.0
 30
0.0
  0
VERTEX
  5
6F
100
AcDbEntity
  8
0
 62
     0
100
AcDbVertex
100
AcDb2dVertex
 10
0.25
 20
0.0
 30
0.0
  0
SEQEND
  5
70
100
AcDbEntity
  8
0
 62
     0
  0
POLYLINE
  5
71
100
AcDbEntity
  8
0
 62
     0
100
AcDb2dPolyline
 66
     1
 10
0.0
 20
0.0
 30
0.0
  0
VERTEX
  5
72
100
AcDbEntity
  8
0
 62
     0
100
AcDbVertex
100
AcDb2dVertex
 10
0.0
 20
-0.25
 30
0.0
  0
VERTEX
  5
73
100
AcDbEntity
  8
0
 62
     0
100
AcDbVertex
100
AcDb2dVertex
 10
0.0
 20
0.25
 30
0.0
  0
SEQEND
  5
74
100
AcDbEntity
  8
0
 62
     0
  0
ATTDEF
  5
75
100
AcDbEntity
  8
0
100
AcDbText
 10
0.0
 20
0.0
 30
0.0
 40
1.0
  1

100
AcDbAttributeDefinition
  3
pto:
  2
PONTO
 70
     0
  0
ATTDEF
  5
76
100
AcDbEntity
  8
0
100
AcDbText
 10
0.0
 20
0.0
 30
0.0
 40
1.0
  1

100
AcDbAttributeDefinition
  3
desc:
  2
DESC
 70
     0
  0
ATTDEF
  5
77
100
AcDbEntity
  8
0
100
AcDbText
 10
0.0
 20
0.0
 30
0.0
 40
1.0
  1

100
AcDbAttributeDefinition
  3
ct:
  2
COTA
 70
     0
  0
ENDBLK
  5
78
100
AcDbEntity
  8
0
100
AcDbBlockEnd
  0
BLOCK
  5
7A
100
AcDbEntity
  8
0
100
AcDbBlockBegin
  2
SIMB_BARRAS
 70
     0
 10
0.0
 20
0.0
 30
0.0
  3
SIMB_BARRAS
  1

  0
POLYLINE
  5
7B
100
AcDbEntity
  8
0
 62
     0
100
AcDb2dPolyline
 66
     1
 10
0.0
 20
0.0
 30
0.0
  0
VERTEX
  5
7C
100
AcDbEntity
  8
0
 62
     0
100
AcDbVertex
100
AcDb2dVertex
 10
-0.175
 20
-0.25
 30
0.0
  0
VERTEX
  5
7D
100
AcDbEntity
  8
0
 62
     0
100
AcDbVertex
100
AcDb2dVertex
 10
-0.05
 20
0.25
 30
0.0
  0
SEQEND
  5
7E
100
AcDbEntity
  8
0
 62
     0
  0
POLYLINE
  5
7F
100
AcDbEntity
  8
0
 62
     0
100
AcDb2dPolyline
 66
     1
 10
0.0
 20
0.0
 30
0.0
  0
VERTEX
  5
80
100
AcDbEntity
  8
0
 62
     0
100
AcDbVertex
100
AcDb2dVertex
 10
0.175
 20
0.25
 30
0.0
  0
VERTEX
  5
81
100
AcDbEntity
  8
0
 62
     0
100
AcDbVertex
100
AcDb2dVertex
 10
0.05
 20
-0.25
 30
0.0
  0
SEQEND
  5
82
100
AcDbEntity
  8
0
 62
     0
  0
POINT
  5
83
100
AcDbEntity
  8
0
 62
     0
100
AcDbPoint
 10
0.0
 20
0.0
 30
0.0
  0
ATTDEF
  5
84
100
AcDbEntity
  8
0
100
AcDbText
 10
0.0
 20
0.0
 30
0.0
 40
1.0
  1

100
AcDbAttributeDefinition
  3
pto:
  2
PONTO
 70
     0
  0
ATTDEF
  5
85
100
AcDbEntity
  8
0
100
AcDbText
 10
0.0
 20
0.0
 30
0.0
 40
1.0
  1

100
AcDbAttributeDefinition
  3
desc:
  2
DESC
 70
     0
  0
ATTDEF
  5
86
100
AcDbEntity
  8
0
100
AcDbText
 10
0.0
 20
0.0
 30
0.0
 40
1.0
  1

100
AcDbAttributeDefinition
  3
ct:
  2
COTA
 70
     0
  0
ENDBLK
  5
87
100
AcDbEntity
  8
0
100
AcDbBlockEnd
  0
BLOCK
  5
89
100
AcDbEntity
  8
0
100
AcDbBlockBegin
  2
SIMB_PONTO
 70
     0
 10
0.0
 20
0.0
 30
0.0
  3
SIMB_PONTO
  1

  0
POINT
  5
8A
100
AcDbEntity
  8
0
 62
     0
100
AcDbPoint
 10
0.0
 20
0.0
 30
0.0
  0
ATTDEF
  5
8B
100
AcDbEntity
  8
0
100
AcDbText
 10
0.0
 20
0.0
 30
0.0
 40
1.0
  1

100
AcDbAttributeDefinition
  3
pto:
  2
PONTO
 70
     0
  0
ATTDEF
  5
8C
100
AcDbEntity
  8
0
100
AcDbText
 10
0.0
 20
0.0
 30
0.0
 40
1.0
  1

100
AcDbAttributeDefinition
  3
desc:
  2
DESC
 70
     0
  0
ATTDEF
  5
8D
100
AcDbEntity
  8
0
100
AcDbText
 10
0.0
 20
0.0
 30
0.0
 40
1.0
  1

100
AcDbAttributeDefinition
  3
ct:
  2
COTA
 70
     0
  0
ENDBLK
  5
8E
100
AcDbEntity
  8
0
100
AcDbBlockEnd
  0
BLOCK
  5
90
100
AcDbEntity
  8
0
100
AcDbBlockBegin
  2
SIMB_TRIANGULO
 70
     0
 10
0.0
 20
0.0
 30
0.0
  3
SIMB_TRIANGULO
  1

  0
POLYLINE
  5
91
100
AcDbEntity
  8
0
 62
     0
100
AcDb2dPolyline
 66
     1
 10
0.0
 20
0.0
 30
0.0
 70
     1
  0
VERTEX
  5
92
100
AcDbEntity
  8
0
 62
     0
100
AcDbVertex
100
AcDb2dVertex
 10
-0.3
 20
-0.15
 30
0.0
  0
VERTEX
  5
93
100
AcDbEntity
  8
0
 62
     0
100
AcDbVertex
100
AcDb2dVertex
 10
0.0
 20
0.35
 30
0.0
  0
VERTEX
  5
94
100
AcDbEntity
  8
0
 62
     0
100
AcDbVertex
100
AcDb2dVertex
 10
0.3
 20
-0.15
 30
0.0
  0
SEQEND
  5
95
100
AcDbEntity
  8
0
 62
     0
  0
POINT
  5
96
100
AcDbEntity
  8
0
 62
     0
100
AcDbPoint
 10
0.0
 20
0.0
 30
0.0
  0
ATTDEF
  5
97
100
AcDbEntity
  8
0
100
AcDbText
 10
0.0
 20
0.0
 30
0.0
 40
1.0
  1

100
AcDbAttributeDefinition
  3
pto:
  2
PONTO
 70
     0
  0
ATTDEF
  5
98
100
AcDbEntity
  8
0
100
AcDbText
 10
0.0
 20
0.0
 30
0.0
 40
1.0
  1

100
AcDbAttributeDefinition
  3
desc:
  2
DESC
 70
     0
  0
ATTDEF
  5
99
100
AcDbEntity
  8
0
100
AcDbText
 10
0.0
 20
0.0
 30
0.0
 40
1.0
  1

100
AcDbAttributeDefinition
  3
ct:
  2
COTA
 70
     0
  0
ENDBLK
  5
9A
100
AcDbEntity
  8
0
100
AcDbBlockEnd
  0
BLOCK
  5
9C
100
AcDbEntity
  8
0
100
AcDbBlockBegin
  2
SIMB_POSTE
 70
     0
 10
0.0
 20
0.0
 30
0.0
  3
SIMB_POSTE
  1

  0
POLYLINE
  5
9D
100
AcDbEntity
  8
0
 62
     0
100
AcDb2dPolyline
 66
     1
 10
0.0
 20
0.0
 30
0.0
  0
VERTEX
  5
9E
100
AcDbEntity
  8
0
 62
     0
100
AcDbVertex
100
AcDb2dVertex
 10
0.0
 20
0.0
 30
0.0
  0
VERTEX
  5
9F
100
AcDbEntity
  8
0
 62
     0
100
AcDbVertex
100
AcDb2dVertex
 10
0.0
 20
2.5
 30
0.0
  0
SEQEND
  5
A0
100
AcDbEntity
  8
0
 62
     0
  0
POLYLINE
  5
A1
100
AcDbEntity
  8
0
 62
     0
100
AcDb2dPolyline
 66
     1
 10
0.0
 20
0.0
 30
0.0
  0
VERTEX
  5
A2
100
AcDbEntity
  8
0
 62
     0
100
AcDbVertex
100
AcDb2dVertex
 10
-0.75
 20
1.5
 30
0.0
  0
VERTEX
  5
A3
100
AcDbEntity
  8
0
 62
     0
100
AcDbVertex
100
AcDb2dVertex
 10
0.75
 20
1.5
 30
0.0
  0
SEQEND
  5
A4
100
AcDbEntity
  8
0
 62
     0
  0
POLYLINE
  5
A5
100
AcDbEntity
  8
0
 62
     0
100
AcDb2dPolyline
 66
     1
 10
0.0
 20
0.0
 30
0.0
  0
VERTEX
  5
A6
100
AcDbEntity
  8
0
 62
     0
100
AcDbVertex
100
AcDb2dVertex
 10
-0.5
 20
2.0
 30
0.0
  0
VERTEX
  5
A7
100
AcDbEntity
  8
0
 62
     0
100
AcDbVertex
100
AcDb2dVertex
 10
0.5
 20
2.0
 30
0.0
  0
SEQEND
  5
A8
100
AcDbEntity
  8
0
 62
     0
  0
ATTDEF
  5
A9
100
AcDbEntity
  8
0
100
AcDbText
 10
0.0
 20
0.0
 30
0.0
 40
1.0
  1

100
AcDbAttributeDefinition
  3
pto:
  2
PONTO
 70
     0
  0
ATTDEF
  5
AA
100
AcDbEntity
  8
0
100
AcDbText
 10
0.0
 20
0.0
 30
0.0
 40
1.0
  1

100
AcDbAttributeDefinition
  3
desc:
  2
DESC
 70
     0
  0
ATTDEF
  5
AB
100
AcDbEntity
  8
0
100
AcDbText
 10
0.0
 20
0.0
 30
0.0
 40
1.0
  1

100
AcDbAttributeDefinition
  3
ct:
  2
COTA
 70
     0
  0
ENDBLK
  5
AC
100
AcDbEntity
  8
0
100
AcDbBlockEnd
  0
ENDSEC
  0
SECTION
  2
ENTITIES
  0
INSERT
  5
AE
100
AcDbEntity
  8
_TG
 62
     3
100
AcDbBlockReference
 66
     1
  2
SIMB_PONTO
 10
188643.243472
 20
1664029.661074
 30
0.0
  0
ATTRIB
  5
AF
100
AcDbEntity
  8
0
 62
     1
100
AcDbText
 10
188643.593472
 20
1664030.011074
 30
0.0
 40
0.75
  1
1
 41
0.954526
  7
SIMPLEX
100
AcDbAttribute
  2
PONTO
 70
     8
  0
ATTRIB
  5
B0
100
AcDbEntity
  8
0
 62
     4
100
AcDbText
 10
188643.593472
 20
1664030.911074
 30
0.0
 40
0.75
  1

 41
0.699986
  7
SIMPLEX
100
AcDbAttribute
  2
DESC
 70
     9
  0
ATTRIB
  5
B1
100
AcDbEntity
  8
0
 62
     2
100
AcDbText
 10
188643.593472
 20
1664028.561074
 30
0.0
 40
0.75
  1

 41
0.699986
  7
SIMPLEX
100
AcDbAttribute
  2
COTA
 70
     9
  0
SEQEND
  5
B2
100
AcDbEntity
  8
0
  0
INSERT
  5
B3
100
AcDbEntity
  8
_TG
 62
     3
100
AcDbBlockReference
 66
     1
  2
SIMB_PONTO
 10
188731.406782
 20
1664033.932166
 30
0.0
  0
ATTRIB
  5
B4
100
AcDbEntity
  8
0
 62
     1
100
AcDbText
 10
188731.756782
 20
1664034.282166
 30
0.0
 40
0.75
  1
1
 41
0.954526
  7
SIMPLEX
100
AcDbAttribute
  2
PONTO
 70
     8
  0
ATTRIB
  5
B5
100
AcDbEntity
  8
0
 62
     4
100
AcDbText
 10
188731.756782
 20
1664035.182166
 30
0.0
 40
0.75
  1
I
 41
0.699986
  7
SIMPLEX
100
AcDbAttribute
  2
DESC
 70
     9
  0
ATTRIB
  5
B6
100
AcDbEntity
  8
0
 62
     2
100
AcDbText
 10
188731.756782
 20
1664032.832166
 30
0.0
 40
0.75
  1

 41
0.699986
  7
SIMPLEX
100
AcDbAttribute
  2
COTA
 70
     9
  0
SEQEND
  5
B7
100
AcDbEntity
  8
0
  0
INSERT
  5
B8
100
AcDbEntity
  8
_TG
 62
     3
100
AcDbBlockReference
 66
     1
  2
SIMB_PONTO
 10
188643.536545
 20
1664004.587464
 30
0.0
  0
ATTRIB
  5
B9
100
AcDbEntity
  8
0
 62
     1
100
AcDbText
 10
188643.886545
 20
1664004.937464
 30
0.0
 40
0.75
  1
10
 41
0.954526
  7
SIMPLEX
100
AcDbAttribute
  2
PONTO
 70
     8
  0
ATTRIB
  5
BA
100
AcDbEntity
  8
0
 62
     4
100
AcDbText
 10
188643.886545
 20
1664005.837464
 30
0.0
 40
0.75
  1

 41
0.699986
  7
SIMPLEX
100
AcDbAttribute
  2
DESC
 70
     9
  0
ATTRIB
  5
BB
100
AcDbEntity
  8
0
 62
     2
100
AcDbText
 10
188643.886545
 20
1664003.487464
 30
0.0
 40
0.75
  1

 41
0.699986
  7
SIMPLEX
100
AcDbAttribute
  2
COTA
 70
     9
  0
SEQEND
  5
BC
100
AcDbEntity
  8
0
  0
INSERT
  5
BD
100
AcDbEntity
  8
_TG
 62
     3
100
AcDbBlockReference
 66
     1
  2
SIMB_PONTO
 10
188727.831132
 20
1664037.193571
 30
0.0
  0
ATTRIB
  5
BE
100
AcDbEntity
  8
0
 62
     1
100
AcDbText
 10
188728.181132
 20
1664037.543571
 30
0.0
 40
0.75
  1
10
 41
0.954526
  7
SIMPLEX
100
AcDbAttribute
  2
PONTO
 70
     8
  0
ATTRIB
  5
BF
100
AcDbEntity
  8
0
 62
     4
100
AcDbText
 10
188728.181132
 20
1664038.443571
 30
0.0
 40
0.75
  1
I
 41
0.699986
  7
SIMPLEX
100
AcDbAttribute
  2
DESC
 70
     9
  0
ATTRIB
  5
C0
100
AcDbEntity
  8
0
 62
     2
100
AcDbText
 10
188728.181132
 20
1664036.093571
 30
0.0
 40
0.75
  1

 41
0.699986
  7
SIMPLEX
100
AcDbAttribute
  2
COTA
 70
     9
  0
SEQEND
  5
C1
100
AcDbEntity
  8
0
  0
INSERT
  5
C2
100
AcDbEntity
  8
_TG
 62
     3
100
AcDbBlockReference
 66
     1
  2
SIMB_PONTO
 10
188645.361989
 20
1663997.951635
 30
0.0
  0
ATTRIB
  5
C3
100
AcDbEntity
  8
0
 62
     1
100
AcDbText
 10
188645.711989
 20
1663998.301635
 30
0.0
 40
0.75
  1
11
 41
0.954526
  7
SIMPLEX
100
AcDbAttribute
  2
PONTO
 70
     8
  0
ATTRIB
  5
C4
100
AcDbEntity
  8
0
 62
     4
100
AcDbText
 10
188645.711989
 20
1663999.201635
 30
0.0
 40
0.75
  1

 41
0.699986
  7
SIMPLEX
100
AcDbAttribute
  2
DESC
 70
     9
  0
ATTRIB
  5
C5
100
AcDbEntity
  8
0
 62
     2
100
AcDbText
 10
188645.711989
 20
1663996.851635
 30
0.0
 40
0.75
  1

 41
0.699986
  7
SIMPLEX
100
AcDbAttribute
  2
COTA
 70
     9
  0
SEQEND
  5
C6
100
AcDbEntity
  8
0
  0
INSERT
  5
C7
100
AcDbEntity
  8
_TG
 62
     3
100
AcDbBlockReference
 66
     1
  2
SIMB_PONTO
 10
188716.474188
 20
1664035.813436
 30
0.0
  0
ATTRIB
  5
C8
100
AcDbEntity
  8
0
 62
     1
100
AcDbText
 10
188716.824188
 20
1664036.163436
 30
0.0
 40
0.75
  1
11
 41
0.954526
  7
SIMPLEX
100
AcDbAttribute
  2
PONTO
 70
     8
  0
ATTRIB
  5
C9
100
AcDbEntity
  8
0
 62
     4
100
AcDbText
 10
188716.824188
 20
1664037.063436
 30
0.0
 40
0.75
  1
I
 41
0.699986
  7
SIMPLEX
100
AcDbAttribute
  2
DESC
 70
     9
  0
ATTRIB
  5
CA
100
AcDbEntity
  8
0
 62
     2
100
AcDbText
 10
188716.824188
 20
1664034.713436
 30
0.0
 40
0.75
  1

 41
0.699986
  7
SIMPLEX
100
AcDbAttribute
  2
COTA
 70
     9
  0
SEQEND
  5
CB
100
AcDbEntity
  8
0
  0
INSERT
  5
CC
100
AcDbEntity
  8
_TG
 62
     3
100
AcDbBlockReference
 66
     1
  2
SIMB_PONTO
 10
188647.371528
 20
1663991.153506
 30
0.0
  0
ATTRIB
  5
CD
100
AcDbEntity
  8
0
 62
     1
100
AcDbText
 10
188647.721528
 20
1663991.503506
 30
0.0
 40
0.75
  1
12
 41
0.954526
  7
SIMPLEX
100
AcDbAttribute
  2
PONTO
 70
     8
  0
ATTRIB
  5
CE
100
AcDbEntity
  8
0
 62
     4
100
AcDbText
 10
188647.721528
 20
1663992.403506
 30
0.0
 40
0.75
  1

 41
0.699986
  7
SIMPLEX
100
AcDbAttribute
  2
DESC
 70
     9
  0
ATTRIB
  5
CF
100
AcDbEntity
  8
0
 62
     2
100
AcDbText
 10
188647.721528
 20
1663990.053506
 30
0.0
 40
0.75
  1

 41
0.699986
  7
SIMPLEX
100
AcDbAttribute
  2
COTA
 70
     9
  0
SEQEND
  5
D0
100
AcDbEntity
  8
0
  0
INSERT
  5
D1
100
AcDbEntity
  8
_TG
 62
     3
100
AcDbBlockReference
 66
     1
  2
SIMB_PONTO
 10
188718.810586
 20
1664069.912818
 30
0.0
  0
ATTRIB
  5
D2
100
AcDbEntity
  8
0
 62
     1
100
AcDbText
 10
188719.160586
 20
1664070.262818
 30
0.0
 40
0.75
  1
12
 41
0.954526
  7
SIMPLEX
100
AcDbAttribute
  2
PONTO
 70
     8
  0
ATTRIB
  5
D3
100
AcDbEntity
  8
0
 62
     4
100
AcDbText
 10
188719.160586
 20
1664071.162818
 30
0.0
 40
0.75
  1
I
 41
0.699986
  7
SIMPLEX
100
AcDbAttribute
  2
DESC
 70
     9
  0
ATTRIB
  5
D4
100
AcDbEntity
  8
0
 62
     2
100
AcDbText
 10
188719.160586
 20
1664068.812818
 30
0.0
 40
0.75
  1

 41
0.699986
  7
SIMPLEX
100
AcDbAttribute
  2
COTA
 70
     9
  0
SEQEND
  5
D5
100
AcDbEntity
  8
0
  0
INSERT
  5
D6
100
AcDbEntity
  8
_TG
 62
     3
100
AcDbBlockReference
 66
     1
  2
SIMB_PONTO
 10
188711.660295
 20
1664021.097101
 30
0.0
  0
ATTRIB
  5
D7
100
AcDbEntity
  8
0
 62
     1
100
AcDbText
 10
188712.010295
 20
1664021.447101
 30
0.0
 40
0.75
  1
13
 41
0.954526
  7
SIMPLEX
100
AcDbAttribute
  2
PONTO
 70
     8
  0
ATTRIB
  5
D8
100
AcDbEntity
  8
0
 62
     4
100
AcDbText
 10
188712.010295
 20
1664022.347101
 30
0.0
 40
0.75
  1

 41
0.699986
  7
SIMPLEX
100
AcDbAttribute
  2
DESC
 70
     9
  0
ATTRIB
  5
D9
100
AcDbEntity
  8
0
 62
     2
100
AcDbText
 10
188712.010295
 20
1664019.997101
 30
0.0
 40
0.75
  1

 41
0.699986
  7
SIMPLEX
100
AcDbAttribute
  2
COTA
 70
     9
  0
SEQEND
  5
DA
100
AcDbEntity
  8
0
  0
INSERT
  5
DB
100
AcDbEntity
  8
_TG
 62
     3
100
AcDbBlockReference
 66
     1
  2
SIMB_PONTO
 10
188710.906441
 20
1664073.600301
 30
0.0
  0
ATTRIB
  5
DC
100
AcDbEntity
  8
0
 62
     1
100
AcDbText
 10
188711.256441
 20
1664073.950301
 30
0.0
 40
0.75
  1
13
 41
0.954526
  7
SIMPLEX
100
AcDbAttribute
  2
PONTO
 70
     8
  0
ATTRIB
  5
DD
100
AcDbEntity
  8
0
 62
     4
100
AcDbText
 10
188711.256441
 20
1664074.850301
 30
0.0
 40
0.75
  1
I
 41
0.699986
  7
SIMPLEX
100
AcDbAttribute
  2
DESC
 70
     9
  0
ATTRIB
  5
DE
100
AcDbEntity
  8
0
 62
     2
100
AcDbText
 10
188711.256441
 20
1664072.500301
 30
0.0
 40
0.75
  1

 41
0.699986
  7
SIMPLEX
100
AcDbAttribute
  2
COTA
 70
     9
  0
SEQEND
  5
DF
100
AcDbEntity
  8
0
  0
INSERT
  5
E0
100
AcDbEntity
  8
_TG
 62
     3
100
AcDbBlockReference
 66
     1
  2
SIMB_PONTO
 10
188712.949716
 20
1664013.591966
 30
0.0
  0
ATTRIB
  5
E1
100
AcDbEntity
  8
0
 62
     1
100
AcDbText
 10
188713.299716
 20
1664013.941966
 30
0.0
 40
0.75
  1
14
 41
0.954526
  7
SIMPLEX
100
AcDbAttribute
  2
PONTO
 70
     8
  0
ATTRIB
  5
E2
100
AcDbEntity
  8
0
 62
     4
100
AcDbText
 10
188713.299716
 20
1664014.841966
 30
0.0
 40
0.75
  1

 41
0.699986
  7
SIMPLEX
100
AcDbAttribute
  2
DESC
 70
     9
  0
ATTRIB
  5
E3
100
AcDbEntity
  8
0
 62
     2
100
AcDbText
 10
188713.299716
 20
1664012.491966
 30
0.0
 40
0.75
  1

 41
0.699986
  7
SIMPLEX
100
AcDbAttribute
  2
COTA
 70
     9
  0
SEQEND
  5
E4
100
AcDbEntity
  8
0
  0
INSERT
  5
E5
100
AcDbEntity
  8
_TG
 62
     3
100
AcDbBlockReference
 66
     1
  2
SIMB_PONTO
 10
188708.754883
 20
1664106.334301
 30
0.0
  0
ATTRIB
  5
E6
100
AcDbEntity
  8
0
 62
     1
100
AcDbText
 10
188709.104883
 20
1664106.684301
 30
0.0
 40
0.75
  1
14
 41
0.954526
  7
SIMPLEX
100
AcDbAttribute
  2
PONTO
 70
     8
  0
ATTRIB
  5
E7
100
AcDbEntity
  8
0
 62
     4
100
AcDbText
 10
188709.104883
 20
1664107.584301
 30
0.0
 40
0.75
  1
I
 41
0.699986
  7
SIMPLEX
100
AcDbAttribute
  2
DESC
 70
     9
  0
ATTRIB
  5
E8
100
AcDbEntity
  8
0
 62
     2
100
AcDbText
 10
188709.104883
 20
1664105.234301
 30
0.0
 40
0.75
  1

 41
0.699986
  7
SIMPLEX
100
AcDbAttribute
  2
COTA
 70
     9
  0
SEQEND
  5
E9
100
AcDbEntity
  8
0
  0
INSERT
  5
EA
100
AcDbEntity
  8
_TG
 62
     3
100
AcDbBlockReference
 66
     1
  2
SIMB_PONTO
 10
188717.192315
 20
1664006.545988
 30
0.0
  0
ATTRIB
  5
EB
100
AcDbEntity
  8
0
 62
     1
100
AcDbText
 10
188717.542315
 20
1664006.895988
 30
0.0
 40
0.75
  1
15
 41
0.954526
  7
SIMPLEX
100
AcDbAttribute
  2
PONTO
 70
     8
  0
ATTRIB
  5
EC
100
AcDbEntity
  8
0
 62
     4
100
AcDbText
 10
188717.542315
 20
1664007.795988
 30
0.0
 40
0.75
  1

 41
0.699986
  7
SIMPLEX
100
AcDbAttribute
  2
DESC
 70
     9
  0
ATTRIB
  5
ED
100
AcDbEntity
  8
0
 62
     2
100
AcDbText
 10
188717.542315
 20
1664005.445988
 30
0.0
 40
0.75
  1

 41
0.699986
  7
SIMPLEX
100
AcDbAttribute
  2
COTA
 70
     9
  0
SEQEND
  5
EE
100
AcDbEntity
  8
0
  0
INSERT
  5
EF
100
AcDbEntity
  8
_TG
 62
     3
100
AcDbBlockReference
 66
     1
  2
SIMB_PONTO
 10
188709.771942
 20
1664114.063786
 30
0.0
  0
ATTRIB
  5
F0
100
AcDbEntity
  8
0
 62
     1
100
AcDbText
 10
188710.121942
 20
1664114.413786
 30
0.0
 40
0.75
  1
15
 41
0.954526
  7
SIMPLEX
100
AcDbAttribute
  2
PONTO
 70
     8
  0
ATTRIB
  5
F1
100
AcDbEntity
  8
0
 62
     4
100
AcDbText
 10
188710.121942
 20
1664115.313786
 30
0.0
 40
0.75
  1
I
 41
0.699986
  7
SIMPLEX
100
AcDbAttribute
  2
DESC
 70
     9
  0
ATTRIB
  5
F2
100
AcDbEntity
  8
0
 62
     2
100
AcDbText
 10
188710.121942
 20
1664112.963786
 30
0.0
 40
0.75
  1

 41
0.699986
  7
SIMPLEX
100
AcDbAttribute
  2
COTA
 70
     9
  0
SEQEND
  5
F3
100
AcDbEntity
  8
0
  0
INSERT
  5
F4
100
AcDbEntity
  8
_TG
 62
     3
100
AcDbBlockReference
 66
     1
  2
SIMB_PONTO
 10
188671.275049
 20
1664038.840192
 30
0.0
  0
ATTRIB
  5
F5
100
AcDbEntity
  8
0
 62
     1
100
AcDbText
 10
188671.625049
 20
1664039.190192
 30
0.0
 40
0.75
  1
16
 41
0.954526
  7
SIMPLEX
100
AcDbAttribute
  2
PONTO
 70
     8
  0
ATTRIB
  5
F6
100
AcDbEntity
  8
0
 62
     4
100
AcDbText
 10
188671.625049
 20
1664040.090192
 30
0.0
 40
0.75
  1

 41
0.699986
  7
SIMPLEX
100
AcDbAttribute
  2
DESC
 70
     9
  0
ATTRIB
  5
F7
100
AcDbEntity
  8
0
 62
     2
100
AcDbText
 10
188671.625049
 20
1664037.740192
 30
0.0
 40
0.75
  1

 41
0.699986
  7
SIMPLEX
100
AcDbAttribute
  2
COTA
 70
     9
  0
SEQEND
  5
F8
100
AcDbEntity
  8
0
  0
INSERT
  5
F9
100
AcDbEntity
  8
_TG
 62
     3
100
AcDbBlockReference
 66
     1
  2
SIMB_PONTO
 10
188710.987116
 20
1664117.006466
 30
0.0
  0
ATTRIB
  5
FA
100
AcDbEntity
  8
0
 62
     1
100
AcDbText
 10
188711.337116
 20
1664117.356466
 30
0.0
 40
0.75
  1
16
 41
0.954526
  7
SIMPLEX
100
AcDbAttribute
  2
PONTO
 70
     8
  0
ATTRIB
  5
FB
100
AcDbEntity
  8
0
 62
     4
100
AcDbText
 10
188711.337116
 20
1664118.256466
 30
0.0
 40
0.75
  1
I
 41
0.699986
  7
SIMPLEX
100
AcDbAttribute
  2
DESC
 70
     9
  0
ATTRIB
  5
FC
100
AcDbEntity
  8
0
 62
     2
100
AcDbText
 10
188711.337116
 20
1664115.906466
 30
0.0
 40
0.75
  1

 41
0.699986
  7
SIMPLEX
100
AcDbAttribute
  2
COTA
 70
     9
  0
SEQEND
  5
FD
100
AcDbEntity
  8
0
  0
INSERT
  5
FE
100
AcDbEntity
  8
_TG
 62
     3
100
AcDbBlockReference
 66
     1
  2
SIMB_PONTO
 10
188683.635775
 20
1664040.296523
 30
0.0
  0
ATTRIB
  5
FF
100
AcDbEntity
  8
0
 62
     1
100
AcDbText
 10
188683.985775
 20
1664040.646523
 30
0.0
 40
0.75
  1
17
 41
0.954526
  7
SIMPLEX
100
AcDbAttribute
  2
PONTO
 70
     8
  0
ATTRIB
  5
100
100
AcDbEntity
  8
0
 62
     4
100
AcDbText
 10
188683.985775
 20
1664041.546523
 30
0.0
 40
0.75
  1

 41
0.699986
  7
SIMPLEX
100
AcDbAttribute
  2
DESC
 70
     9
  0
ATTRIB
  5
101
100
AcDbEntity
  8
0
 62
     2
100
AcDbText
 10
188683.985775
 20
1664039.196523
 30
0.0
 40
0.75
  1

 41
0.699986
  7
SIMPLEX
100
AcDbAttribute
  2
COTA
 70
     9
  0
SEQEND
  5
102
100
AcDbEntity
  8
0
  0
INSERT
  5
103
100
AcDbEntity
  8
_TG
 62
     3
100
AcDbBlockReference
 66
     1
  2
SIMB_PONTO
 10
188701.801308
 20
1664115.390237
 30
0.0
  0
ATTRIB
  5
104
100
AcDbEntity
  8
0
 62
     1
100
AcDbText
 10
188702.151308
 20
1664115.740237
 30
0.0
 40
0.75
  1
17
 41
0.954526
  7
SIMPLEX
100
AcDbAttribute
  2
PONTO
 70
     8
  0
ATTRIB
  5
105
100
AcDbEntity
  8
0
 62
     4
100
AcDbText
 10
188702.151308
 20
1664116.640237
 30
0.0
 40
0.75
  1
I
 41
0.699986
  7
SIMPLEX
100
AcDbAttribute
  2
DESC
 70
     9
  0
ATTRIB
  5
106
100
AcDbEntity
  8
0
 62
     2
100
AcDbText
 10
188702.151308
 20
1664114.290237
 30
0.0
 40
0.75
  1

 41
0.699986
  7
SIMPLEX
100
AcDbAttribute
  2
COTA
 70
     9
  0
SEQEND
  5
107
100
AcDbEntity
  8
0
  0
INSERT
  5
108
100
AcDbEntity
  8
_TG
 62
     3
100
AcDbBlockReference
 66
     1
  2
SIMB_PONTO
 10
188648.378309
 20
1664042.801357
 30
0.0
  0
ATTRIB
  5
109
100
AcDbEntity
  8
0
 62
     1
100
AcDbText
 10
188648.728309
 20
1664043.151357
 30
0.0
 40
0.75
  1
18
 41
0.954526
  7
SIMPLEX
100
AcDbAttribute
  2
PONTO
 70
     8
  0
ATTRIB
  5
10A
100
AcDbEntity
  8
0
 62
     4
100
AcDbText
 10
188648.728309
 20
1664044.051357
 30
0.0
 40
0.75
  1

 41
0.699986
  7
SIMPLEX
100
AcDbAttribute
  2
DESC
 70
     9
  0
ATTRIB
  5
10B
100
AcDbEntity
  8
0
 62
     2
100
AcDbText
 10
188648.728309
 20
1664041.701357
 30
0.0
 40
0.75
  1

 41
0.699986
  7
SIMPLEX
100
AcDbAttribute
  2
COTA
 70
     9
  0
SEQEND
  5
10C
100
AcDbEntity
  8
0
  0
INSERT
  5
10D
100
AcDbEntity
  8
_TG
 62
     3
100
AcDbBlockReference
 66
     1
  2
SIMB_PONTO
 10
188699.403066
 20
1664111.734014
 30
0.0
  0
ATTRIB
  5
10E
100
AcDbEntity
  8
0
 62
     1
100
AcDbText
 10
188699.753066
 20
1664112.084014
 30
0.0
 40
0.75
  1
18
 41
0.954526
  7
SIMPLEX
100
AcDbAttribute
  2
PONTO
 70
     8
  0
ATTRIB
  5
10F
100
AcDbEntity
  8
0
 62
     4
100
AcDbText
 10
188699.753066
 20
1664112.984014
 30
0.0
 40
0.75
  1
I
 41
0.699986
  7
SIMPLEX
100
AcDbAttribute
  2
DESC
 70
     9
  0
ATTRIB
  5
110
100
AcDbEntity
  8
0
 62
     2
100
AcDbText
 10
188699.753066
 20
1664110.634014
 30
0.0
 40
0.75
  1

 41
0.699986
  7
SIMPLEX
100
AcDbAttribute
  2
COTA
 70
     9
  0
SEQEND
  5
111
100
AcDbEntity
  8
0
  0
INSERT
  5
112
100
AcDbEntity
  8
_TG
 62
     3
100
AcDbBlockReference
 66
     1
  2
SIMB_PONTO
 10
188670.399385
 20
1664046.450735
 30
0.0
  0
ATTRIB
  5
113
100
AcDbEntity
  8
0
 62
     1
100
AcDbText
 10
188670.749385
 20
1664046.800735
 30
0.0
 40
0.75
  1
19
 41
0.954526
  7
SIMPLEX
100
AcDbAttribute
  2
PONTO
 70
     8
  0
ATTRIB
  5
114
100
AcDbEntity
  8
0
 62
     4
100
AcDbText
 10
188670.749385
 20
1664047.700735
 30
0.0
 40
0.75
  1

 41
0.699986
  7
SIMPLEX
100
AcDbAttribute
  2
DESC
 70
     9
  0
ATTRIB
  5
115
100
AcDbEntity
  8
0
 62
     2
100
AcDbText
 10
188670.749385
 20
1664045.350735
 30
0.0
 40
0.75
  1

 41
0.699986
  7
SIMPLEX
100
AcDbAttribute
  2
COTA
 70
     9
  0
SEQEND
  5
116
100
AcDbEntity
  8
0
  0
INSERT
  5
117
100
AcDbEntity
  8
_TG
 62
     3
100
AcDbBlockReference
 66
     1
  2
SIMB_PONTO
 10
188762.548784
 20
1664164.947
 30
0.0
  0
ATTRIB
  5
118
100
AcDbEntity
  8
0
 62
     1
100
AcDbText
 10
188762.898784
 20
1664165.297
 30
0.0
 40
0.75
  1
19
 41
0.954526
  7
SIMPLEX
100
AcDbAttribute
  2
PONTO
 70
     8
  0
ATTRIB
  5
119
100
AcDbEntity
  8
0
 62
     4
100
AcDbText
 10
188762.898784
 20
1664166.197
 30
0.0
 40
0.75
  1
I
 41
0.699986
  7
SIMPLEX
100
AcDbAttribute
  2
DESC
 70
     9
  0
ATTRIB
  5
11A
100
AcDbEntity
  8
0
 62
     2
100
AcDbText
 10
188762.898784
 20
1664163.847
 30
0.0
 40
0.75
  1

 41
0.699986
  7
SIMPLEX
100
AcDbAttribute
  2
COTA
 70
     9
  0
SEQEND
  5
11B
100
AcDbEntity
  8
0
  0
INSERT
  5
11C
100
AcDbEntity
  8
_TG
 62
     3
100
AcDbBlockReference
 66
     1
  2
SIMB_PONTO
 10
188649.830264
 20
1664030.439084
 30
0.0
  0
ATTRIB
  5
11D
100
AcDbEntity
  8
0
 62
     1
100
AcDbText
 10
188650.180264
 20
1664030.789084
 30
0.0
 40
0.75
  1
2
 41
0.954526
  7
SIMPLEX
100
AcDbAttribute
  2
PONTO
 70
     8
  0
ATTRIB
  5
11E
100
AcDbEntity
  8
0
 62
     4
100
AcDbText
 10
188650.180264
 20
1664031.689084
 30
0.0
 40
0.75
  1

 41
0.699986
  7
SIMPLEX
100
AcDbAttribute
  2
DESC
 70
     9
  0
ATTRIB
  5
11F
100
AcDbEntity
  8
0
 62
     2
100
AcDbText
 10
188650.180264
 20
1664029.339084
 30
0.0
 40
0.75
  1

 41
0.699986
  7
SIMPLEX
100
AcDbAttribute
  2
COTA
 70
     9
  0
SEQEND
  5
120
100
AcDbEntity
  8
0
  0
INSERT
  5
121
100
AcDbEntity
  8
_TG
 62
     3
100
AcDbBlockReference
 66
     1
  2
SIMB_PONTO
 10
188739.151964
 20
1664027.374156
 30
0.0
  0
ATTRIB
  5
122
100
AcDbEntity
  8
0
 62
     1
100
AcDbText
 10
188739.501964
 20
1664027.724156
 30
0.0
 40
0.75
  1
2
 41
0.954526
  7
SIMPLEX
100
AcDbAttribute
  2
PONTO
 70
     8
  0
ATTRIB
  5
123
100
AcDbEntity
  8
0
 62
     4
100
AcDbText
 10
188739.501964
 20
1664028.624156
 30
0.0
 40
0.75
  1
I
 41
0.699986
  7
SIMPLEX
100
AcDbAttribute
  2
DESC
 70
     9
  0
ATTRIB
  5
124
100
AcDbEntity
  8
0
 62
     2
100
AcDbText
 10
188739.501964
 20
1664026.274156
 30
0.0
 40
0.75
  1

 41
0.699986
  7
SIMPLEX
100
AcDbAttribute
  2
COTA
 70
     9
  0
SEQEND
  5
125
100
AcDbEntity
  8
0
  0
INSERT
  5
126
100
AcDbEntity
  8
_TG
 62
     3
100
AcDbBlockReference
 66
     1
  2
SIMB_PONTO
 10
188684.211707
 20
1664050.302511
 30
0.0
  0
ATTRIB
  5
127
100
AcDbEntity
  8
0
 62
     1
100
AcDbText
 10
188684.561707
 20
1664050.652511
 30
0.0
 40
0.75
  1
20
 41
0.954526
  7
SIMPLEX
100
AcDbAttribute
  2
PONTO
 70
     8
  0
ATTRIB
  5
128
100
AcDbEntity
  8
0
 62
     4
100
AcDbText
 10
188684.561707
 20
1664051.552511
 30
0.0
 40
0.75
  1

 41
0.699986
  7
SIMPLEX
100
AcDbAttribute
  2
DESC
 70
     9
  0
ATTRIB
  5
129
100
AcDbEntity
  8
0
 62
     2
100
AcDbText
 10
188684.561707
 20
1664049.202511
 30
0.0
 40
0.75
  1

 41
0.699986
  7
SIMPLEX
100
AcDbAttribute
  2
COTA
 70
     9
  0
SEQEND
  5
12A
100
AcDbEntity
  8
0
  0
INSERT
  5
12B
100
AcDbEntity
  8
_TG
 62
     3
100
AcDbBlockReference
 66
     1
  2
SIMB_PONTO
 10
188752.38137
 20
1664163.615457
 30
0.0
  0
ATTRIB
  5
12C
100
AcDbEntity
  8
0
 62
     1
100
AcDbText
 10
188752.73137
 20
1664163.965457
 30
0.0
 40
0.75
  1
20
 41
0.954526
  7
SIMPLEX
100
AcDbAttribute
  2
PONTO
 70
     8
  0
ATTRIB
  5
12D
100
AcDbEntity
  8
0
 62
     4
100
AcDbText
 10
188752.73137
 20
1664164.865457
 30
0.0
 40
0.75
  1
I
 41
0.699986
  7
SIMPLEX
100
AcDbAttribute
  2
DESC
 70
     9
  0
ATTRIB
  5
12E
100
AcDbEntity
  8
0
 62
     2
100
AcDbText
 10
188752.73137
 20
1664162.515457
 30
0.0
 40
0.75
  1

 41
0.699986
  7
SIMPLEX
100
AcDbAttribute
  2
COTA
 70
     9
  0
SEQEND
  5
12F
100
AcDbEntity
  8
0
  0
INSERT
  5
130
100
AcDbEntity
  8
_TG
 62
     3
100
AcDbBlockReference
 66
     1
  2
SIMB_PONTO
 10
188640.610933
 20
1664014.62189
 30
0.0
  0
ATTRIB
  5
131
100
AcDbEntity
  8
0
 62
     1
100
AcDbText
 10
188640.960933
 20
1664014.97189
 30
0.0
 40
0.75
  1
21
 41
0.954526
  7
SIMPLEX
100
AcDbAttribute
  2
PONTO
 70
     8
  0
ATTRIB
  5
132
100
AcDbEntity
  8
0
 62
     4
100
AcDbText
 10
188640.960933
 20
1664015.87189
 30
0.0
 40
0.75
  1

 41
0.699986
  7
SIMPLEX
100
AcDbAttribute
  2
DESC
 70
     9
  0
ATTRIB
  5
133
100
AcDbEntity
  8
0
 62
     2
100
AcDbText
 10
188640.960933
 20
1664013.52189
 30
0.0
 40
0.75
  1

 41
0.699986
  7
SIMPLEX
100
AcDbAttribute
  2
COTA
 70
     9
  0
SEQEND
  5
134
100
AcDbEntity
  8
0
  0
INSERT
  5
135
100
AcDbEntity
  8
_TG
 62
     3
100
AcDbBlockReference
 66
     1
  2
SIMB_PONTO
 10
188761.593545
 20
1664174.767892
 30
0.0
  0
ATTRIB
  5
136
100
AcDbEntity
  8
0
 62
     1
100
AcDbText
 10
188761.943545
 20
1664175.117892
 30
0.0
 40
0.75
  1
21
 41
0.954526
  7
SIMPLEX
100
AcDbAttribute
  2
PONTO
 70
     8
  0
ATTRIB
  5
137
100
AcDbEntity
  8
0
 62
     4
100
AcDbText
 10
188761.943545
 20
1664176.017892
 30
0.0
 40
0.75
  1
I
 41
0.699986
  7
SIMPLEX
100
AcDbAttribute
  2
DESC
 70
     9
  0
ATTRIB
  5
138
100
AcDbEntity
  8
0
 62
     2
100
AcDbText
 10
188761.943545
 20
1664173.667892
 30
0.0
 40
0.75
  1

 41
0.699986
  7
SIMPLEX
100
AcDbAttribute
  2
COTA
 70
     9
  0
SEQEND
  5
139
100
AcDbEntity
  8
0
  0
INSERT
  5
13A
100
AcDbEntity
  8
_TG
 62
     3
100
AcDbBlockReference
 66
     1
  2
SIMB_PONTO
 10
188664.386191
 20
1664060.791062
 30
0.0
  0
ATTRIB
  5
13B
100
AcDbEntity
  8
0
 62
     1
100
AcDbText
 10
188664.736191
 20
1664061.141062
 30
0.0
 40
0.75
  1
22
 41
0.954526
  7
SIMPLEX
100
AcDbAttribute
  2
PONTO
 70
     8
  0
ATTRIB
  5
13C
100
AcDbEntity
  8
0
 62
     4
100
AcDbText
 10
188664.736191
 20
1664062.041062
 30
0.0
 40
0.75
  1

 41
0.699986
  7
SIMPLEX
100
AcDbAttribute
  2
DESC
 70
     9
  0
ATTRIB
  5
13D
100
AcDbEntity
  8
0
 62
     2
100
AcDbText
 10
188664.736191
 20
1664059.691062
 30
0.0
 40
0.75
  1

 41
0.699986
  7
SIMPLEX
100
AcDbAttribute
  2
COTA
 70
     9
  0
SEQEND
  5
13E
100
AcDbEntity
  8
0
  0
INSERT
  5
13F
100
AcDbEntity
  8
_TG
 62
     3
100
AcDbBlockReference
 66
     1
  2
SIMB_PONTO
 10
188764.680247
 20
1664181.908851
 30
0.0
  0
ATTRIB
  5
140
100
AcDbEntity
  8
0
 62
     1
100
AcDbText
 10
188765.030247
 20
1664182.258851
 30
0.0
 40
0.75
  1
22
 41
0.954526
  7
SIMPLEX
100
AcDbAttribute
  2
PONTO
 70
     8
  0
ATTRIB
  5
141
100
AcDbEntity
  8
0
 62
     4
100
AcDbText
 10
188765.030247
 20
1664183.158851
 30
0.0
 40
0.75
  1
I
 41
0.699986
  7
SIMPLEX
100
AcDbAttribute
  2
DESC
 70
     9
  0
ATTRIB
  5
142
100
AcDbEntity
  8
0
 62
     2
100
AcDbText
 10
188765.030247
 20
1664180.808851
 30
0.0
 40
0.75
  1

 41
0.699986
  7
SIMPLEX
100
AcDbAttribute
  2
COTA
 70
     9
  0
SEQEND
  5
143
100
AcDbEntity
  8
0
  0
INSERT
  5
144
100
AcDbEntity
  8
_TG
 62
     3
100
AcDbBlockReference
 66
     1
  2
SIMB_PONTO
 10
188663.669819
 20
1664066.91247
 30
0.0
  0
ATTRIB
  5
145
100
AcDbEntity
  8
0
 62
     1
100
AcDbText
 10
188664.019819
 20
1664067.26247
 30
0.0
 40
0.75
  1
23
 41
0.954526
  7
SIMPLEX
100
AcDbAttribute
  2
PONTO
 70
     8
  0
ATTRIB
  5
146
100
AcDbEntity
  8
0
 62
     4
100
AcDbText
 10
188664.019819
 20
1664068.16247
 30
0.0
 40
0.75
  1

 41
0.699986
  7
SIMPLEX
100
AcDbAttribute
  2
DESC
 70
     9
  0
ATTRIB
  5
147
100
AcDbEntity
  8
0
 62
     2
100
AcDbText
 10
188664.019819
 20
1664065.81247
 30
0.0
 40
0.75
  1

 41
0.699986
  7
SIMPLEX
100
AcDbAttribute
  2
COTA
 70
     9
  0
SEQEND
  5
148
100
AcDbEntity
  8
0
  0
INSERT
  5
149
100
AcDbEntity
  8
_TG
 62
     3
100
AcDbBlockReference
 66
     1
  2
SIMB_PONTO
 10
188769.923288
 20
1664178.272483
 30
0.0
  0
ATTRIB
  5
14A
100
AcDbEntity
  8
0
 62
     1
100
AcDbText
 10
188770.273288
 20
1664178.622483
 30
0.0
 40
0.75
  1
23
 41
0.954526
  7
SIMPLEX
100
AcDbAttribute
  2
PONTO
 70
     8
  0
ATTRIB
  5
14B
100
AcDbEntity
  8
0
 62
     4
100
AcDbText
 10
188770.273288
 20
1664179.522483
 30
0.0
 40
0.75
  1
I
 41
0.699986
  7
SIMPLEX
100
AcDbAttribute
  2
DESC
 70
     9
  0
ATTRIB
  5
14C
100
AcDbEntity
  8
0
 62
     2
100
AcDbText
 10
188770.273288
 20
1664177.172483
 30
0.0
 40
0.75
  1

 41
0.699986
  7
SIMPLEX
100
AcDbAttribute
  2
COTA
 70
     9
  0
SEQEND
  5
14D
100
AcDbEntity
  8
0
  0
INSERT
  5
14E
100
AcDbEntity
  8
_TG
 62
     3
100
AcDbBlockReference
 66
     1
  2
SIMB_PONTO
 10
188688.335019
 20
1664028.196542
 30
0.0
  0
ATTRIB
  5
14F
100
AcDbEntity
  8
0
 62
     1
100
AcDbText
 10
188688.685019
 20
1664028.546542
 30
0.0
 40
0.75
  1
24
 41
0.954526
  7
SIMPLEX
100
AcDbAttribute
  2
PONTO
 70
     8
  0
ATTRIB
  5
150
100
AcDbEntity
  8
0
 62
     4
100
AcDbText
 10
188688.685019
 20
1664029.446542
 30
0.0
 40
0.75
  1

 41
0.699986
  7
SIMPLEX
100
AcDbAttribute
  2
DESC
 70
     9
  0
ATTRIB
  5
151
100
AcDbEntity
  8
0
 62
     2
100
AcDbText
 10
188688.685019
 20
1664027.096542
 30
0.0
 40
0.75
  1

 41
0.699986
  7
SIMPLEX
100
AcDbAttribute
  2
COTA
 70
     9
  0
SEQEND
  5
152
100
AcDbEntity
  8
0
  0
INSERT
  5
153
100
AcDbEntity
  8
_TG
 62
     3
100
AcDbBlockReference
 66
     1
  2
SIMB_PONTO
 10
188781.799889
 20
1664221.95804
 30
0.0
  0
ATTRIB
  5
154
100
AcDbEntity
  8
0
 62
     1
100
AcDbText
 10
188782.149889
 20
1664222.30804
 30
0.0
 40
0.75
  1
24
 41
0.954526
  7
SIMPLEX
100
AcDbAttribute
  2
PONTO
 70
     8
  0
ATTRIB
  5
155
100
AcDbEntity
  8
0
 62
     4
100
AcDbText
 10
188782.149889
 20
1664223.20804
 30
0.0
 40
0.75
  1
I
 41
0.699986
  7
SIMPLEX
100
AcDbAttribute
  2
DESC
 70
     9
  0
ATTRIB
  5
156
100
AcDbEntity
  8
0
 62
     2
100
AcDbText
 10
188782.149889
 20
1664220.85804
 30
0.0
 40
0.75
  1

 41
0.699986
  7
SIMPLEX
100
AcDbAttribute
  2
COTA
 70
     9
  0
SEQEND
  5
157
100
AcDbEntity
  8
0
  0
INSERT
  5
158
100
AcDbEntity
  8
_TG
 62
     3
100
AcDbBlockReference
 66
     1
  2
SIMB_PONTO
 10
188670.982856
 20
1664061.595586
 30
0.0
  0
ATTRIB
  5
159
100
AcDbEntity
  8
0
 62
     1
100
AcDbText
 10
188671.332856
 20
1664061.945586
 30
0.0
 40
0.75
  1
25
 41
0.954526
  7
SIMPLEX
100
AcDbAttribute
  2
PONTO
 70
     8
  0
ATTRIB
  5
15A
100
AcDbEntity
  8
0
 62
     4
100
AcDbText
 10
188671.332856
 20
1664062.845586
 30
0.0
 40
0.75
  1

 41
0.699986
  7
SIMPLEX
100
AcDbAttribute
  2
DESC
 70
     9
  0
ATTRIB
  5
15B
100
AcDbEntity
  8
0
 62
     2
100
AcDbText
 10
188671.332856
 20
1664060.495586
 30
0.0
 40
0.75
  1

 41
0.699986
  7
SIMPLEX
100
AcDbAttribute
  2
COTA
 70
     9
  0
SEQEND
  5
15C
100
AcDbEntity
  8
0
  0
INSERT
  5
15D
100
AcDbEntity
  8
_TG
 62
     3
100
AcDbBlockReference
 66
     1
  2
SIMB_PONTO
 10
188773.254064
 20
1664222.388296
 30
0.0
  0
ATTRIB
  5
15E
100
AcDbEntity
  8
0
 62
     1
100
AcDbText
 10
188773.604064
 20
1664222.738296
 30
0.0
 40
0.75
  1
25
 41
0.954526
  7
SIMPLEX
100
AcDbAttribute
  2
PONTO
 70
     8
  0
ATTRIB
  5
15F
100
AcDbEntity
  8
0
 62
     4
100
AcDbText
 10
188773.604064
 20
1664223.638296
 30
0.0
 40
0.75
  1
I
 41
0.699986
  7
SIMPLEX
100
AcDbAttribute
  2
DESC
 70
     9
  0
ATTRIB
  5
160
100
AcDbEntity
  8
0
 62
     2
100
AcDbText
 10
188773.604064
 20
1664221.288296
 30
0.0
 40
0.75
  1

 41
0.699986
  7
SIMPLEX
100
AcDbAttribute
  2
COTA
 70
     9
  0
SEQEND
  5
161
100
AcDbEntity
  8
0
  0
INSERT
  5
162
100
AcDbEntity
  8
_TG
 62
     3
100
AcDbBlockReference
 66
     1
  2
SIMB_PONTO
 10
188658.828898
 20
1664052.124011
 30
0.0
  0
ATTRIB
  5
163
100
AcDbEntity
  8
0
 62
     1
100
AcDbText
 10
188659.178898
 20
1664052.474011
 30
0.0
 40
0.75
  1
26
 41
0.954526
  7
SIMPLEX
100
AcDbAttribute
  2
PONTO
 70
     8
  0
ATTRIB
  5
164
100
AcDbEntity
  8
0
 62
     4
100
AcDbText
 10
188659.178898
 20
1664053.374011
 30
0.0
 40
0.75
  1

 41
0.699986
  7
SIMPLEX
100
AcDbAttribute
  2
DESC
 70
     9
  0
ATTRIB
  5
165
100
AcDbEntity
  8
0
 62
     2
100
AcDbText
 10
188659.178898
 20
1664051.024011
 30
0.0
 40
0.75
  1

 41
0.699986
  7
SIMPLEX
100
AcDbAttribute
  2
COTA
 70
     9
  0
SEQEND
  5
166
100
AcDbEntity
  8
0
  0
INSERT
  5
167
100
AcDbEntity
  8
_TG
 62
     3
100
AcDbBlockReference
 66
     1
  2
SIMB_PONTO
 10
188768.310959
 20
1664174.289783
 30
0.0
  0
ATTRIB
  5
168
100
AcDbEntity
  8
0
 62
     1
100
AcDbText
 10
188768.660959
 20
1664174.639783
 30
0.0
 40
0.75
  1
26
 41
0.954526
  7
SIMPLEX
100
AcDbAttribute
  2
PONTO
 70
     8
  0
ATTRIB
  5
169
100
AcDbEntity
  8
0
 62
     4
100
AcDbText
 10
188768.660959
 20
1664175.539783
 30
0.0
 40
0.75
  1
I
 41
0.699986
  7
SIMPLEX
100
AcDbAttribute
  2
DESC
 70
     9
  0
ATTRIB
  5
16A
100
AcDbEntity
  8
0
 62
     2
100
AcDbText
 10
188768.660959
 20
1664173.189783
 30
0.0
 40
0.75
  1

 41
0.699986
  7
SIMPLEX
100
AcDbAttribute
  2
COTA
 70
     9
  0
SEQEND
  5
16B
100
AcDbEntity
  8
0
  0
INSERT
  5
16C
100
AcDbEntity
  8
_TG
 62
     3
100
AcDbBlockReference
 66
     1
  2
SIMB_PONTO
 10
188660.221429
 20
1664053.839725
 30
0.0
  0
ATTRIB
  5
16D
100
AcDbEntity
  8
0
 62
     1
100
AcDbText
 10
188660.571429
 20
1664054.189725
 30
0.0
 40
0.75
  1
27
 41
0.954526
  7
SIMPLEX
100
AcDbAttribute
  2
PONTO
 70
     8
  0
ATTRIB
  5
16E
100
AcDbEntity
  8
0
 62
     4
100
AcDbText
 10
188660.571429
 20
1664055.089725
 30
0.0
 40
0.75
  1

 41
0.699986
  7
SIMPLEX
100
AcDbAttribute
  2
DESC
 70
     9
  0
ATTRIB
  5
16F
100
AcDbEntity
  8
0
 62
     2
100
AcDbText
 10
188660.571429
 20
1664052.739725
 30
0.0
 40
0.75
  1

 41
0.699986
  7
SIMPLEX
100
AcDbAttribute
  2
COTA
 70
     9
  0
SEQEND
  5
170
100
AcDbEntity
  8
0
  0
INSERT
  5
171
100
AcDbEntity
  8
_TG
 62
     3
100
AcDbBlockReference
 66
     1
  2
SIMB_PONTO
 10
188749.687959
 20
1664164.170463
 30
0.0
  0
ATTRIB
  5
172
100
AcDbEntity
  8
0
 62
     1
100
AcDbText
 10
188750.037959
 20
1664164.520463
 30
0.0
 40
0.75
  1
27
 41
0.954526
  7
SIMPLEX
100
AcDbAttribute
  2
PONTO
 70
     8
  0
ATTRIB
  5
173
100
AcDbEntity
  8
0
 62
     4
100
AcDbText
 10
188750.037959
 20
1664165.420463
 30
0.0
 40
0.75
  1
I
 41
0.699986
  7
SIMPLEX
100
AcDbAttribute
  2
DESC
 70
     9
  0
ATTRIB
  5
174
100
AcDbEntity
  8
0
 62
     2
100
AcDbText
 10
188750.037959
 20
1664163.070463
 30
0.0
 40
0.75
  1

 41
0.699986
  7
SIMPLEX
100
AcDbAttribute
  2
COTA
 70
     9
  0
SEQEND
  5
175
100
AcDbEntity
  8
0
  0
INSERT
  5
176
100
AcDbEntity
  8
_TG
 62
     3
100
AcDbBlockReference
 66
     1
  2
SIMB_PONTO
 10
188679.14442
 20
1664062.526208
 30
0.0
  0
ATTRIB
  5
177
100
AcDbEntity
  8
0
 62
     1
100
AcDbText
 10
188679.49442
 20
1664062.876208
 30
0.0
 40
0.75
  1
28
 41
0.954526
  7
SIMPLEX
100
AcDbAttribute
  2
PONTO
 70
     8
  0
ATTRIB
  5
178
100
AcDbEntity
  8
0
 62
     4
100
AcDbText
 10
188679.49442
 20
1664063.776208
 30
0.0
 40
0.75
  1

 41
0.699986
  7
SIMPLEX
100
AcDbAttribute
  2
DESC
 70
     9
  0
ATTRIB
  5
179
100
AcDbEntity
  8
0
 62
     2
100
AcDbText
 10
188679.49442
 20
1664061.426208
 30
0.0
 40
0.75
  1

 41
0.699986
  7
SIMPLEX
100
AcDbAttribute
  2
COTA
 70
     9
  0
SEQEND
  5
17A
100
AcDbEntity
  8
0
  0
INSERT
  5
17B
100
AcDbEntity
  8
_TG
 62
     3
100
AcDbBlockReference
 66
     1
  2
SIMB_PONTO
 10
188759.03877
 20
1664175.866458
 30
0.0
  0
ATTRIB
  5
17C
100
AcDbEntity
  8
0
 62
     1
100
AcDbText
 10
188759.38877
 20
1664176.216458
 30
0.0
 40
0.75
  1
28
 41
0.954526
  7
SIMPLEX
100
AcDbAttribute
  2
PONTO
 70
     8
  0
ATTRIB
  5
17D
100
AcDbEntity
  8
0
 62
     4
100
AcDbText
 10
188759.38877
 20
1664177.116458
 30
0.0
 40
0.75
  1
I
 41
0.699986
  7
SIMPLEX
100
AcDbAttribute
  2
DESC
 70
     9
  0
ATTRIB
  5
17E
100
AcDbEntity
  8
0
 62
     2
100
AcDbText
 10
188759.38877
 20
1664174.766458
 30
0.0
 40
0.75
  1

 41
0.699986
  7
SIMPLEX
100
AcDbAttribute
  2
COTA
 70
     9
  0
SEQEND
  5
17F
100
AcDbEntity
  8
0
  0
INSERT
  5
180
100
AcDbEntity
  8
_TG
 62
     3
100
AcDbBlockReference
 66
     1
  2
SIMB_PONTO
 10
188659.493556
 20
1664058.787144
 30
0.0
  0
ATTRIB
  5
181
100
AcDbEntity
  8
0
 62
     1
100
AcDbText
 10
188659.843556
 20
1664059.137144
 30
0.0
 40
0.75
  1
29
 41
0.954526
  7
SIMPLEX
100
AcDbAttribute
  2
PONTO
 70
     8
  0
ATTRIB
  5
182
100
AcDbEntity
  8
0
 62
     4
100
AcDbText
 10
188659.843556
 20
1664060.037144
 30
0.0
 40
0.75
  1

 41
0.699986
  7
SIMPLEX
100
AcDbAttribute
  2
DESC
 70
     9
  0
ATTRIB
  5
183
100
AcDbEntity
  8
0
 62
     2
100
AcDbText
 10
188659.843556
 20
1664057.687144
 30
0.0
 40
0.75
  1

 41
0.699986
  7
SIMPLEX
100
AcDbAttribute
  2
COTA
 70
     9
  0
SEQEND
  5
184
100
AcDbEntity
  8
0
  0
INSERT
  5
185
100
AcDbEntity
  8
_TG
 62
     3
100
AcDbBlockReference
 66
     1
  2
SIMB_PONTO
 10
188751.656027
 20
1664183.434413
 30
0.0
  0
ATTRIB
  5
186
100
AcDbEntity
  8
0
 62
     1
100
AcDbText
 10
188752.006027
 20
1664183.784413
 30
0.0
 40
0.75
  1
29
 41
0.954526
  7
SIMPLEX
100
AcDbAttribute
  2
PONTO
 70
     8
  0
ATTRIB
  5
187
100
AcDbEntity
  8
0
 62
     4
100
AcDbText
 10
188752.006027
 20
1664184.684413
 30
0.0
 40
0.75
  1
I
 41
0.699986
  7
SIMPLEX
100
AcDbAttribute
  2
DESC
 70
     9
  0
ATTRIB
  5
188
100
AcDbEntity
  8
0
 62
     2
100
AcDbText
 10
188752.006027
 20
1664182.334413
 30
0.0
 40
0.75
  1

 41
0.699986
  7
SIMPLEX
100
AcDbAttribute
  2
COTA
 70
     9
  0
SEQEND
  5
189
100
AcDbEntity
  8
0
  0
INSERT
  5
18A
100
AcDbEntity
  8
_TG
 62
     3
100
AcDbBlockReference
 66
     1
  2
SIMB_PONTO
 10
188656.262045
 20
1664031.335523
 30
0.0
  0
ATTRIB
  5
18B
100
AcDbEntity
  8
0
 62
     1
100
AcDbText
 10
188656.612045
 20
1664031.685523
 30
0.0
 40
0.75
  1
3
 41
0.954526
  7
SIMPLEX
100
AcDbAttribute
  2
PONTO
 70
     8
  0
ATTRIB
  5
18C
100
AcDbEntity
  8
0
 62
     4
100
AcDbText
 10
188656.612045
 20
1664032.585523
 30
0.0
 40
0.75
  1

 41
0.699986
  7
SIMPLEX
100
AcDbAttribute
  2
DESC
 70
     9
  0
ATTRIB
  5
18D
100
AcDbEntity
  8
0
 62
     2
100
AcDbText
 10
188656.612045
 20
1664030.235523
 30
0.0
 40
0.75
  1

 41
0.699986
  7
SIMPLEX
100
AcDbAttribute
  2
COTA
 70
     9
  0
SEQEND
  5
18E
100
AcDbEntity
  8
0
  0
INSERT
  5
18F
100
AcDbEntity
  8
_TG
 62
     3
100
AcDbBlockReference
 66
     1
  2
SIMB_PONTO
 10
188739.471505
 20
1664034.292222
 30
0.0
  0
ATTRIB
  5
190
100
AcDbEntity
  8
0
 62
     1
100
AcDbText
 10
188739.821505
 20
1664034.642222
 30
0.0
 40
0.75
  1
3
 41
0.954526
  7
SIMPLEX
100
AcDbAttribute
  2
PONTO
 70
     8
  0
ATTRIB
  5
191
100
AcDbEntity
  8
0
 62
     4
100
AcDbText
 10
188739.821505
 20
1664035.542222
 30
0.0
 40
0.75
  1
I
 41
0.699986
  7
SIMPLEX
100
AcDbAttribute
  2
DESC
 70
     9
  0
ATTRIB
  5
192
100
AcDbEntity
  8
0
 62
     2
100
AcDbText
 10
188739.821505
 20
1664033.192222
 30
0.0
 40
0.75
  1

 41
0.699986
  7
SIMPLEX
100
AcDbAttribute
  2
COTA
 70
     9
  0
SEQEND
  5
193
100
AcDbEntity
  8
0
  0
INSERT
  5
194
100
AcDbEntity
  8
_TG
 62
     3
100
AcDbBlockReference
 66
     1
  2
SIMB_PONTO
 10
188658.000273
 20
1664059.896173
 30
0.0
  0
ATTRIB
  5
195
100
AcDbEntity
  8
0
 62
     1
100
AcDbText
 10
188658.350273
 20
1664060.246173
 30
0.0
 40
0.75
  1
30
 41
0.954526
  7
SIMPLEX
100
AcDbAttribute
  2
PONTO
 70
     8
  0
ATTRIB
  5
196
100
AcDbEntity
  8
0
 62
     4
100
AcDbText
 10
188658.350273
 20
1664061.146173
 30
0.0
 40
0.75
  1

 41
0.699986
  7
SIMPLEX
100
AcDbAttribute
  2
DESC
 70
     9
  0
ATTRIB
  5
197
100
AcDbEntity
  8
0
 62
     2
100
AcDbText
 10
188658.350273
 20
1664058.796173
 30
0.0
 40
0.75
  1

 41
0.699986
  7
SIMPLEX
100
AcDbAttribute
  2
COTA
 70
     9
  0
SEQEND
  5
198
100
AcDbEntity
  8
0
  0
INSERT
  5
199
100
AcDbEntity
  8
_TG
 62
     3
100
AcDbBlockReference
 66
     1
  2
SIMB_PONTO
 10
188751.034309
 20
1664188.580293
 30
0.0
  0
ATTRIB
  5
19A
100
AcDbEntity
  8
0
 62
     1
100
AcDbText
 10
188751.384309
 20
1664188.930293
 30
0.0
 40
0.75
  1
30
 41
0.954526
  7
SIMPLEX
100
AcDbAttribute
  2
PONTO
 70
     8
  0
ATTRIB
  5
19B
100
AcDbEntity
  8
0
 62
     4
100
AcDbText
 10
188751.384309
 20
1664189.830293
 30
0.0
 40
0.75
  1
I
 41
0.699986
  7
SIMPLEX
100
AcDbAttribute
  2
DESC
 70
     9
  0
ATTRIB
  5
19C
100
AcDbEntity
  8
0
 62
     2
100
AcDbText
 10
188751.384309
 20
1664187.480293
 30
0.0
 40
0.75
  1

 41
0.699986
  7
SIMPLEX
100
AcDbAttribute
  2
COTA
 70
     9
  0
SEQEND
  5
19D
100
AcDbEntity
  8
0
  0
INSERT
  5
19E
100
AcDbEntity
  8
_TG
 62
     3
100
AcDbBlockReference
 66
     1
  2
SIMB_PONTO
 10
188656.88131
 20
1664069.04139
 30
0.0
  0
ATTRIB
  5
19F
100
AcDbEntity
  8
0
 62
     1
100
AcDbText
 10
188657.23131
 20
1664069.39139
 30
0.0
 40
0.75
  1
31
 41
0.954526
  7
SIMPLEX
100
AcDbAttribute
  2
PONTO
 70
     8
  0
ATTRIB
  5
1A0
100
AcDbEntity
  8
0
 62
     4
100
AcDbText
 10
188657.23131
 20
1664070.29139
 30
0.0
 40
0.75
  1

 41
0.699986
  7
SIMPLEX
100
AcDbAttribute
  2
DESC
 70
     9
  0
ATTRIB
  5
1A1
100
AcDbEntity
  8
0
 62
     2
100
AcDbText
 10
188657.23131
 20
1664067.94139
 30
0.0
 40
0.75
  1

 41
0.699986
  7
SIMPLEX
100
AcDbAttribute
  2
COTA
 70
     9
  0
SEQEND
  5
1A2
100
AcDbEntity
  8
0
  0
INSERT
  5
1A3
100
AcDbEntity
  8
_TG
 62
     3
100
AcDbBlockReference
 66
     1
  2
SIMB_PONTO
 10
188764.089865
 20
1664189.270277
 30
0.0
  0
ATTRIB
  5
1A4
100
AcDbEntity
  8
0
 62
     1
100
AcDbText
 10
188764.439865
 20
1664189.620277
 30
0.0
 40
0.75
  1
31
 41
0.954526
  7
SIMPLEX
100
AcDbAttribute
  2
PONTO
 70
     8
  0
ATTRIB
  5
1A5
100
AcDbEntity
  8
0
 62
     4
100
AcDbText
 10
188764.439865
 20
1664190.520277
 30
0.0
 40
0.75
  1
I
 41
0.699986
  7
SIMPLEX
100
AcDbAttribute
  2
DESC
 70
     9
  0
ATTRIB
  5
1A6
100
AcDbEntity
  8
0
 62
     2
100
AcDbText
 10
188764.439865
 20
1664188.170277
 30
0.0
 40
0.75
  1

 41
0.699986
  7
SIMPLEX
100
AcDbAttribute
  2
COTA
 70
     9
  0
SEQEND
  5
1A7
100
AcDbEntity
  8
0
  0
INSERT
  5
1A8
100
AcDbEntity
  8
_TG
 62
     3
100
AcDbBlockReference
 66
     1
  2
SIMB_PONTO
 10
188651.968459
 20
1664067.957201
 30
0.0
  0
ATTRIB
  5
1A9
100
AcDbEntity
  8
0
 62
     1
100
AcDbText
 10
188652.318459
 20
1664068.307201
 30
0.0
 40
0.75
  1
32
 41
0.954526
  7
SIMPLEX
100
AcDbAttribute
  2
PONTO
 70
     8
  0
ATTRIB
  5
1AA
100
AcDbEntity
  8
0
 62
     4
100
AcDbText
 10
188652.318459
 20
1664069.207201
 30
0.0
 40
0.75
  1

 41
0.699986
  7
SIMPLEX
100
AcDbAttribute
  2
DESC
 70
     9
  0
ATTRIB
  5
1AB
100
AcDbEntity
  8
0
 62
     2
100
AcDbText
 10
188652.318459
 20
1664066.857201
 30
0.0
 40
0.75
  1

 41
0.699986
  7
SIMPLEX
100
AcDbAttribute
  2
COTA
 70
     9
  0
SEQEND
  5
1AC
100
AcDbEntity
  8
0
  0
INSERT
  5
1AD
100
AcDbEntity
  8
_TG
 62
     3
100
AcDbBlockReference
 66
     1
  2
SIMB_PONTO
 10
188752.548236
 20
1664175.357509
 30
0.0
  0
ATTRIB
  5
1AE
100
AcDbEntity
  8
0
 62
     1
100
AcDbText
 10
188752.898236
 20
1664175.707509
 30
0.0
 40
0.75
  1
32
 41
0.954526
  7
SIMPLEX
100
AcDbAttribute
  2
PONTO
 70
     8
  0
ATTRIB
  5
1AF
100
AcDbEntity
  8
0
 62
     4
100
AcDbText
 10
188752.898236
 20
1664176.607509
 30
0.0
 40
0.75
  1
I
 41
0.699986
  7
SIMPLEX
100
AcDbAttribute
  2
DESC
 70
     9
  0
ATTRIB
  5
1B0
100
AcDbEntity
  8
0
 62
     2
100
AcDbText
 10
188752.898236
 20
1664174.257509
 30
0.0
 40
0.75
  1

 41
0.699986
  7
SIMPLEX
100
AcDbAttribute
  2
COTA
 70
     9
  0
SEQEND
  5
1B1
100
AcDbEntity
  8
0
  0
INSERT
  5
1B2
100
AcDbEntity
  8
_TG
 62
     3
100
AcDbBlockReference
 66
     1
  2
SIMB_PONTO
 10
188685.764678
 20
1664063.321552
 30
0.0
  0
ATTRIB
  5
1B3
100
AcDbEntity
  8
0
 62
     1
100
AcDbText
 10
188686.114678
 20
1664063.671552
 30
0.0
 40
0.75
  1
33
 41
0.954526
  7
SIMPLEX
100
AcDbAttribute
  2
PONTO
 70
     8
  0
ATTRIB
  5
1B4
100
AcDbEntity
  8
0
 62
     4
100
AcDbText
 10
188686.114678
 20
1664064.571552
 30
0.0
 40
0.75
  1

 41
0.699986
  7
SIMPLEX
100
AcDbAttribute
  2
DESC
 70
     9
  0
ATTRIB
  5
1B5
100
AcDbEntity
  8
0
 62
     2
100
AcDbText
 10
188686.114678
 20
1664062.221552
 30
0.0
 40
0.75
  1

 41
0.699986
  7
SIMPLEX
100
AcDbAttribute
  2
COTA
 70
     9
  0
SEQEND
  5
1B6
100
AcDbEntity
  8
0
  0
INSERT
  5
1B7
100
AcDbEntity
  8
_TG
 62
     3
100
AcDbBlockReference
 66
     1
  2
SIMB_PONTO
 10
188746.29095
 20
1664174.653742
 30
0.0
  0
ATTRIB
  5
1B8
100
AcDbEntity
  8
0
 62
     1
100
AcDbText
 10
188746.64095
 20
1664175.003742
 30
0.0
 40
0.75
  1
33
 41
0.954526
  7
SIMPLEX
100
AcDbAttribute
  2
PONTO
 70
     8
  0
ATTRIB
  5
1B9
100
AcDbEntity
  8
0
 62
     4
100
AcDbText
 10
188746.64095
 20
1664175.903742
 30
0.0
 40
0.75
  1
I
 41
0.699986
  7
SIMPLEX
100
AcDbAttribute
  2
DESC
 70
     9
  0
ATTRIB
  5
1BA
100
AcDbEntity
  8
0
 62
     2
100
AcDbText
 10
188746.64095
 20
1664173.553742
 30
0.0
 40
0.75
  1

 41
0.699986
  7
SIMPLEX
100
AcDbAttribute
  2
COTA
 70
     9
  0
SEQEND
  5
1BB
100
AcDbEntity
  8
0
  0
INSERT
  5
1BC
100
AcDbEntity
  8
_TG
 62
     3
100
AcDbBlockReference
 66
     1
  2
SIMB_PONTO
 10
188691.463263
 20
1664062.432805
 30
0.0
  0
ATTRIB
  5
1BD
100
AcDbEntity
  8
0
 62
     1
100
AcDbText
 10
188691.813263
 20
1664062.782805
 30
0.0
 40
0.75
  1
34
 41
0.954526
  7
SIMPLEX
100
AcDbAttribute
  2
PONTO
 70
     8
  0
ATTRIB
  5
1BE
100
AcDbEntity
  8
0
 62
     4
100
AcDbText
 10
188691.813263
 20
1664063.682805
 30
0.0
 40
0.75
  1

 41
0.699986
  7
SIMPLEX
100
AcDbAttribute
  2
DESC
 70
     9
  0
ATTRIB
  5
1BF
100
AcDbEntity
  8
0
 62
     2
100
AcDbText
 10
188691.813263
 20
1664061.332805
 30
0.0
 40
0.75
  1

 41
0.699986
  7
SIMPLEX
100
AcDbAttribute
  2
COTA
 70
     9
  0
SEQEND
  5
1C0
100
AcDbEntity
  8
0
  0
INSERT
  5
1C1
100
AcDbEntity
  8
_TG
 62
     3
100
AcDbBlockReference
 66
     1
  2
SIMB_PONTO
 10
188757.629223
 20
1664213.879355
 30
0.0
  0
ATTRIB
  5
1C2
100
AcDbEntity
  8
0
 62
     1
100
AcDbText
 10
188757.979223
 20
1664214.229355
 30
0.0
 40
0.75
  1
34
 41
0.954526
  7
SIMPLEX
100
AcDbAttribute
  2
PONTO
 70
     8
  0
ATTRIB
  5
1C3
100
AcDbEntity
  8
0
 62
     4
100
AcDbText
 10
188757.979223
 20
1664215.129355
 30
0.0
 40
0.75
  1
I
 41
0.699986
  7
SIMPLEX
100
AcDbAttribute
  2
DESC
 70
     9
  0
ATTRIB
  5
1C4
100
AcDbEntity
  8
0
 62
     2
100
AcDbText
 10
188757.979223
 20
1664212.779355
 30
0.0
 40
0.75
  1

 41
0.699986
  7
SIMPLEX
100
AcDbAttribute
  2
COTA
 70
     9
  0
SEQEND
  5
1C5
100
AcDbEntity
  8
0
  0
INSERT
  5
1C6
100
AcDbEntity
  8
_TG
 62
     3
100
AcDbBlockReference
 66
     1
  2
SIMB_PONTO
 10
188692.674689
 20
1664064.329856
 30
0.0
  0
ATTRIB
  5
1C7
100
AcDbEntity
  8
0
 62
     1
100
AcDbText
 10
188693.024689
 20
1664064.679856
 30
0.0
 40
0.75
  1
35
 41
0.954526
  7
SIMPLEX
100
AcDbAttribute
  2
PONTO
 70
     8
  0
ATTRIB
  5
1C8
100
AcDbEntity
  8
0
 62
     4
100
AcDbText
 10
188693.024689
 20
1664065.579856
 30
0.0
 40
0.75
  1

 41
0.699986
  7
SIMPLEX
100
AcDbAttribute
  2
DESC
 70
     9
  0
ATTRIB
  5
1C9
100
AcDbEntity
  8
0
 62
     2
100
AcDbText
 10
188693.024689
 20
1664063.229856
 30
0.0
 40
0.75
  1

 41
0.699986
  7
SIMPLEX
100
AcDbAttribute
  2
COTA
 70
     9
  0
SEQEND
  5
1CA
100
AcDbEntity
  8
0
  0
INSERT
  5
1CB
100
AcDbEntity
  8
_TG
 62
     3
100
AcDbBlockReference
 66
     1
  2
SIMB_PONTO
 10
188768.444208
 20
1664212.096216
 30
0.0
  0
ATTRIB
  5
1CC
100
AcDbEntity
  8
0
 62
     1
100
AcDbText
 10
188768.794208
 20
1664212.446216
 30
0.0
 40
0.75
  1
35
 41
0.954526
  7
SIMPLEX
100
AcDbAttribute
  2
PONTO
 70
     8
  0
ATTRIB
  5
1CD
100
AcDbEntity
  8
0
 62
     4
100
AcDbText
 10
188768.794208
 20
1664213.346216
 30
0.0
 40
0.75
  1
I
 41
0.699986
  7
SIMPLEX
100
AcDbAttribute
  2
DESC
 70
     9
  0
ATTRIB
  5
1CE
100
AcDbEntity
  8
0
 62
     2
100
AcDbText
 10
188768.794208
 20
1664210.996216
 30
0.0
 40
0.75
  1

 41
0.699986
  7
SIMPLEX
100
AcDbAttribute
  2
COTA
 70
     9
  0
SEQEND
  5
1CF
100
AcDbEntity
  8
0
  0
INSERT
  5
1D0
100
AcDbEntity
  8
_TG
 62
     3
100
AcDbBlockReference
 66
     1
  2
SIMB_PONTO
 10
188698.424443
 20
1664058.210616
 30
0.0
  0
ATTRIB
  5
1D1
100
AcDbEntity
  8
0
 62
     1
100
AcDbText
 10
188698.774443
 20
1664058.560616
 30
0.0
 40
0.75
  1
36
 41
0.954526
  7
SIMPLEX
100
AcDbAttribute
  2
PONTO
 70
     8
  0
ATTRIB
  5
1D2
100
AcDbEntity
  8
0
 62
     4
100
AcDbText
 10
188698.774443
 20
1664059.460616
 30
0.0
 40
0.75
  1

 41
0.699986
  7
SIMPLEX
100
AcDbAttribute
  2
DESC
 70
     9
  0
ATTRIB
  5
1D3
100
AcDbEntity
  8
0
 62
     2
100
AcDbText
 10
188698.774443
 20
1664057.110616
 30
0.0
 40
0.75
  1

 41
0.699986
  7
SIMPLEX
100
AcDbAttribute
  2
COTA
 70
     9
  0
SEQEND
  5
1D4
100
AcDbEntity
  8
0
  0
INSERT
  5
1D5
100
AcDbEntity
  8
_TG
 62
     3
100
AcDbBlockReference
 66
     1
  2
SIMB_PONTO
 10
188758.965934
 20
1664202.471922
 30
0.0
  0
ATTRIB
  5
1D6
100
AcDbEntity
  8
0
 62
     1
100
AcDbText
 10
188759.315934
 20
1664202.821922
 30
0.0
 40
0.75
  1
36
 41
0.954526
  7
SIMPLEX
100
AcDbAttribute
  2
PONTO
 70
     8
  0
ATTRIB
  5
1D7
100
AcDbEntity
  8
0
 62
     4
100
AcDbText
 10
188759.315934
 20
1664203.721922
 30
0.0
 40
0.75
  1
I
 41
0.699986
  7
SIMPLEX
100
AcDbAttribute
  2
DESC
 70
     9
  0
ATTRIB
  5
1D8
100
AcDbEntity
  8
0
 62
     2
100
AcDbText
 10
188759.315934
 20
1664201.371922
 30
0.0
 40
0.75
  1

 41
0.699986
  7
SIMPLEX
100
AcDbAttribute
  2
COTA
 70
     9
  0
SEQEND
  5
1D9
100
AcDbEntity
  8
0
  0
INSERT
  5
1DA
100
AcDbEntity
  8
_TG
 62
     3
100
AcDbBlockReference
 66
     1
  2
SIMB_PONTO
 10
188706.432254
 20
1664053.190234
 30
0.0
  0
ATTRIB
  5
1DB
100
AcDbEntity
  8
0
 62
     1
100
AcDbText
 10
188706.782254
 20
1664053.540234
 30
0.0
 40
0.75
  1
37
 41
0.954526
  7
SIMPLEX
100
AcDbAttribute
  2
PONTO
 70
     8
  0
ATTRIB
  5
1DC
100
AcDbEntity
  8
0
 62
     4
100
AcDbText
 10
188706.782254
 20
1664054.440234
 30
0.0
 40
0.75
  1

 41
0.699986
  7
SIMPLEX
100
AcDbAttribute
  2
DESC
 70
     9
  0
ATTRIB
  5
1DD
100
AcDbEntity
  8
0
 62
     2
100
AcDbText
 10
188706.782254
 20
1664052.090234
 30
0.0
 40
0.75
  1

 41
0.699986
  7
SIMPLEX
100
AcDbAttribute
  2
COTA
 70
     9
  0
SEQEND
  5
1DE
100
AcDbEntity
  8
0
  0
INSERT
  5
1DF
100
AcDbEntity
  8
_TG
 62
     3
100
AcDbBlockReference
 66
     1
  2
SIMB_PONTO
 10
188758.202249
 20
1664209.101671
 30
0.0
  0
ATTRIB
  5
1E0
100
AcDbEntity
  8
0
 62
     1
100
AcDbText
 10
188758.552249
 20
1664209.451671
 30
0.0
 40
0.75
  1
37
 41
0.954526
  7
SIMPLEX
100
AcDbAttribute
  2
PONTO
 70
     8
  0
ATTRIB
  5
1E1
100
AcDbEntity
  8
0
 62
     4
100
AcDbText
 10
188758.552249
 20
1664210.351671
 30
0.0
 40
0.75
  1
I
 41
0.699986
  7
SIMPLEX
100
AcDbAttribute
  2
DESC
 70
     9
  0
ATTRIB
  5
1E2
100
AcDbEntity
  8
0
 62
     2
100
AcDbText
 10
188758.552249
 20
1664208.001671
 30
0.0
 40
0.75
  1

 41
0.699986
  7
SIMPLEX
100
AcDbAttribute
  2
COTA
 70
     9
  0
SEQEND
  5
1E3
100
AcDbEntity
  8
0
  0
INSERT
  5
1E4
100
AcDbEntity
  8
_TG
 62
     3
100
AcDbBlockReference
 66
     1
  2
SIMB_PONTO
 10
188684.349652
 20
1664075.67262
 30
0.0
  0
ATTRIB
  5
1E5
100
AcDbEntity
  8
0
 62
     1
100
AcDbText
 10
188684.699652
 20
1664076.02262
 30
0.0
 40
0.75
  1
38
 41
0.954526
  7
SIMPLEX
100
AcDbAttribute
  2
PONTO
 70
     8
  0
ATTRIB
  5
1E6
100
AcDbEntity
  8
0
 62
     4
100
AcDbText
 10
188684.699652
 20
1664076.92262
 30
0.0
 40
0.75
  1

 41
0.699986
  7
SIMPLEX
100
AcDbAttribute
  2
DESC
 70
     9
  0
ATTRIB
  5
1E7
100
AcDbEntity
  8
0
 62
     2
100
AcDbText
 10
188684.699652
 20
1664074.57262
 30
0.0
 40
0.75
  1

 41
0.699986
  7
SIMPLEX
100
AcDbAttribute
  2
COTA
 70
     9
  0
SEQEND
  5
1E8
100
AcDbEntity
  8
0
  0
INSERT
  5
1E9
100
AcDbEntity
  8
_TG
 62
     3
100
AcDbBlockReference
 66
     1
  2
SIMB_PONTO
 10
188759.895027
 20
1664195.13805
 30
0.0
  0
ATTRIB
  5
1EA
100
AcDbEntity
  8
0
 62
     1
100
AcDbText
 10
188760.245027
 20
1664195.48805
 30
0.0
 40
0.75
  1
38
 41
0.954526
  7
SIMPLEX
100
AcDbAttribute
  2
PONTO
 70
     8
  0
ATTRIB
  5
1EB
100
AcDbEntity
  8
0
 62
     4
100
AcDbText
 10
188760.245027
 20
1664196.38805
 30
0.0
 40
0.75
  1
I
 41
0.699986
  7
SIMPLEX
100
AcDbAttribute
  2
DESC
 70
     9
  0
ATTRIB
  5
1EC
100
AcDbEntity
  8
0
 62
     2
100
AcDbText
 10
188760.245027
 20
1664194.03805
 30
0.0
 40
0.75
  1

 41
0.699986
  7
SIMPLEX
100
AcDbAttribute
  2
COTA
 70
     9
  0
SEQEND
  5
1ED
100
AcDbEntity
  8
0
  0
INSERT
  5
1EE
100
AcDbEntity
  8
_TG
 62
     3
100
AcDbBlockReference
 66
     1
  2
SIMB_PONTO
 10
188707.962669
 20
1664041.145724
 30
0.0
  0
ATTRIB
  5
1EF
100
AcDbEntity
  8
0
 62
     1
100
AcDbText
 10
188708.312669
 20
1664041.495724
 30
0.0
 40
0.75
  1
39
 41
0.954526
  7
SIMPLEX
100
AcDbAttribute
  2
PONTO
 70
     8
  0
ATTRIB
  5
1F0
100
AcDbEntity
  8
0
 62
     4
100
AcDbText
 10
188708.312669
 20
1664042.395724
 30
0.0
 40
0.75
  1

 41
0.699986
  7
SIMPLEX
100
AcDbAttribute
  2
DESC
 70
     9
  0
ATTRIB
  5
1F1
100
AcDbEntity
  8
0
 62
     2
100
AcDbText
 10
188708.312669
 20
1664040.045724
 30
0.0
 40
0.75
  1

 41
0.699986
  7
SIMPLEX
100
AcDbAttribute
  2
COTA
 70
     9
  0
SEQEND
  5
1F2
100
AcDbEntity
  8
0
  0
INSERT
  5
1F3
100
AcDbEntity
  8
_TG
 62
     3
100
AcDbBlockReference
 66
     1
  2
SIMB_PONTO
 10
188760.390188
 20
1664190.974031
 30
0.0
  0
ATTRIB
  5
1F4
100
AcDbEntity
  8
0
 62
     1
100
AcDbText
 10
188760.740188
 20
1664191.324031
 30
0.0
 40
0.75
  1
39
 41
0.954526
  7
SIMPLEX
100
AcDbAttribute
  2
PONTO
 70
     8
  0
ATTRIB
  5
1F5
100
AcDbEntity
  8
0
 62
     4
100
AcDbText
 10
188760.740188
 20
1664192.224031
 30
0.0
 40
0.75
  1
I
 41
0.699986
  7
SIMPLEX
100
AcDbAttribute
  2
DESC
 70
     9
  0
ATTRIB
  5
1F6
100
AcDbEntity
  8
0
 62
     2
100
AcDbText
 10
188760.740188
 20
1664189.874031
 30
0.0
 40
0.75
  1

 41
0.699986
  7
SIMPLEX
100
AcDbAttribute
  2
COTA
 70
     9
  0
SEQEND
  5
1F7
100
AcDbEntity
  8
0
  0
INSERT
  5
1F8
100
AcDbEntity
  8
_TG
 62
     3
100
AcDbBlockReference
 66
     1
  2
SIMB_PONTO
 10
188661.177948
 20
1664032.102589
 30
0.0
  0
ATTRIB
  5
1F9
100
AcDbEntity
  8
0
 62
     1
100
AcDbText
 10
188661.527948
 20
1664032.452589
 30
0.0
 40
0.75
  1
4
 41
0.954526
  7
SIMPLEX
100
AcDbAttribute
  2
PONTO
 70
     8
  0
ATTRIB
  5
1FA
100
AcDbEntity
  8
0
 62
     4
100
AcDbText
 10
188661.527948
 20
1664033.352589
 30
0.0
 40
0.75
  1

 41
0.699986
  7
SIMPLEX
100
AcDbAttribute
  2
DESC
 70
     9
  0
ATTRIB
  5
1FB
100
AcDbEntity
  8
0
 62
     2
100
AcDbText
 10
188661.527948
 20
1664031.002589
 30
0.0
 40
0.75
  1

 41
0.699986
  7
SIMPLEX
100
AcDbAttribute
  2
COTA
 70
     9
  0
SEQEND
  5
1FC
100
AcDbEntity
  8
0
  0
INSERT
  5
1FD
100
AcDbEntity
  8
_TG
 62
     3
100
AcDbBlockReference
 66
     1
  2
SIMB_PONTO
 10
188739.5778
 20
1664019.418182
 30
0.0
  0
ATTRIB
  5
1FE
100
AcDbEntity
  8
0
 62
     1
100
AcDbText
 10
188739.9278
 20
1664019.768182
 30
0.0
 40
0.75
  1
4
 41
0.954526
  7
SIMPLEX
100
AcDbAttribute
  2
PONTO
 70
     8
  0
ATTRIB
  5
1FF
100
AcDbEntity
  8
0
 62
     4
100
AcDbText
 10
188739.9278
 20
1664020.668182
 30
0.0
 40
0.75
  1
I
 41
0.699986
  7
SIMPLEX
100
AcDbAttribute
  2
DESC
 70
     9
  0
ATTRIB
  5
200
100
AcDbEntity
  8
0
 62
     2
100
AcDbText
 10
188739.9278
 20
1664018.318182
 30
0.0
 40
0.75
  1

 41
0.699986
  7
SIMPLEX
100
AcDbAttribute
  2
COTA
 70
     9
  0
SEQEND
  5
201
100
AcDbEntity
  8
0
  0
INSERT
  5
202
100
AcDbEntity
  8
_TG
 62
     3
100
AcDbBlockReference
 66
     1
  2
SIMB_PONTO
 10
188702.663272
 20
1664061.238353
 30
0.0
  0
ATTRIB
  5
203
100
AcDbEntity
  8
0
 62
     1
100
AcDbText
 10
188703.013272
 20
1664061.588353
 30
0.0
 40
0.75
  1
40
 41
0.954526
  7
SIMPLEX
100
AcDbAttribute
  2
PONTO
 70
     8
  0
ATTRIB
  5
204
100
AcDbEntity
  8
0
 62
     4
100
AcDbText
 10
188703.013272
 20
1664062.488353
 30
0.0
 40
0.75
  1

 41
0.699986
  7
SIMPLEX
100
AcDbAttribute
  2
DESC
 70
     9
  0
ATTRIB
  5
205
100
AcDbEntity
  8
0
 62
     2
100
AcDbText
 10
188703.013272
 20
1664060.138353
 30
0.0
 40
0.75
  1

 41
0.699986
  7
SIMPLEX
100
AcDbAttribute
  2
COTA
 70
     9
  0
SEQEND
  5
206
100
AcDbEntity
  8
0
  0
INSERT
  5
207
100
AcDbEntity
  8
_TG
 62
     3
100
AcDbBlockReference
 66
     1
  2
SIMB_PONTO
 10
188756.463135
 20
1664196.792012
 30
0.0
  0
ATTRIB
  5
208
100
AcDbEntity
  8
0
 62
     1
100
AcDbText
 10
188756.813135
 20
1664197.142012
 30
0.0
 40
0.75
  1
40
 41
0.954526
  7
SIMPLEX
100
AcDbAttribute
  2
PONTO
 70
     8
  0
ATTRIB
  5
209
100
AcDbEntity
  8
0
 62
     4
100
AcDbText
 10
188756.813135
 20
1664198.042012
 30
0.0
 40
0.75
  1
I
 41
0.699986
  7
SIMPLEX
100
AcDbAttribute
  2
DESC
 70
     9
  0
ATTRIB
  5
20A
100
AcDbEntity
  8
0
 62
     2
100
AcDbText
 10
188756.813135
 20
1664195.692012
 30
0.0
 40
0.75
  1

 41
0.699986
  7
SIMPLEX
100
AcDbAttribute
  2
COTA
 70
     9
  0
SEQEND
  5
20B
100
AcDbEntity
  8
0
  0
INSERT
  5
20C
100
AcDbEntity
  8
_TG
 62
     3
100
AcDbBlockReference
 66
     1
  2
SIMB_PONTO
 10
188706.198563
 20
1664056.681582
 30
0.0
  0
ATTRIB
  5
20D
100
AcDbEntity
  8
0
 62
     1
100
AcDbText
 10
188706.548563
 20
1664057.031582
 30
0.0
 40
0.75
  1
41
 41
0.954526
  7
SIMPLEX
100
AcDbAttribute
  2
PONTO
 70
     8
  0
ATTRIB
  5
20E
100
AcDbEntity
  8
0
 62
     4
100
AcDbText
 10
188706.548563
 20
1664057.931582
 30
0.0
 40
0.75
  1

 41
0.699986
  7
SIMPLEX
100
AcDbAttribute
  2
DESC
 70
     9
  0
ATTRIB
  5
20F
100
AcDbEntity
  8
0
 62
     2
100
AcDbText
 10
188706.548563
 20
1664055.581582
 30
0.0
 40
0.75
  1

 41
0.699986
  7
SIMPLEX
100
AcDbAttribute
  2
COTA
 70
     9
  0
SEQEND
  5
210
100
AcDbEntity
  8
0
  0
INSERT
  5
211
100
AcDbEntity
  8
_TG
 62
     3
100
AcDbBlockReference
 66
     1
  2
SIMB_PONTO
 10
188743.909167
 20
1664195.377148
 30
0.0
  0
ATTRIB
  5
212
100
AcDbEntity
  8
0
 62
     1
100
AcDbText
 10
188744.259167
 20
1664195.727148
 30
0.0
 40
0.75
  1
41
 41
0.954526
  7
SIMPLEX
100
AcDbAttribute
  2
PONTO
 70
     8
  0
ATTRIB
  5
213
100
AcDbEntity
  8
0
 62
     4
100
AcDbText
 10
188744.259167
 20
1664196.627148
 30
0.0
 40
0.75
  1
I
 41
0.699986
  7
SIMPLEX
100
AcDbAttribute
  2
DESC
 70
     9
  0
ATTRIB
  5
214
100
AcDbEntity
  8
0
 62
     2
100
AcDbText
 10
188744.259167
 20
1664194.277148
 30
0.0
 40
0.75
  1

 41
0.699986
  7
SIMPLEX
100
AcDbAttribute
  2
COTA
 70
     9
  0
SEQEND
  5
215
100
AcDbEntity
  8
0
  0
INSERT
  5
216
100
AcDbEntity
  8
_TG
 62
     3
100
AcDbBlockReference
 66
     1
  2
SIMB_PONTO
 10
188703.310363
 20
1664056.365424
 30
0.0
  0
ATTRIB
  5
217
100
AcDbEntity
  8
0
 62
     1
100
AcDbText
 10
188703.660363
 20
1664056.715424
 30
0.0
 40
0.75
  1
42
 41
0.954526
  7
SIMPLEX
100
AcDbAttribute
  2
PONTO
 70
     8
  0
ATTRIB
  5
218
100
AcDbEntity
  8
0
 62
     4
100
AcDbText
 10
188703.660363
 20
1664057.615424
 30
0.0
 40
0.75
  1

 41
0.699986
  7
SIMPLEX
100
AcDbAttribute
  2
DESC
 70
     9
  0
ATTRIB
  5
219
100
AcDbEntity
  8
0
 62
     2
100
AcDbText
 10
188703.660363
 20
1664055.265424
 30
0.0
 40
0.75
  1

 41
0.699986
  7
SIMPLEX
100
AcDbAttribute
  2
COTA
 70
     9
  0
SEQEND
  5
21A
100
AcDbEntity
  8
0
  0
INSERT
  5
21B
100
AcDbEntity
  8
_TG
 62
     3
100
AcDbBlockReference
 66
     1
  2
SIMB_PONTO
 10
188739.925931
 20
1664200.282221
 30
0.0
  0
ATTRIB
  5
21C
100
AcDbEntity
  8
0
 62
     1
100
AcDbText
 10
188740.275931
 20
1664200.632221
 30
0.0
 40
0.75
  1
42
 41
0.954526
  7
SIMPLEX
100
AcDbAttribute
  2
PONTO
 70
     8
  0
ATTRIB
  5
21D
100
AcDbEntity
  8
0
 62
     4
100
AcDbText
 10
188740.275931
 20
1664201.532221
 30
0.0
 40
0.75
  1
I
 41
0.699986
  7
SIMPLEX
100
AcDbAttribute
  2
DESC
 70
     9
  0
ATTRIB
  5
21E
100
AcDbEntity
  8
0
 62
     2
100
AcDbText
 10
188740.275931
 20
1664199.182221
 30
0.0
 40
0.75
  1

 41
0.699986
  7
SIMPLEX
100
AcDbAttribute
  2
COTA
 70
     9
  0
SEQEND
  5
21F
100
AcDbEntity
  8
0
  0
INSERT
  5
220
100
AcDbEntity
  8
_TG
 62
     3
100
AcDbBlockReference
 66
     1
  2
SIMB_PONTO
 10
188682.646924
 20
1664094.671571
 30
0.0
  0
ATTRIB
  5
221
100
AcDbEntity
  8
0
 62
     1
100
AcDbText
 10
188682.996924
 20
1664095.021571
 30
0.0
 40
0.75
  1
43
 41
0.954526
  7
SIMPLEX
100
AcDbAttribute
  2
PONTO
 70
     8
  0
ATTRIB
  5
222
100
AcDbEntity
  8
0
 62
     4
100
AcDbText
 10
188682.996924
 20
1664095.921571
 30
0.0
 40
0.75
  1

 41
0.699986
  7
SIMPLEX
100
AcDbAttribute
  2
DESC
 70
     9
  0
ATTRIB
  5
223
100
AcDbEntity
  8
0
 62
     2
100
AcDbText
 10
188682.996924
 20
1664093.571571
 30
0.0
 40
0.75
  1

 41
0.699986
  7
SIMPLEX
100
AcDbAttribute
  2
COTA
 70
     9
  0
SEQEND
  5
224
100
AcDbEntity
  8
0
  0
INSERT
  5
225
100
AcDbEntity
  8
_TG
 62
     3
100
AcDbBlockReference
 66
     1
  2
SIMB_PONTO
 10
188740.831488
 20
1664193.942331
 30
0.0
  0
ATTRIB
  5
226
100
AcDbEntity
  8
0
 62
     1
100
AcDbText
 10
188741.181488
 20
1664194.292331
 30
0.0
 40
0.75
  1
43
 41
0.954526
  7
SIMPLEX
100
AcDbAttribute
  2
PONTO
 70
     8
  0
ATTRIB
  5
227
100
AcDbEntity
  8
0
 62
     4
100
AcDbText
 10
188741.181488
 20
1664195.192331
 30
0.0
 40
0.75
  1
I
 41
0.699986
  7
SIMPLEX
100
AcDbAttribute
  2
DESC
 70
     9
  0
ATTRIB
  5
228
100
AcDbEntity
  8
0
 62
     2
100
AcDbText
 10
188741.181488
 20
1664192.842331
 30
0.0
 40
0.75
  1

 41
0.699986
  7
SIMPLEX
100
AcDbAttribute
  2
COTA
 70
     9
  0
SEQEND
  5
229
100
AcDbEntity
  8
0
  0
INSERT
  5
22A
100
AcDbEntity
  8
_TG
 62
     3
100
AcDbBlockReference
 66
     1
  2
SIMB_PONTO
 10
188682.164786
 20
1664094.588471
 30
0.0
  0
ATTRIB
  5
22B
100
AcDbEntity
  8
0
 62
     1
100
AcDbText
 10
188682.514786
 20
1664094.938471
 30
0.0
 40
0.75
  1
44
 41
0.954526
  7
SIMPLEX
100
AcDbAttribute
  2
PONTO
 70
     8
  0
ATTRIB
  5
22C
100
AcDbEntity
  8
0
 62
     4
100
AcDbText
 10
188682.514786
 20
1664095.838471
 30
0.0
 40
0.75
  1

 41
0.699986
  7
SIMPLEX
100
AcDbAttribute
  2
DESC
 70
     9
  0
ATTRIB
  5
22D
100
AcDbEntity
  8
0
 62
     2
100
AcDbText
 10
188682.514786
 20
1664093.488471
 30
0.0
 40
0.75
  1

 41
0.699986
  7
SIMPLEX
100
AcDbAttribute
  2
COTA
 70
     9
  0
SEQEND
  5
22E
100
AcDbEntity
  8
0
  0
INSERT
  5
22F
100
AcDbEntity
  8
_TG
 62
     3
100
AcDbBlockReference
 66
     1
  2
SIMB_PONTO
 10
188730.953612
 20
1664186.720276
 30
0.0
  0
ATTRIB
  5
230
100
AcDbEntity
  8
0
 62
     1
100
AcDbText
 10
188731.303612
 20
1664187.070276
 30
0.0
 40
0.75
  1
44
 41
0.954526
  7
SIMPLEX
100
AcDbAttribute
  2
PONTO
 70
     8
  0
ATTRIB
  5
231
100
AcDbEntity
  8
0
 62
     4
100
AcDbText
 10
188731.303612
 20
1664187.970276
 30
0.0
 40
0.75
  1
I
 41
0.699986
  7
SIMPLEX
100
AcDbAttribute
  2
DESC
 70
     9
  0
ATTRIB
  5
232
100
AcDbEntity
  8
0
 62
     2
100
AcDbText
 10
188731.303612
 20
1664185.620276
 30
0.0
 40
0.75
  1

 41
0.699986
  7
SIMPLEX
100
AcDbAttribute
  2
COTA
 70
     9
  0
SEQEND
  5
233
100
AcDbEntity
  8
0
  0
INSERT
  5
234
100
AcDbEntity
  8
_TG
 62
     3
100
AcDbBlockReference
 66
     1
  2
SIMB_PONTO
 10
188693.39378
 20
1664101.338499
 30
0.0
  0
ATTRIB
  5
235
100
AcDbEntity
  8
0
 62
     1
100
AcDbText
 10
188693.74378
 20
1664101.688499
 30
0.0
 40
0.75
  1
45
 41
0.954526
  7
SIMPLEX
100
AcDbAttribute
  2
PONTO
 70
     8
  0
ATTRIB
  5
236
100
AcDbEntity
  8
0
 62
     4
100
AcDbText
 10
188693.74378
 20
1664102.588499
 30
0.0
 40
0.75
  1

 41
0.699986
  7
SIMPLEX
100
AcDbAttribute
  2
DESC
 70
     9
  0
ATTRIB
  5
237
100
AcDbEntity
  8
0
 62
     2
100
AcDbText
 10
188693.74378
 20
1664100.238499
 30
0.0
 40
0.75
  1

 41
0.699986
  7
SIMPLEX
100
AcDbAttribute
  2
COTA
 70
     9
  0
SEQEND
  5
238
100
AcDbEntity
  8
0
  0
INSERT
  5
239
100
AcDbEntity
  8
_TG
 62
     3
100
AcDbBlockReference
 66
     1
  2
SIMB_PONTO
 10
188737.598524
 20
1664187.472258
 30
0.0
  0
ATTRIB
  5
23A
100
AcDbEntity
  8
0
 62
     1
100
AcDbText
 10
188737.948524
 20
1664187.822258
 30
0.0
 40
0.75
  1
45
 41
0.954526
  7
SIMPLEX
100
AcDbAttribute
  2
PONTO
 70
     8
  0
ATTRIB
  5
23B
100
AcDbEntity
  8
0
 62
     4
100
AcDbText
 10
188737.948524
 20
1664188.722258
 30
0.0
 40
0.75
  1
I
 41
0.699986
  7
SIMPLEX
100
AcDbAttribute
  2
DESC
 70
     9
  0
ATTRIB
  5
23C
100
AcDbEntity
  8
0
 62
     2
100
AcDbText
 10
188737.948524
 20
1664186.372258
 30
0.0
 40
0.75
  1

 41
0.699986
  7
SIMPLEX
100
AcDbAttribute
  2
COTA
 70
     9
  0
SEQEND
  5
23D
100
AcDbEntity
  8
0
  0
INSERT
  5
23E
100
AcDbEntity
  8
_TG
 62
     3
100
AcDbBlockReference
 66
     1
  2
SIMB_PONTO
 10
188698.805277
 20
1664111.341068
 30
0.0
  0
ATTRIB
  5
23F
100
AcDbEntity
  8
0
 62
     1
100
AcDbText
 10
188699.155277
 20
1664111.691068
 30
0.0
 40
0.75
  1
46
 41
0.954526
  7
SIMPLEX
100
AcDbAttribute
  2
PONTO
 70
     8
  0
ATTRIB
  5
240
100
AcDbEntity
  8
0
 62
     4
100
AcDbText
 10
188699.155277
 20
1664112.591068
 30
0.0
 40
0.75
  1

 41
0.699986
  7
SIMPLEX
100
AcDbAttribute
  2
DESC
 70
     9
  0
ATTRIB
  5
241
100
AcDbEntity
  8
0
 62
     2
100
AcDbText
 10
188699.155277
 20
1664110.241068
 30
0.0
 40
0.75
  1

 41
0.699986
  7
SIMPLEX
100
AcDbAttribute
  2
COTA
 70
     9
  0
SEQEND
  5
242
100
AcDbEntity
  8
0
  0
INSERT
  5
243
100
AcDbEntity
  8
_TG
 62
     3
100
AcDbBlockReference
 66
     1
  2
SIMB_PONTO
 10
188735.242368
 20
1664192.194128
 30
0.0
  0
ATTRIB
  5
244
100
AcDbEntity
  8
0
 62
     1
100
AcDbText
 10
188735.592368
 20
1664192.544128
 30
0.0
 40
0.75
  1
46
 41
0.954526
  7
SIMPLEX
100
AcDbAttribute
  2
PONTO
 70
     8
  0
ATTRIB
  5
245
100
AcDbEntity
  8
0
 62
     4
100
AcDbText
 10
188735.592368
 20
1664193.444128
 30
0.0
 40
0.75
  1
I
 41
0.699986
  7
SIMPLEX
100
AcDbAttribute
  2
DESC
 70
     9
  0
ATTRIB
  5
246
100
AcDbEntity
  8
0
 62
     2
100
AcDbText
 10
188735.592368
 20
1664191.094128
 30
0.0
 40
0.75
  1

 41
0.699986
  7
SIMPLEX
100
AcDbAttribute
  2
COTA
 70
     9
  0
SEQEND
  5
247
100
AcDbEntity
  8
0
  0
INSERT
  5
248
100
AcDbEntity
  8
_TG
 62
     3
100
AcDbBlockReference
 66
     1
  2
SIMB_PONTO
 10
188695.310621
 20
1664114.459676
 30
0.0
  0
ATTRIB
  5
249
100
AcDbEntity
  8
0
 62
     1
100
AcDbText
 10
188695.660621
 20
1664114.809676
 30
0.0
 40
0.75
  1
47
 41
0.954526
  7
SIMPLEX
100
AcDbAttribute
  2
PONTO
 70
     8
  0
ATTRIB
  5
24A
100
AcDbEntity
  8
0
 62
     4
100
AcDbText
 10
188695.660621
 20
1664115.709676
 30
0.0
 40
0.75
  1

 41
0.699986
  7
SIMPLEX
100
AcDbAttribute
  2
DESC
 70
     9
  0
ATTRIB
  5
24B
100
AcDbEntity
  8
0
 62
     2
100
AcDbText
 10
188695.660621
 20
1664113.359676
 30
0.0
 40
0.75
  1

 41
0.699986
  7
SIMPLEX
100
AcDbAttribute
  2
COTA
 70
     9
  0
SEQEND
  5
24C
100
AcDbEntity
  8
0
  0
INSERT
  5
24D
100
AcDbEntity
  8
_TG
 62
     3
100
AcDbBlockReference
 66
     1
  2
SIMB_PONTO
 10
188737.48166
 20
1664188.458446
 30
0.0
  0
ATTRIB
  5
24E
100
AcDbEntity
  8
0
 62
     1
100
AcDbText
 10
188737.83166
 20
1664188.808446
 30
0.0
 40
0.75
  1
47
 41
0.954526
  7
SIMPLEX
100
AcDbAttribute
  2
PONTO
 70
     8
  0
ATTRIB
  5
24F
100
AcDbEntity
  8
0
 62
     4
100
AcDbText
 10
188737.83166
 20
1664189.708446
 30
0.0
 40
0.75
  1
I
 41
0.699986
  7
SIMPLEX
100
AcDbAttribute
  2
DESC
 70
     9
  0
ATTRIB
  5
250
100
AcDbEntity
  8
0
 62
     2
100
AcDbText
 10
188737.83166
 20
1664187.358446
 30
0.0
 40
0.75
  1

 41
0.699986
  7
SIMPLEX
100
AcDbAttribute
  2
COTA
 70
     9
  0
SEQEND
  5
251
100
AcDbEntity
  8
0
  0
INSERT
  5
252
100
AcDbEntity
  8
_TG
 62
     3
100
AcDbBlockReference
 66
     1
  2
SIMB_PONTO
 10
188705.475586
 20
1664124.778965
 30
0.0
  0
ATTRIB
  5
253
100
AcDbEntity
  8
0
 62
     1
100
AcDbText
 10
188705.825586
 20
1664125.128965
 30
0.0
 40
0.75
  1
48
 41
0.954526
  7
SIMPLEX
100
AcDbAttribute
  2
PONTO
 70
     8
  0
ATTRIB
  5
254
100
AcDbEntity
  8
0
 62
     4
100
AcDbText
 10
188705.825586
 20
1664126.028965
 30
0.0
 40
0.75
  1

 41
0.699986
  7
SIMPLEX
100
AcDbAttribute
  2
DESC
 70
     9
  0
ATTRIB
  5
255
100
AcDbEntity
  8
0
 62
     2
100
AcDbText
 10
188705.825586
 20
1664123.678965
 30
0.0
 40
0.75
  1

 41
0.699986
  7
SIMPLEX
100
AcDbAttribute
  2
COTA
 70
     9
  0
SEQEND
  5
256
100
AcDbEntity
  8
0
  0
INSERT
  5
257
100
AcDbEntity
  8
_TG
 62
     3
100
AcDbBlockReference
 66
     1
  2
SIMB_PONTO
 10
188741.634294
 20
1664187.822543
 30
0.0
  0
ATTRIB
  5
258
100
AcDbEntity
  8
0
 62
     1
100
AcDbText
 10
188741.984294
 20
1664188.172543
 30
0.0
 40
0.75
  1
48
 41
0.954526
  7
SIMPLEX
100
AcDbAttribute
  2
PONTO
 70
     8
  0
ATTRIB
  5
259
100
AcDbEntity
  8
0
 62
     4
100
AcDbText
 10
188741.984294
 20
1664189.072543
 30
0.0
 40
0.75
  1
I
 41
0.699986
  7
SIMPLEX
100
AcDbAttribute
  2
DESC
 70
     9
  0
ATTRIB
  5
25A
100
AcDbEntity
  8
0
 62
     2
100
AcDbText
 10
188741.984294
 20
1664186.722543
 30
0.0
 40
0.75
  1

 41
0.699986
  7
SIMPLEX
100
AcDbAttribute
  2
COTA
 70
     9
  0
SEQEND
  5
25B
100
AcDbEntity
  8
0
  0
INSERT
  5
25C
100
AcDbEntity
  8
_TG
 62
     3
100
AcDbBlockReference
 66
     1
  2
SIMB_PONTO
 10
188693.896108
 20
1664122.558893
 30
0.0
  0
ATTRIB
  5
25D
100
AcDbEntity
  8
0
 62
     1
100
AcDbText
 10
188694.246108
 20
1664122.908893
 30
0.0
 40
0.75
  1
49
 41
0.954526
  7
SIMPLEX
100
AcDbAttribute
  2
PONTO
 70
     8
  0
ATTRIB
  5
25E
100
AcDbEntity
  8
0
 62
     4
100
AcDbText
 10
188694.246108
 20
1664123.808893
 30
0.0
 40
0.75
  1

 41
0.699986
  7
SIMPLEX
100
AcDbAttribute
  2
DESC
 70
     9
  0
ATTRIB
  5
25F
100
AcDbEntity
  8
0
 62
     2
100
AcDbText
 10
188694.246108
 20
1664121.458893
 30
0.0
 40
0.75
  1

 41
0.699986
  7
SIMPLEX
100
AcDbAttribute
  2
COTA
 70
     9
  0
SEQEND
  5
260
100
AcDbEntity
  8
0
  0
INSERT
  5
261
100
AcDbEntity
  8
_TG
 62
     3
100
AcDbBlockReference
 66
     1
  2
SIMB_PONTO
 10
188742.024714
 20
1664182.411479
 30
0.0
  0
ATTRIB
  5
262
100
AcDbEntity
  8
0
 62
     1
100
AcDbText
 10
188742.374714
 20
1664182.761479
 30
0.0
 40
0.75
  1
49
 41
0.954526
  7
SIMPLEX
100
AcDbAttribute
  2
PONTO
 70
     8
  0
ATTRIB
  5
263
100
AcDbEntity
  8
0
 62
     4
100
AcDbText
 10
188742.374714
 20
1664183.661479
 30
0.0
 40
0.75
  1
I
 41
0.699986
  7
SIMPLEX
100
AcDbAttribute
  2
DESC
 70
     9
  0
ATTRIB
  5
264
100
AcDbEntity
  8
0
 62
     2
100
AcDbText
 10
188742.374714
 20
1664181.311479
 30
0.0
 40
0.75
  1

 41
0.699986
  7
SIMPLEX
100
AcDbAttribute
  2
COTA
 70
     9
  0
SEQEND
  5
265
100
AcDbEntity
  8
0
  0
INSERT
  5
266
100
AcDbEntity
  8
_TG
 62
     3
100
AcDbBlockReference
 66
     1
  2
SIMB_PONTO
 10
188663.466664
 20
1664033.982049
 30
0.0
  0
ATTRIB
  5
267
100
AcDbEntity
  8
0
 62
     1
100
AcDbText
 10
188663.816664
 20
1664034.332049
 30
0.0
 40
0.75
  1
5
 41
0.954526
  7
SIMPLEX
100
AcDbAttribute
  2
PONTO
 70
     8
  0
ATTRIB
  5
268
100
AcDbEntity
  8
0
 62
     4
100
AcDbText
 10
188663.816664
 20
1664035.232049
 30
0.0
 40
0.75
  1

 41
0.699986
  7
SIMPLEX
100
AcDbAttribute
  2
DESC
 70
     9
  0
ATTRIB
  5
269
100
AcDbEntity
  8
0
 62
     2
100
AcDbText
 10
188663.816664
 20
1664032.882049
 30
0.0
 40
0.75
  1

 41
0.699986
  7
SIMPLEX
100
AcDbAttribute
  2
COTA
 70
     9
  0
SEQEND
  5
26A
100
AcDbEntity
  8
0
  0
INSERT
  5
26B
100
AcDbEntity
  8
_TG
 62
     3
100
AcDbBlockReference
 66
     1
  2
SIMB_PONTO
 10
188739.990274
 20
1664011.079083
 30
0.0
  0
ATTRIB
  5
26C
100
AcDbEntity
  8
0
 62
     1
100
AcDbText
 10
188740.340274
 20
1664011.429083
 30
0.0
 40
0.75
  1
5
 41
0.954526
  7
SIMPLEX
100
AcDbAttribute
  2
PONTO
 70
     8
  0
ATTRIB
  5
26D
100
AcDbEntity
  8
0
 62
     4
100
AcDbText
 10
188740.340274
 20
1664012.329083
 30
0.0
 40
0.75
  1
I
 41
0.699986
  7
SIMPLEX
100
AcDbAttribute
  2
DESC
 70
     9
  0
ATTRIB
  5
26E
100
AcDbEntity
  8
0
 62
     2
100
AcDbText
 10
188740.340274
 20
1664009.979083
 30
0.0
 40
0.75
  1

 41
0.699986
  7
SIMPLEX
100
AcDbAttribute
  2
COTA
 70
     9
  0
SEQEND
  5
26F
100
AcDbEntity
  8
0
  0
INSERT
  5
270
100
AcDbEntity
  8
_TG
 62
     3
100
AcDbBlockReference
 66
     1
  2
SIMB_PONTO
 10
188701.650013
 20
1664126.428213
 30
0.0
  0
ATTRIB
  5
271
100
AcDbEntity
  8
0
 62
     1
100
AcDbText
 10
188702.000013
 20
1664126.778213
 30
0.0
 40
0.75
  1
50
 41
0.954526
  7
SIMPLEX
100
AcDbAttribute
  2
PONTO
 70
     8
  0
ATTRIB
  5
272
100
AcDbEntity
  8
0
 62
     4
100
AcDbText
 10
188702.000013
 20
1664127.678213
 30
0.0
 40
0.75
  1

 41
0.699986
  7
SIMPLEX
100
AcDbAttribute
  2
DESC
 70
     9
  0
ATTRIB
  5
273
100
AcDbEntity
  8
0
 62
     2
100
AcDbText
 10
188702.000013
 20
1664125.328213
 30
0.0
 40
0.75
  1

 41
0.699986
  7
SIMPLEX
100
AcDbAttribute
  2
COTA
 70
     9
  0
SEQEND
  5
274
100
AcDbEntity
  8
0
  0
INSERT
  5
275
100
AcDbEntity
  8
_TG
 62
     3
100
AcDbBlockReference
 66
     1
  2
SIMB_PONTO
 10
188690.922802
 20
1664122.862277
 30
0.0
  0
ATTRIB
  5
276
100
AcDbEntity
  8
0
 62
     1
100
AcDbText
 10
188691.272802
 20
1664123.212277
 30
0.0
 40
0.75
  1
51
 41
0.954526
  7
SIMPLEX
100
AcDbAttribute
  2
PONTO
 70
     8
  0
ATTRIB
  5
277
100
AcDbEntity
  8
0
 62
     4
100
AcDbText
 10
188691.272802
 20
1664124.112277
 30
0.0
 40
0.75
  1

 41
0.699986
  7
SIMPLEX
100
AcDbAttribute
  2
DESC
 70
     9
  0
ATTRIB
  5
278
100
AcDbEntity
  8
0
 62
     2
100
AcDbText
 10
188691.272802
 20
1664121.762277
 30
0.0
 40
0.75
  1

 41
0.699986
  7
SIMPLEX
100
AcDbAttribute
  2
COTA
 70
     9
  0
SEQEND
  5
279
100
AcDbEntity
  8
0
  0
INSERT
  5
27A
100
AcDbEntity
  8
_TG
 62
     3
100
AcDbBlockReference
 66
     1
  2
SIMB_PONTO
 10
188698.696666
 20
1664130.738629
 30
0.0
  0
ATTRIB
  5
27B
100
AcDbEntity
  8
0
 62
     1
100
AcDbText
 10
188699.046666
 20
1664131.088629
 30
0.0
 40
0.75
  1
52
 41
0.954526
  7
SIMPLEX
100
AcDbAttribute
  2
PONTO
 70
     8
  0
ATTRIB
  5
27C
100
AcDbEntity
  8
0
 62
     4
100
AcDbText
 10
188699.046666
 20
1664131.988629
 30
0.0
 40
0.75
  1

 41
0.699986
  7
SIMPLEX
100
AcDbAttribute
  2
DESC
 70
     9
  0
ATTRIB
  5
27D
100
AcDbEntity
  8
0
 62
     2
100
AcDbText
 10
188699.046666
 20
1664129.638629
 30
0.0
 40
0.75
  1

 41
0.699986
  7
SIMPLEX
100
AcDbAttribute
  2
COTA
 70
     9
  0
SEQEND
  5
27E
100
AcDbEntity
  8
0
  0
INSERT
  5
27F
100
AcDbEntity
  8
_TG
 62
     3
100
AcDbBlockReference
 66
     1
  2
SIMB_PONTO
 10
188803.188
 20
1664029.48
 30
0.0
  0
ATTRIB
  5
280
100
AcDbEntity
  8
0
 62
     1
100
AcDbText
 10
188803.538
 20
1664029.83
 30
0.0
 40
0.75
  1
5226
 41
0.954526
  7
SIMPLEX
100
AcDbAttribute
  2
PONTO
 70
     8
  0
ATTRIB
  5
281
100
AcDbEntity
  8
0
 62
     4
100
AcDbText
 10
188803.538
 20
1664030.73
 30
0.0
 40
0.75
  1

 41
0.699986
  7
SIMPLEX
100
AcDbAttribute
  2
DESC
 70
     9
  0
ATTRIB
  5
282
100
AcDbEntity
  8
0
 62
     2
100
AcDbText
 10
188803.538
 20
1664028.38
 30
0.0
 40
0.75
  1

 41
0.699986
  7
SIMPLEX
100
AcDbAttribute
  2
COTA
 70
     9
  0
SEQEND
  5
283
100
AcDbEntity
  8
0
  0
INSERT
  5
284
100
AcDbEntity
  8
_TG
 62
     3
100
AcDbBlockReference
 66
     1
  2
SIMB_PONTO
 10
188693.036778
 20
1664134.14034
 30
0.0
  0
ATTRIB
  5
285
100
AcDbEntity
  8
0
 62
     1
100
AcDbText
 10
188693.386778
 20
1664134.49034
 30
0.0
 40
0.75
  1
53
 41
0.954526
  7
SIMPLEX
100
AcDbAttribute
  2
PONTO
 70
     8
  0
ATTRIB
  5
286
100
AcDbEntity
  8
0
 62
     4
100
AcDbText
 10
188693.386778
 20
1664135.39034
 30
0.0
 40
0.75
  1

 41
0.699986
  7
SIMPLEX
100
AcDbAttribute
  2
DESC
 70
     9
  0
ATTRIB
  5
287
100
AcDbEntity
  8
0
 62
     2
100
AcDbText
 10
188693.386778
 20
1664133.04034
 30
0.0
 40
0.75
  1

 41
0.699986
  7
SIMPLEX
100
AcDbAttribute
  2
COTA
 70
     9
  0
SEQEND
  5
288
100
AcDbEntity
  8
0
  0
INSERT
  5
289
100
AcDbEntity
  8
_TG
 62
     3
100
AcDbBlockReference
 66
     1
  2
SIMB_PONTO
 10
188692.681522
 20
1664137.046906
 30
0.0
  0
ATTRIB
  5
28A
100
AcDbEntity
  8
0
 62
     1
100
AcDbText
 10
188693.031522
 20
1664137.396906
 30
0.0
 40
0.75
  1
54
 41
0.954526
  7
SIMPLEX
100
AcDbAttribute
  2
PONTO
 70
     8
  0
ATTRIB
  5
28B
100
AcDbEntity
  8
0
 62
     4
100
AcDbText
 10
188693.031522
 20
1664138.296906
 30
0.0
 40
0.75
  1

 41
0.699986
  7
SIMPLEX
100
AcDbAttribute
  2
DESC
 70
     9
  0
ATTRIB
  5
28C
100
AcDbEntity
  8
0
 62
     2
100
AcDbText
 10
188693.031522
 20
1664135.946906
 30
0.0
 40
0.75
  1

 41
0.699986
  7
SIMPLEX
100
AcDbAttribute
  2
COTA
 70
     9
  0
SEQEND
  5
28D
100
AcDbEntity
  8
0
  0
INSERT
  5
28E
100
AcDbEntity
  8
_TG
 62
     3
100
AcDbBlockReference
 66
     1
  2
SIMB_PONTO
 10
188702.029466
 20
1664134.541814
 30
0.0
  0
ATTRIB
  5
28F
100
AcDbEntity
  8
0
 62
     1
100
AcDbText
 10
188702.379466
 20
1664134.891814
 30
0.0
 40
0.75
  1
55
 41
0.954526
  7
SIMPLEX
100
AcDbAttribute
  2
PONTO
 70
     8
  0
ATTRIB
  5
290
100
AcDbEntity
  8
0
 62
     4
100
AcDbText
 10
188702.379466
 20
1664135.791814
 30
0.0
 40
0.75
  1

 41
0.699986
  7
SIMPLEX
100
AcDbAttribute
  2
DESC
 70
     9
  0
ATTRIB
  5
291
100
AcDbEntity
  8
0
 62
     2
100
AcDbText
 10
188702.379466
 20
1664133.441814
 30
0.0
 40
0.75
  1

 41
0.699986
  7
SIMPLEX
100
AcDbAttribute
  2
COTA
 70
     9
  0
SEQEND
  5
292
100
AcDbEntity
  8
0
  0
INSERT
  5
293
100
AcDbEntity
  8
_TG
 62
     3
100
AcDbBlockReference
 66
     1
  2
SIMB_PONTO
 10
188697.920653
 20
1664134.755274
 30
0.0
  0
ATTRIB
  5
294
100
AcDbEntity
  8
0
 62
     1
100
AcDbText
 10
188698.270653
 20
1664135.105274
 30
0.0
 40
0.75
  1
56
 41
0.954526
  7
SIMPLEX
100
AcDbAttribute
  2
PONTO
 70
     8
  0
ATTRIB
  5
295
100
AcDbEntity
  8
0
 62
     4
100
AcDbText
 10
188698.270653
 20
1664136.005274
 30
0.0
 40
0.75
  1

 41
0.699986
  7
SIMPLEX
100
AcDbAttribute
  2
DESC
 70
     9
  0
ATTRIB
  5
296
100
AcDbEntity
  8
0
 62
     2
100
AcDbText
 10
188698.270653
 20
1664133.655274
 30
0.0
 40
0.75
  1

 41
0.699986
  7
SIMPLEX
100
AcDbAttribute
  2
COTA
 70
     9
  0
SEQEND
  5
297
100
AcDbEntity
  8
0
  0
INSERT
  5
298
100
AcDbEntity
  8
_TG
 62
     3
100
AcDbBlockReference
 66
     1
  2
SIMB_PONTO
 10
188707.959869
 20
1664133.076996
 30
0.0
  0
ATTRIB
  5
299
100
AcDbEntity
  8
0
 62
     1
100
AcDbText
 10
188708.309869
 20
1664133.426996
 30
0.0
 40
0.75
  1
57
 41
0.954526
  7
SIMPLEX
100
AcDbAttribute
  2
PONTO
 70
     8
  0
ATTRIB
  5
29A
100
AcDbEntity
  8
0
 62
     4
100
AcDbText
 10
188708.309869
 20
1664134.326996
 30
0.0
 40
0.75
  1

 41
0.699986
  7
SIMPLEX
100
AcDbAttribute
  2
DESC
 70
     9
  0
ATTRIB
  5
29B
100
AcDbEntity
  8
0
 62
     2
100
AcDbText
 10
188708.309869
 20
1664131.976996
 30
0.0
 40
0.75
  1

 41
0.699986
  7
SIMPLEX
100
AcDbAttribute
  2
COTA
 70
     9
  0
SEQEND
  5
29C
100
AcDbEntity
  8
0
  0
INSERT
  5
29D
100
AcDbEntity
  8
_TG
 62
     3
100
AcDbBlockReference
 66
     1
  2
SIMB_PONTO
 10
188695.612916
 20
1664139.119196
 30
0.0
  0
ATTRIB
  5
29E
100
AcDbEntity
  8
0
 62
     1
100
AcDbText
 10
188695.962916
 20
1664139.469196
 30
0.0
 40
0.75
  1
58
 41
0.954526
  7
SIMPLEX
100
AcDbAttribute
  2
PONTO
 70
     8
  0
ATTRIB
  5
29F
100
AcDbEntity
  8
0
 62
     4
100
AcDbText
 10
188695.962916
 20
1664140.369196
 30
0.0
 40
0.75
  1

 41
0.699986
  7
SIMPLEX
100
AcDbAttribute
  2
DESC
 70
     9
  0
ATTRIB
  5
2A0
100
AcDbEntity
  8
0
 62
     2
100
AcDbText
 10
188695.962916
 20
1664138.019196
 30
0.0
 40
0.75
  1

 41
0.699986
  7
SIMPLEX
100
AcDbAttribute
  2
COTA
 70
     9
  0
SEQEND
  5
2A1
100
AcDbEntity
  8
0
  0
INSERT
  5
2A2
100
AcDbEntity
  8
_TG
 62
     3
100
AcDbBlockReference
 66
     1
  2
SIMB_PONTO
 10
188702.250663
 20
1664139.871172
 30
0.0
  0
ATTRIB
  5
2A3
100
AcDbEntity
  8
0
 62
     1
100
AcDbText
 10
188702.600663
 20
1664140.221172
 30
0.0
 40
0.75
  1
59
 41
0.954526
  7
SIMPLEX
100
AcDbAttribute
  2
PONTO
 70
     8
  0
ATTRIB
  5
2A4
100
AcDbEntity
  8
0
 62
     4
100
AcDbText
 10
188702.600663
 20
1664141.121172
 30
0.0
 40
0.75
  1

 41
0.699986
  7
SIMPLEX
100
AcDbAttribute
  2
DESC
 70
     9
  0
ATTRIB
  5
2A5
100
AcDbEntity
  8
0
 62
     2
100
AcDbText
 10
188702.600663
 20
1664138.771172
 30
0.0
 40
0.75
  1

 41
0.699986
  7
SIMPLEX
100
AcDbAttribute
  2
COTA
 70
     9
  0
SEQEND
  5
2A6
100
AcDbEntity
  8
0
  0
INSERT
  5
2A7
100
AcDbEntity
  8
_TG
 62
     3
100
AcDbBlockReference
 66
     1
  2
SIMB_PONTO
 10
188666.639499
 20
1664034.380099
 30
0.0
  0
ATTRIB
  5
2A8
100
AcDbEntity
  8
0
 62
     1
100
AcDbText
 10
188666.989499
 20
1664034.730099
 30
0.0
 40
0.75
  1
6
 41
0.954526
  7
SIMPLEX
100
AcDbAttribute
  2
PONTO
 70
     8
  0
ATTRIB
  5
2A9
100
AcDbEntity
  8
0
 62
     4
100
AcDbText
 10
188666.989499
 20
1664035.630099
 30
0.0
 40
0.75
  1

 41
0.699986
  7
SIMPLEX
100
AcDbAttribute
  2
DESC
 70
     9
  0
ATTRIB
  5
2AA
100
AcDbEntity
  8
0
 62
     2
100
AcDbText
 10
188666.989499
 20
1664033.280099
 30
0.0
 40
0.75
  1

 41
0.699986
  7
SIMPLEX
100
AcDbAttribute
  2
COTA
 70
     9
  0
SEQEND
  5
2AB
100
AcDbEntity
  8
0
  0
INSERT
  5
2AC
100
AcDbEntity
  8
_TG
 62
     3
100
AcDbBlockReference
 66
     1
  2
SIMB_PONTO
 10
188716.154536
 20
1664021.806207
 30
0.0
  0
ATTRIB
  5
2AD
100
AcDbEntity
  8
0
 62
     1
100
AcDbText
 10
188716.504536
 20
1664022.156207
 30
0.0
 40
0.75
  1
6
 41
0.954526
  7
SIMPLEX
100
AcDbAttribute
  2
PONTO
 70
     8
  0
ATTRIB
  5
2AE
100
AcDbEntity
  8
0
 62
     4
100
AcDbText
 10
188716.504536
 20
1664023.056207
 30
0.0
 40
0.75
  1
I
 41
0.699986
  7
SIMPLEX
100
AcDbAttribute
  2
DESC
 70
     9
  0
ATTRIB
  5
2AF
100
AcDbEntity
  8
0
 62
     2
100
AcDbText
 10
188716.504536
 20
1664020.706207
 30
0.0
 40
0.75
  1

 41
0.699986
  7
SIMPLEX
100
AcDbAttribute
  2
COTA
 70
     9
  0
SEQEND
  5
2B0
100
AcDbEntity
  8
0
  0
INSERT
  5
2B1
100
AcDbEntity
  8
_TG
 62
     3
100
AcDbBlockReference
 66
     1
  2
SIMB_PONTO
 10
188693.632331
 20
1664160.891863
 30
0.0
  0
ATTRIB
  5
2B2
100
AcDbEntity
  8
0
 62
     1
100
AcDbText
 10
188693.982331
 20
1664161.241863
 30
0.0
 40
0.75
  1
60
 41
0.954526
  7
SIMPLEX
100
AcDbAttribute
  2
PONTO
 70
     8
  0
ATTRIB
  5
2B3
100
AcDbEntity
  8
0
 62
     4
100
AcDbText
 10
188693.982331
 20
1664162.141863
 30
0.0
 40
0.75
  1

 41
0.699986
  7
SIMPLEX
100
AcDbAttribute
  2
DESC
 70
     9
  0
ATTRIB
  5
2B4
100
AcDbEntity
  8
0
 62
     2
100
AcDbText
 10
188693.982331
 20
1664159.791863
 30
0.0
 40
0.75
  1

 41
0.699986
  7
SIMPLEX
100
AcDbAttribute
  2
COTA
 70
     9
  0
SEQEND
  5
2B5
100
AcDbEntity
  8
0
  0
INSERT
  5
2B6
100
AcDbEntity
  8
_TG
 62
     3
100
AcDbBlockReference
 66
     1
  2
SIMB_PONTO
 10
188722.435589
 20
1664152.379174
 30
0.0
  0
ATTRIB
  5
2B7
100
AcDbEntity
  8
0
 62
     1
100
AcDbText
 10
188722.785589
 20
1664152.729174
 30
0.0
 40
0.75
  1
61
 41
0.954526
  7
SIMPLEX
100
AcDbAttribute
  2
PONTO
 70
     8
  0
ATTRIB
  5
2B8
100
AcDbEntity
  8
0
 62
     4
100
AcDbText
 10
188722.785589
 20
1664153.629174
 30
0.0
 40
0.75
  1

 41
0.699986
  7
SIMPLEX
100
AcDbAttribute
  2
DESC
 70
     9
  0
ATTRIB
  5
2B9
100
AcDbEntity
  8
0
 62
     2
100
AcDbText
 10
188722.785589
 20
1664151.279174
 30
0.0
 40
0.75
  1

 41
0.699986
  7
SIMPLEX
100
AcDbAttribute
  2
COTA
 70
     9
  0
SEQEND
  5
2BA
100
AcDbEntity
  8
0
  0
INSERT
  5
2BB
100
AcDbEntity
  8
_TG
 62
     3
100
AcDbBlockReference
 66
     1
  2
SIMB_PONTO
 10
188722.744475
 20
1664153.055419
 30
0.0
  0
ATTRIB
  5
2BC
100
AcDbEntity
  8
0
 62
     1
100
AcDbText
 10
188723.094475
 20
1664153.405419
 30
0.0
 40
0.75
  1
62
 41
0.954526
  7
SIMPLEX
100
AcDbAttribute
  2
PONTO
 70
     8
  0
ATTRIB
  5
2BD
100
AcDbEntity
  8
0
 62
     4
100
AcDbText
 10
188723.094475
 20
1664154.305419
 30
0.0
 40
0.75
  1

 41
0.699986
  7
SIMPLEX
100
AcDbAttribute
  2
DESC
 70
     9
  0
ATTRIB
  5
2BE
100
AcDbEntity
  8
0
 62
     2
100
AcDbText
 10
188723.094475
 20
1664151.955419
 30
0.0
 40
0.75
  1

 41
0.699986
  7
SIMPLEX
100
AcDbAttribute
  2
COTA
 70
     9
  0
SEQEND
  5
2BF
100
AcDbEntity
  8
0
  0
INSERT
  5
2C0
100
AcDbEntity
  8
_TG
 62
     3
100
AcDbBlockReference
 66
     1
  2
SIMB_PONTO
 10
188728.047255
 20
1664150.62515
 30
0.0
  0
ATTRIB
  5
2C1
100
AcDbEntity
  8
0
 62
     1
100
AcDbText
 10
188728.397255
 20
1664150.97515
 30
0.0
 40
0.75
  1
63
 41
0.954526
  7
SIMPLEX
100
AcDbAttribute
  2
PONTO
 70
     8
  0
ATTRIB
  5
2C2
100
AcDbEntity
  8
0
 62
     4
100
AcDbText
 10
188728.397255
 20
1664151.87515
 30
0.0
 40
0.75
  1

 41
0.699986
  7
SIMPLEX
100
AcDbAttribute
  2
DESC
 70
     9
  0
ATTRIB
  5
2C3
100
AcDbEntity
  8
0
 62
     2
100
AcDbText
 10
188728.397255
 20
1664149.52515
 30
0.0
 40
0.75
  1

 41
0.699986
  7
SIMPLEX
100
AcDbAttribute
  2
COTA
 70
     9
  0
SEQEND
  5
2C4
100
AcDbEntity
  8
0
  0
INSERT
  5
2C5
100
AcDbEntity
  8
_TG
 62
     3
100
AcDbBlockReference
 66
     1
  2
SIMB_PONTO
 10
188716.302309
 20
1664152.194529
 30
0.0
  0
ATTRIB
  5
2C6
100
AcDbEntity
  8
0
 62
     1
100
AcDbText
 10
188716.652309
 20
1664152.544529
 30
0.0
 40
0.75
  1
64
 41
0.954526
  7
SIMPLEX
100
AcDbAttribute
  2
PONTO
 70
     8
  0
ATTRIB
  5
2C7
100
AcDbEntity
  8
0
 62
     4
100
AcDbText
 10
188716.652309
 20
1664153.444529
 30
0.0
 40
0.75
  1

 41
0.699986
  7
SIMPLEX
100
AcDbAttribute
  2
DESC
 70
     9
  0
ATTRIB
  5
2C8
100
AcDbEntity
  8
0
 62
     2
100
AcDbText
 10
188716.652309
 20
1664151.094529
 30
0.0
 40
0.75
  1

 41
0.699986
  7
SIMPLEX
100
AcDbAttribute
  2
COTA
 70
     9
  0
SEQEND
  5
2C9
100
AcDbEntity
  8
0
  0
INSERT
  5
2CA
100
AcDbEntity
  8
_TG
 62
     3
100
AcDbBlockReference
 66
     1
  2
SIMB_PONTO
 10
188709.672782
 20
1664151.423521
 30
0.0
  0
ATTRIB
  5
2CB
100
AcDbEntity
  8
0
 62
     1
100
AcDbText
 10
188710.022782
 20
1664151.773521
 30
0.0
 40
0.75
  1
65
 41
0.954526
  7
SIMPLEX
100
AcDbAttribute
  2
PONTO
 70
     8
  0
ATTRIB
  5
2CC
100
AcDbEntity
  8
0
 62
     4
100
AcDbText
 10
188710.022782
 20
1664152.673521
 30
0.0
 40
0.75
  1

 41
0.699986
  7
SIMPLEX
100
AcDbAttribute
  2
DESC
 70
     9
  0
ATTRIB
  5
2CD
100
AcDbEntity
  8
0
 62
     2
100
AcDbText
 10
188710.022782
 20
1664150.323521
 30
0.0
 40
0.75
  1

 41
0.699986
  7
SIMPLEX
100
AcDbAttribute
  2
COTA
 70
     9
  0
SEQEND
  5
2CE
100
AcDbEntity
  8
0
  0
INSERT
  5
2CF
100
AcDbEntity
  8
_TG
 62
     3
100
AcDbBlockReference
 66
     1
  2
SIMB_PONTO
 10
188730.018523
 20
1664161.82353
 30
0.0
  0
ATTRIB
  5
2D0
100
AcDbEntity
  8
0
 62
     1
100
AcDbText
 10
188730.368523
 20
1664162.17353
 30
0.0
 40
0.75
  1
66
 41
0.954526
  7
SIMPLEX
100
AcDbAttribute
  2
PONTO
 70
     8
  0
ATTRIB
  5
2D1
100
AcDbEntity
  8
0
 62
     4
100
AcDbText
 10
188730.368523
 20
1664163.07353
 30
0.0
 40
0.75
  1

 41
0.699986
  7
SIMPLEX
100
AcDbAttribute
  2
DESC
 70
     9
  0
ATTRIB
  5
2D2
100
AcDbEntity
  8
0
 62
     2
100
AcDbText
 10
188730.368523
 20
1664160.72353
 30
0.0
 40
0.75
  1

 41
0.699986
  7
SIMPLEX
100
AcDbAttribute
  2
COTA
 70
     9
  0
SEQEND
  5
2D3
100
AcDbEntity
  8
0
  0
INSERT
  5
2D4
100
AcDbEntity
  8
_TG
 62
     3
100
AcDbBlockReference
 66
     1
  2
SIMB_PONTO
 10
188730.355863
 20
1664158.870549
 30
0.0
  0
ATTRIB
  5
2D5
100
AcDbEntity
  8
0
 62
     1
100
AcDbText
 10
188730.705863
 20
1664159.220549
 30
0.0
 40
0.75
  1
67
 41
0.954526
  7
SIMPLEX
100
AcDbAttribute
  2
PONTO
 70
     8
  0
ATTRIB
  5
2D6
100
AcDbEntity
  8
0
 62
     4
100
AcDbText
 10
188730.705863
 20
1664160.120549
 30
0.0
 40
0.75
  1

 41
0.699986
  7
SIMPLEX
100
AcDbAttribute
  2
DESC
 70
     9
  0
ATTRIB
  5
2D7
100
AcDbEntity
  8
0
 62
     2
100
AcDbText
 10
188730.705863
 20
1664157.770549
 30
0.0
 40
0.75
  1

 41
0.699986
  7
SIMPLEX
100
AcDbAttribute
  2
COTA
 70
     9
  0
SEQEND
  5
2D8
100
AcDbEntity
  8
0
  0
INSERT
  5
2D9
100
AcDbEntity
  8
_TG
 62
     3
100
AcDbBlockReference
 66
     1
  2
SIMB_PONTO
 10
188714.638541
 20
1664171.165267
 30
0.0
  0
ATTRIB
  5
2DA
100
AcDbEntity
  8
0
 62
     1
100
AcDbText
 10
188714.988541
 20
1664171.515267
 30
0.0
 40
0.75
  1
68
 41
0.954526
  7
SIMPLEX
100
AcDbAttribute
  2
PONTO
 70
     8
  0
ATTRIB
  5
2DB
100
AcDbEntity
  8
0
 62
     4
100
AcDbText
 10
188714.988541
 20
1664172.415267
 30
0.0
 40
0.75
  1

 41
0.699986
  7
SIMPLEX
100
AcDbAttribute
  2
DESC
 70
     9
  0
ATTRIB
  5
2DC
100
AcDbEntity
  8
0
 62
     2
100
AcDbText
 10
188714.988541
 20
1664170.065267
 30
0.0
 40
0.75
  1

 41
0.699986
  7
SIMPLEX
100
AcDbAttribute
  2
COTA
 70
     9
  0
SEQEND
  5
2DD
100
AcDbEntity
  8
0
  0
INSERT
  5
2DE
100
AcDbEntity
  8
_TG
 62
     3
100
AcDbBlockReference
 66
     1
  2
SIMB_PONTO
 10
188714.197743
 20
1664171.080901
 30
0.0
  0
ATTRIB
  5
2DF
100
AcDbEntity
  8
0
 62
     1
100
AcDbText
 10
188714.547743
 20
1664171.430901
 30
0.0
 40
0.75
  1
69
 41
0.954526
  7
SIMPLEX
100
AcDbAttribute
  2
PONTO
 70
     8
  0
ATTRIB
  5
2E0
100
AcDbEntity
  8
0
 62
     4
100
AcDbText
 10
188714.547743
 20
1664172.330901
 30
0.0
 40
0.75
  1

 41
0.699986
  7
SIMPLEX
100
AcDbAttribute
  2
DESC
 70
     9
  0
ATTRIB
  5
2E1
100
AcDbEntity
  8
0
 62
     2
100
AcDbText
 10
188714.547743
 20
1664169.980901
 30
0.0
 40
0.75
  1

 41
0.699986
  7
SIMPLEX
100
AcDbAttribute
  2
COTA
 70
     9
  0
SEQEND
  5
2E2
100
AcDbEntity
  8
0
  0
INSERT
  5
2E3
100
AcDbEntity
  8
_TG
 62
     3
100
AcDbBlockReference
 66
     1
  2
SIMB_PONTO
 10
188662.921355
 20
1664038.511087
 30
0.0
  0
ATTRIB
  5
2E4
100
AcDbEntity
  8
0
 62
     1
100
AcDbText
 10
188663.271355
 20
1664038.861087
 30
0.0
 40
0.75
  1
7
 41
0.954526
  7
SIMPLEX
100
AcDbAttribute
  2
PONTO
 70
     8
  0
ATTRIB
  5
2E5
100
AcDbEntity
  8
0
 62
     4
100
AcDbText
 10
188663.271355
 20
1664039.761087
 30
0.0
 40
0.75
  1

 41
0.699986
  7
SIMPLEX
100
AcDbAttribute
  2
DESC
 70
     9
  0
ATTRIB
  5
2E6
100
AcDbEntity
  8
0
 62
     2
100
AcDbText
 10
188663.271355
 20
1664037.411087
 30
0.0
 40
0.75
  1

 41
0.699986
  7
SIMPLEX
100
AcDbAttribute
  2
COTA
 70
     9
  0
SEQEND
  5
2E7
100
AcDbEntity
  8
0
  0
INSERT
  5
2E8
100
AcDbEntity
  8
_TG
 62
     3
100
AcDbBlockReference
 66
     1
  2
SIMB_PONTO
 10
188721.171744
 20
1664026.596812
 30
0.0
  0
ATTRIB
  5
2E9
100
AcDbEntity
  8
0
 62
     1
100
AcDbText
 10
188721.521744
 20
1664026.946812
 30
0.0
 40
0.75
  1
7
 41
0.954526
  7
SIMPLEX
100
AcDbAttribute
  2
PONTO
 70
     8
  0
ATTRIB
  5
2EA
100
AcDbEntity
  8
0
 62
     4
100
AcDbText
 10
188721.521744
 20
1664027.846812
 30
0.0
 40
0.75
  1
I
 41
0.699986
  7
SIMPLEX
100
AcDbAttribute
  2
DESC
 70
     9
  0
ATTRIB
  5
2EB
100
AcDbEntity
  8
0
 62
     2
100
AcDbText
 10
188721.521744
 20
1664025.496812
 30
0.0
 40
0.75
  1

 41
0.699986
  7
SIMPLEX
100
AcDbAttribute
  2
COTA
 70
     9
  0
SEQEND
  5
2EC
100
AcDbEntity
  8
0
  0
INSERT
  5
2ED
100
AcDbEntity
  8
_TG
 62
     3
100
AcDbBlockReference
 66
     1
  2
SIMB_PONTO
 10
188735.247886
 20
1664159.456928
 30
0.0
  0
ATTRIB
  5
2EE
100
AcDbEntity
  8
0
 62
     1
100
AcDbText
 10
188735.597886
 20
1664159.806928
 30
0.0
 40
0.75
  1
70
 41
0.954526
  7
SIMPLEX
100
AcDbAttribute
  2
PONTO
 70
     8
  0
ATTRIB
  5
2EF
100
AcDbEntity
  8
0
 62
     4
100
AcDbText
 10
188735.597886
 20
1664160.706928
 30
0.0
 40
0.75
  1

 41
0.699986
  7
SIMPLEX
100
AcDbAttribute
  2
DESC
 70
     9
  0
ATTRIB
  5
2F0
100
AcDbEntity
  8
0
 62
     2
100
AcDbText
 10
188735.597886
 20
1664158.356928
 30
0.0
 40
0.75
  1

 41
0.699986
  7
SIMPLEX
100
AcDbAttribute
  2
COTA
 70
     9
  0
SEQEND
  5
2F1
100
AcDbEntity
  8
0
  0
INSERT
  5
2F2
100
AcDbEntity
  8
_TG
 62
     3
100
AcDbBlockReference
 66
     1
  2
SIMB_PONTO
 10
188720.55714
 20
1664172.199264
 30
0.0
  0
ATTRIB
  5
2F3
100
AcDbEntity
  8
0
 62
     1
100
AcDbText
 10
188720.90714
 20
1664172.549264
 30
0.0
 40
0.75
  1
71
 41
0.954526
  7
SIMPLEX
100
AcDbAttribute
  2
PONTO
 70
     8
  0
ATTRIB
  5
2F4
100
AcDbEntity
  8
0
 62
     4
100
AcDbText
 10
188720.90714
 20
1664173.449264
 30
0.0
 40
0.75
  1

 41
0.699986
  7
SIMPLEX
100
AcDbAttribute
  2
DESC
 70
     9
  0
ATTRIB
  5
2F5
100
AcDbEntity
  8
0
 62
     2
100
AcDbText
 10
188720.90714
 20
1664171.099264
 30
0.0
 40
0.75
  1

 41
0.699986
  7
SIMPLEX
100
AcDbAttribute
  2
COTA
 70
     9
  0
SEQEND
  5
2F6
100
AcDbEntity
  8
0
  0
INSERT
  5
2F7
100
AcDbEntity
  8
_TG
 62
     3
100
AcDbBlockReference
 66
     1
  2
SIMB_PONTO
 10
188725.510446
 20
1664172.86135
 30
0.0
  0
ATTRIB
  5
2F8
100
AcDbEntity
  8
0
 62
     1
100
AcDbText
 10
188725.860446
 20
1664173.21135
 30
0.0
 40
0.75
  1
72
 41
0.954526
  7
SIMPLEX
100
AcDbAttribute
  2
PONTO
 70
     8
  0
ATTRIB
  5
2F9
100
AcDbEntity
  8
0
 62
     4
100
AcDbText
 10
188725.860446
 20
1664174.11135
 30
0.0
 40
0.75
  1

 41
0.699986
  7
SIMPLEX
100
AcDbAttribute
  2
DESC
 70
     9
  0
ATTRIB
  5
2FA
100
AcDbEntity
  8
0
 62
     2
100
AcDbText
 10
188725.860446
 20
1664171.76135
 30
0.0
 40
0.75
  1

 41
0.699986
  7
SIMPLEX
100
AcDbAttribute
  2
COTA
 70
     9
  0
SEQEND
  5
2FB
100
AcDbEntity
  8
0
  0
INSERT
  5
2FC
100
AcDbEntity
  8
_TG
 62
     3
100
AcDbBlockReference
 66
     1
  2
SIMB_PONTO
 10
188741.612474
 20
1664165.480783
 30
0.0
  0
ATTRIB
  5
2FD
100
AcDbEntity
  8
0
 62
     1
100
AcDbText
 10
188741.962474
 20
1664165.830783
 30
0.0
 40
0.75
  1
73
 41
0.954526
  7
SIMPLEX
100
AcDbAttribute
  2
PONTO
 70
     8
  0
ATTRIB
  5
2FE
100
AcDbEntity
  8
0
 62
     4
100
AcDbText
 10
188741.962474
 20
1664166.730783
 30
0.0
 40
0.75
  1

 41
0.699986
  7
SIMPLEX
100
AcDbAttribute
  2
DESC
 70
     9
  0
ATTRIB
  5
2FF
100
AcDbEntity
  8
0
 62
     2
100
AcDbText
 10
188741.962474
 20
1664164.380783
 30
0.0
 40
0.75
  1

 41
0.699986
  7
SIMPLEX
100
AcDbAttribute
  2
COTA
 70
     9
  0
SEQEND
  5
300
100
AcDbEntity
  8
0
  0
INSERT
  5
301
100
AcDbEntity
  8
_TG
 62
     3
100
AcDbBlockReference
 66
     1
  2
SIMB_PONTO
 10
188730.981512
 20
1664186.675522
 30
0.0
  0
ATTRIB
  5
302
100
AcDbEntity
  8
0
 62
     1
100
AcDbText
 10
188731.331512
 20
1664187.025522
 30
0.0
 40
0.75
  1
74
 41
0.954526
  7
SIMPLEX
100
AcDbAttribute
  2
PONTO
 70
     8
  0
ATTRIB
  5
303
100
AcDbEntity
  8
0
 62
     4
100
AcDbText
 10
188731.331512
 20
1664187.925522
 30
0.0
 40
0.75
  1

 41
0.699986
  7
SIMPLEX
100
AcDbAttribute
  2
DESC
 70
     9
  0
ATTRIB
  5
304
100
AcDbEntity
  8
0
 62
     2
100
AcDbText
 10
188731.331512
 20
1664185.575522
 30
0.0
 40
0.75
  1

 41
0.699986
  7
SIMPLEX
100
AcDbAttribute
  2
COTA
 70
     9
  0
SEQEND
  5
305
100
AcDbEntity
  8
0
  0
INSERT
  5
306
100
AcDbEntity
  8
_TG
 62
     3
100
AcDbBlockReference
 66
     1
  2
SIMB_PONTO
 10
188740.08064
 20
1664165.273198
 30
0.0
  0
ATTRIB
  5
307
100
AcDbEntity
  8
0
 62
     1
100
AcDbText
 10
188740.43064
 20
1664165.623198
 30
0.0
 40
0.75
  1
75
 41
0.954526
  7
SIMPLEX
100
AcDbAttribute
  2
PONTO
 70
     8
  0
ATTRIB
  5
308
100
AcDbEntity
  8
0
 62
     4
100
AcDbText
 10
188740.43064
 20
1664166.523198
 30
0.0
 40
0.75
  1

 41
0.699986
  7
SIMPLEX
100
AcDbAttribute
  2
DESC
 70
     9
  0
ATTRIB
  5
309
100
AcDbEntity
  8
0
 62
     2
100
AcDbText
 10
188740.43064
 20
1664164.173198
 30
0.0
 40
0.75
  1

 41
0.699986
  7
SIMPLEX
100
AcDbAttribute
  2
COTA
 70
     9
  0
SEQEND
  5
30A
100
AcDbEntity
  8
0
  0
INSERT
  5
30B
100
AcDbEntity
  8
_TG
 62
     3
100
AcDbBlockReference
 66
     1
  2
SIMB_PONTO
 10
188733.480721
 20
1664164.508076
 30
0.0
  0
ATTRIB
  5
30C
100
AcDbEntity
  8
0
 62
     1
100
AcDbText
 10
188733.830721
 20
1664164.858076
 30
0.0
 40
0.75
  1
76
 41
0.954526
  7
SIMPLEX
100
AcDbAttribute
  2
PONTO
 70
     8
  0
ATTRIB
  5
30D
100
AcDbEntity
  8
0
 62
     4
100
AcDbText
 10
188733.830721
 20
1664165.758076
 30
0.0
 40
0.75
  1

 41
0.699986
  7
SIMPLEX
100
AcDbAttribute
  2
DESC
 70
     9
  0
ATTRIB
  5
30E
100
AcDbEntity
  8
0
 62
     2
100
AcDbText
 10
188733.830721
 20
1664163.408076
 30
0.0
 40
0.75
  1

 41
0.699986
  7
SIMPLEX
100
AcDbAttribute
  2
COTA
 70
     9
  0
SEQEND
  5
30F
100
AcDbEntity
  8
0
  0
INSERT
  5
310
100
AcDbEntity
  8
_TG
 62
     3
100
AcDbBlockReference
 66
     1
  2
SIMB_PONTO
 10
188657.666326
 20
1664019.308848
 30
0.0
  0
ATTRIB
  5
311
100
AcDbEntity
  8
0
 62
     1
100
AcDbText
 10
188658.016326
 20
1664019.658848
 30
0.0
 40
0.75
  1
8
 41
0.954526
  7
SIMPLEX
100
AcDbAttribute
  2
PONTO
 70
     8
  0
ATTRIB
  5
312
100
AcDbEntity
  8
0
 62
     4
100
AcDbText
 10
188658.016326
 20
1664020.558848
 30
0.0
 40
0.75
  1

 41
0.699986
  7
SIMPLEX
100
AcDbAttribute
  2
DESC
 70
     9
  0
ATTRIB
  5
313
100
AcDbEntity
  8
0
 62
     2
100
AcDbText
 10
188658.016326
 20
1664018.208848
 30
0.0
 40
0.75
  1

 41
0.699986
  7
SIMPLEX
100
AcDbAttribute
  2
COTA
 70
     9
  0
SEQEND
  5
314
100
AcDbEntity
  8
0
  0
INSERT
  5
315
100
AcDbEntity
  8
_TG
 62
     3
100
AcDbBlockReference
 66
     1
  2
SIMB_PONTO
 10
188721.439323
 20
1664035.414338
 30
0.0
  0
ATTRIB
  5
316
100
AcDbEntity
  8
0
 62
     1
100
AcDbText
 10
188721.789323
 20
1664035.764338
 30
0.0
 40
0.75
  1
8
 41
0.954526
  7
SIMPLEX
100
AcDbAttribute
  2
PONTO
 70
     8
  0
ATTRIB
  5
317
100
AcDbEntity
  8
0
 62
     4
100
AcDbText
 10
188721.789323
 20
1664036.664338
 30
0.0
 40
0.75
  1
I
 41
0.699986
  7
SIMPLEX
100
AcDbAttribute
  2
DESC
 70
     9
  0
ATTRIB
  5
318
100
AcDbEntity
  8
0
 62
     2
100
AcDbText
 10
188721.789323
 20
1664034.314338
 30
0.0
 40
0.75
  1

 41
0.699986
  7
SIMPLEX
100
AcDbAttribute
  2
COTA
 70
     9
  0
SEQEND
  5
319
100
AcDbEntity
  8
0
  0
INSERT
  5
31A
100
AcDbEntity
  8
_TG
 62
     3
100
AcDbBlockReference
 66
     1
  2
SIMB_PONTO
 10
188662.522842
 20
1664020.593961
 30
0.0
  0
ATTRIB
  5
31B
100
AcDbEntity
  8
0
 62
     1
100
AcDbText
 10
188662.872842
 20
1664020.943961
 30
0.0
 40
0.75
  1
9
 41
0.954526
  7
SIMPLEX
100
AcDbAttribute
  2
PONTO
 70
     8
  0
ATTRIB
  5
31C
100
AcDbEntity
  8
0
 62
     4
100
AcDbText
 10
188662.872842
 20
1664021.843961
 30
0.0
 40
0.75
  1

 41
0.699986
  7
SIMPLEX
100
AcDbAttribute
  2
DESC
 70
     9
  0
ATTRIB
  5
31D
100
AcDbEntity
  8
0
 62
     2
100
AcDbText
 10
188662.872842
 20
1664019.493961
 30
0.0
 40
0.75
  1

 41
0.699986
  7
SIMPLEX
100
AcDbAttribute
  2
COTA
 70
     9
  0
SEQEND
  5
31E
100
AcDbEntity
  8
0
  0
INSERT
  5
31F
100
AcDbEntity
  8
_TG
 62
     3
100
AcDbBlockReference
 66
     1
  2
SIMB_PONTO
 10
188720.38588
 20
1664032.990152
 30
0.0
  0
ATTRIB
  5
320
100
AcDbEntity
  8
0
 62
     1
100
AcDbText
 10
188720.73588
 20
1664033.340152
 30
0.0
 40
0.75
  1
9
 41
0.954526
  7
SIMPLEX
100
AcDbAttribute
  2
PONTO
 70
     8
  0
ATTRIB
  5
321
100
AcDbEntity
  8
0
 62
     4
100
AcDbText
 10
188720.73588
 20
1664034.240152
 30
0.0
 40
0.75
  1
I
 41
0.699986
  7
SIMPLEX
100
AcDbAttribute
  2
DESC
 70
     9
  0
ATTRIB
  5
322
100
AcDbEntity
  8
0
 62
     2
100
AcDbText
 10
188720.73588
 20
1664031.890152
 30
0.0
 40
0.75
  1

 41
0.699986
  7
SIMPLEX
100
AcDbAttribute
  2
COTA
 70
     9
  0
SEQEND
  5
323
100
AcDbEntity
  8
0
  0
INSERT
  5
324
100
AcDbEntity
  8
_TG
 62
     3
100
AcDbBlockReference
 66
     1
  2
SIMB_PONTO
 10
188691.550356
 20
1664121.925227
 30
0.0
  0
ATTRIB
  5
325
100
AcDbEntity
  8
0
 62
     1
100
AcDbText
 10
188691.900356
 20
1664122.275227
 30
0.0
 40
0.75
  1
AUX1
 41
0.954526
  7
SIMPLEX
100
AcDbAttribute
  2
PONTO
 70
     8
  0
ATTRIB
  5
326
100
AcDbEntity
  8
0
 62
     4
100
AcDbText
 10
188691.900356
 20
1664123.175227
 30
0.0
 40
0.75
  1
AUX
 41
0.699986
  7
SIMPLEX
100
AcDbAttribute
  2
DESC
 70
     9
  0
ATTRIB
  5
327
100
AcDbEntity
  8
0
 62
     2
100
AcDbText
 10
188691.900356
 20
1664120.825227
 30
0.0
 40
0.75
  1

 41
0.699986
  7
SIMPLEX
100
AcDbAttribute
  2
COTA
 70
     9
  0
SEQEND
  5
328
100
AcDbEntity
  8
0
  0
INSERT
  5
329
100
AcDbEntity
  8
_TG
 62
     3
100
AcDbBlockReference
 66
     1
  2
SIMB_PONTO
 10
188656.755806
 20
1664013.916886
 30
0.0
  0
ATTRIB
  5
32A
100
AcDbEntity
  8
0
 62
     1
100
AcDbText
 10
188657.105806
 20
1664014.266886
 30
0.0
 40
0.75
  1
E01
 41
0.954526
  7
SIMPLEX
100
AcDbAttribute
  2
PONTO
 70
     8
  0
ATTRIB
  5
32B
100
AcDbEntity
  8
0
 62
     4
100
AcDbText
 10
188657.105806
 20
1664015.166886
 30
0.0
 40
0.75
  1

 41
0.699986
  7
SIMPLEX
100
AcDbAttribute
  2
DESC
 70
     9
  0
ATTRIB
  5
32C
100
AcDbEntity
  8
0
 62
     2
100
AcDbText
 10
188657.105806
 20
1664012.816886
 30
0.0
 40
0.75
  1

 41
0.699986
  7
SIMPLEX
100
AcDbAttribute
  2
COTA
 70
     9
  0
SEQEND
  5
32D
100
AcDbEntity
  8
0
  0
INSERT
  5
32E
100
AcDbEntity
  8
_TG
 62
     3
100
AcDbBlockReference
 66
     1
  2
SIMB_PONTO
 10
188659.743496
 20
1664045.367708
 30
0.0
  0
ATTRIB
  5
32F
100
AcDbEntity
  8
0
 62
     1
100
AcDbText
 10
188660.093496
 20
1664045.717708
 30
0.0
 40
0.75
  1
E2
 41
0.954526
  7
SIMPLEX
100
AcDbAttribute
  2
PONTO
 70
     8
  0
ATTRIB
  5
330
100
AcDbEntity
  8
0
 62
     4
100
AcDbText
 10
188660.093496
 20
1664046.617708
 30
0.0
 40
0.75
  1

 41
0.699986
  7
SIMPLEX
100
AcDbAttribute
  2
DESC
 70
     9
  0
ATTRIB
  5
331
100
AcDbEntity
  8
0
 62
     2
100
AcDbText
 10
188660.093496
 20
1664044.267708
 30
0.0
 40
0.75
  1

 41
0.699986
  7
SIMPLEX
100
AcDbAttribute
  2
COTA
 70
     9
  0
SEQEND
  5
332
100
AcDbEntity
  8
0
  0
INSERT
  5
333
100
AcDbEntity
  8
_TG
 62
     3
100
AcDbBlockReference
 66
     1
  2
SIMB_PONTO
 10
188696.772024
 20
1664057.815859
 30
0.0
  0
ATTRIB
  5
334
100
AcDbEntity
  8
0
 62
     1
100
AcDbText
 10
188697.122024
 20
1664058.165859
 30
0.0
 40
0.75
  1
E3
 41
0.954526
  7
SIMPLEX
100
AcDbAttribute
  2
PONTO
 70
     8
  0
ATTRIB
  5
335
100
AcDbEntity
  8
0
 62
     4
100
AcDbText
 10
188697.122024
 20
1664059.065859
 30
0.0
 40
0.75
  1

 41
0.699986
  7
SIMPLEX
100
AcDbAttribute
  2
DESC
 70
     9
  0
ATTRIB
  5
336
100
AcDbEntity
  8
0
 62
     2
100
AcDbText
 10
188697.122024
 20
1664056.715859
 30
0.0
 40
0.75
  1

 41
0.699986
  7
SIMPLEX
100
AcDbAttribute
  2
COTA
 70
     9
  0
SEQEND
  5
337
100
AcDbEntity
  8
0
  0
INSERT
  5
338
100
AcDbEntity
  8
_TG
 62
     3
100
AcDbBlockReference
 66
     1
  2
SIMB_PONTO
 10
188691.586699
 20
1664121.904789
 30
0.0
  0
ATTRIB
  5
339
100
AcDbEntity
  8
0
 62
     1
100
AcDbText
 10
188691.936699
 20
1664122.254789
 30
0.0
 40
0.75
  1
E4
 41
0.954526
  7
SIMPLEX
100
AcDbAttribute
  2
PONTO
 70
     8
  0
ATTRIB
  5
33A
100
AcDbEntity
  8
0
 62
     4
100
AcDbText
 10
188691.936699
 20
1664123.154789
 30
0.0
 40
0.75
  1

 41
0.699986
  7
SIMPLEX
100
AcDbAttribute
  2
DESC
 70
     9
  0
ATTRIB
  5
33B
100
AcDbEntity
  8
0
 62
     2
100
AcDbText
 10
188691.936699
 20
1664120.804789
 30
0.0
 40
0.75
  1

 41
0.699986
  7
SIMPLEX
100
AcDbAttribute
  2
COTA
 70
     9
  0
SEQEND
  5
33C
100
AcDbEntity
  8
0
  0
INSERT
  5
33D
100
AcDbEntity
  8
_TG
 62
     3
100
AcDbBlockReference
 66
     1
  2
SIMB_PONTO
 10
188727.833868
 20
1664153.366251
 30
0.0
  0
ATTRIB
  5
33E
100
AcDbEntity
  8
0
 62
     1
100
AcDbText
 10
188728.183868
 20
1664153.716251
 30
0.0
 40
0.75
  1
E5
 41
0.954526
  7
SIMPLEX
100
AcDbAttribute
  2
PONTO
 70
     8
  0
ATTRIB
  5
33F
100
AcDbEntity
  8
0
 62
     4
100
AcDbText
 10
188728.183868
 20
1664154.616251
 30
0.0
 40
0.75
  1

 41
0.699986
  7
SIMPLEX
100
AcDbAttribute
  2
DESC
 70
     9
  0
ATTRIB
  5
340
100
AcDbEntity
  8
0
 62
     2
100
AcDbText
 10
188728.183868
 20
1664152.266251
 30
0.0
 40
0.75
  1

 41
0.699986
  7
SIMPLEX
100
AcDbAttribute
  2
COTA
 70
     9
  0
SEQEND
  5
341
100
AcDbEntity
  8
0
  0
INSERT
  5
342
100
AcDbEntity
  8
_TG
 62
     3
100
AcDbBlockReference
 66
     1
  2
SIMB_PONTO
 10
188755.045516
 20
1664174.565036
 30
0.0
  0
ATTRIB
  5
343
100
AcDbEntity
  8
0
 62
     1
100
AcDbText
 10
188755.395516
 20
1664174.915036
 30
0.0
 40
0.75
  1
E6
 41
0.954526
  7
SIMPLEX
100
AcDbAttribute
  2
PONTO
 70
     8
  0
ATTRIB
  5
344
100
AcDbEntity
  8
0
 62
     4
100
AcDbText
 10
188755.395516
 20
1664175.815036
 30
0.0
 40
0.75
  1

 41
0.699986
  7
SIMPLEX
100
AcDbAttribute
  2
DESC
 70
     9
  0
ATTRIB
  5
345
100
AcDbEntity
  8
0
 62
     2
100
AcDbText
 10
188755.395516
 20
1664173.465036
 30
0.0
 40
0.75
  1

 41
0.699986
  7
SIMPLEX
100
AcDbAttribute
  2
COTA
 70
     9
  0
SEQEND
  5
346
100
AcDbEntity
  8
0
  0
INSERT
  5
347
100
AcDbEntity
  8
_TG
 62
     3
100
AcDbBlockReference
 66
     1
  2
SIMB_PONTO
 10
188755.0455
 20
1664174.565
 30
0.0
  0
ATTRIB
  5
348
100
AcDbEntity
  8
0
 62
     1
100
AcDbText
 10
188755.3955
 20
1664174.915
 30
0.0
 40
0.75
  1
E6
 41
0.954526
  7
SIMPLEX
100
AcDbAttribute
  2
PONTO
 70
     8
  0
ATTRIB
  5
349
100
AcDbEntity
  8
0
 62
     4
100
AcDbText
 10
188755.3955
 20
1664175.815
 30
0.0
 40
0.75
  1

 41
0.699986
  7
SIMPLEX
100
AcDbAttribute
  2
DESC
 70
     9
  0
ATTRIB
  5
34A
100
AcDbEntity
  8
0
 62
     2
100
AcDbText
 10
188755.3955
 20
1664173.465
 30
0.0
 40
0.75
  1

 41
0.699986
  7
SIMPLEX
100
AcDbAttribute
  2
COTA
 70
     9
  0
SEQEND
  5
34B
100
AcDbEntity
  8
0
  0
INSERT
  5
34C
100
AcDbEntity
  8
_TG
 62
     3
100
AcDbBlockReference
 66
     1
  2
SIMB_PONTO
 10
188760.461916
 20
1664200.256754
 30
0.0
  0
ATTRIB
  5
34D
100
AcDbEntity
  8
0
 62
     1
100
AcDbText
 10
188760.811916
 20
1664200.606754
 30
0.0
 40
0.75
  1
E7
 41
0.954526
  7
SIMPLEX
100
AcDbAttribute
  2
PONTO
 70
     8
  0
ATTRIB
  5
34E
100
AcDbEntity
  8
0
 62
     4
100
AcDbText
 10
188760.811916
 20
1664201.506754
 30
0.0
 40
0.75
  1

 41
0.699986
  7
SIMPLEX
100
AcDbAttribute
  2
DESC
 70
     9
  0
ATTRIB
  5
34F
100
AcDbEntity
  8
0
 62
     2
100
AcDbText
 10
188760.811916
 20
1664199.156754
 30
0.0
 40
0.75
  1

 41
0.699986
  7
SIMPLEX
100
AcDbAttribute
  2
COTA
 70
     9
  0
SEQEND
  5
350
100
AcDbEntity
  8
0
  0
INSERT
  5
351
100
AcDbEntity
  8
_TG
 62
     3
100
AcDbBlockReference
 66
     1
  2
SIMB_PONTO
 10
188726.661085
 20
1664026.347499
 30
0.0
  0
ATTRIB
  5
352
100
AcDbEntity
  8
0
 62
     1
100
AcDbText
 10
188727.011085
 20
1664026.697499
 30
0.0
 40
0.75
  1
P1
 41
0.954526
  7
SIMPLEX
100
AcDbAttribute
  2
PONTO
 70
     8
  0
ATTRIB
  5
353
100
AcDbEntity
  8
0
 62
     4
100
AcDbText
 10
188727.011085
 20
1664027.597499
 30
0.0
 40
0.75
  1

 41
0.699986
  7
SIMPLEX
100
AcDbAttribute
  2
DESC
 70
     9
  0
ATTRIB
  5
354
100
AcDbEntity
  8
0
 62
     2
100
AcDbText
 10
188727.011085
 20
1664025.247499
 30
0.0
 40
0.75
  1

 41
0.699986
  7
SIMPLEX
100
AcDbAttribute
  2
COTA
 70
     9
  0
SEQEND
  5
355
100
AcDbEntity
  8
0
  0
INSERT
  5
356
100
AcDbEntity
  8
_TG
 62
     3
100
AcDbBlockReference
 66
     1
  2
SIMB_PONTO
 10
188589.561
 20
1663981.415
 30
0.0
  0
ATTRIB
  5
357
100
AcDbEntity
  8
0
 62
     1
100
AcDbText
 10
188589.911
 20
1663981.765
 30
0.0
 40
0.75
  1
P10
 41
0.954526
  7
SIMPLEX
100
AcDbAttribute
  2
PONTO
 70
     8
  0
ATTRIB
  5
358
100
AcDbEntity
  8
0
 62
     4
100
AcDbText
 10
188589.911
 20
1663982.665
 30
0.0
 40
0.75
  1

 41
0.699986
  7
SIMPLEX
100
AcDbAttribute
  2
DESC
 70
     9
  0
ATTRIB
  5
359
100
AcDbEntity
  8
0
 62
     2
100
AcDbText
 10
188589.911
 20
1663980.315
 30
0.0
 40
0.75
  1

 41
0.699986
  7
SIMPLEX
100
AcDbAttribute
  2
COTA
 70
     9
  0
SEQEND
  5
35A
100
AcDbEntity
  8
0
  0
INSERT
  5
35B
100
AcDbEntity
  8
_TG
 62
     3
100
AcDbBlockReference
 66
     1
  2
SIMB_PONTO
 10
188704.383968
 20
1664114.828705
 30
0.0
  0
ATTRIB
  5
35C
100
AcDbEntity
  8
0
 62
     1
100
AcDbText
 10
188704.733968
 20
1664115.178705
 30
0.0
 40
0.75
  1
P2
 41
0.954526
  7
SIMPLEX
100
AcDbAttribute
  2
PONTO
 70
     8
  0
ATTRIB
  5
35D
100
AcDbEntity
  8
0
 62
     4
100
AcDbText
 10
188704.733968
 20
1664116.078705
 30
0.0
 40
0.75
  1

 41
0.699986
  7
SIMPLEX
100
AcDbAttribute
  2
DESC
 70
     9
  0
ATTRIB
  5
35E
100
AcDbEntity
  8
0
 62
     2
100
AcDbText
 10
188704.733968
 20
1664113.728705
 30
0.0
 40
0.75
  1

 41
0.699986
  7
SIMPLEX
100
AcDbAttribute
  2
COTA
 70
     9
  0
SEQEND
  5
35F
100
AcDbEntity
  8
0
  0
INSERT
  5
360
100
AcDbEntity
  8
_TG
 62
     3
100
AcDbBlockReference
 66
     1
  2
SIMB_PONTO
 10
188766.010112
 20
1664172.339819
 30
0.0
  0
ATTRIB
  5
361
100
AcDbEntity
  8
0
 62
     1
100
AcDbText
 10
188766.360112
 20
1664172.689819
 30
0.0
 40
0.75
  1
P3
 41
0.954526
  7
SIMPLEX
100
AcDbAttribute
  2
PONTO
 70
     8
  0
ATTRIB
  5
362
100
AcDbEntity
  8
0
 62
     4
100
AcDbText
 10
188766.360112
 20
1664173.589819
 30
0.0
 40
0.75
  1

 41
0.699986
  7
SIMPLEX
100
AcDbAttribute
  2
DESC
 70
     9
  0
ATTRIB
  5
363
100
AcDbEntity
  8
0
 62
     2
100
AcDbText
 10
188766.360112
 20
1664171.239819
 30
0.0
 40
0.75
  1

 41
0.699986
  7
SIMPLEX
100
AcDbAttribute
  2
COTA
 70
     9
  0
SEQEND
  5
364
100
AcDbEntity
  8
0
  0
ENDSEC
  0
SECTION
  2
OBJECTS
  0
DICTIONARY
  5
19
100
AcDbDictionary
  3
ACAD_GROUP
350
1A
  3
ACAD_MLINESTYLE
350
1B
  0
DICTIONARY
  5
1A
102
{ACAD_REACTORS
330
19
102
}
100
AcDbDictionary
  0
DICTIONARY
  5
1B
102
{ACAD_REACTORS
330
19
102
}
100
AcDbDictionary
  3
STANDARD
350
1C
  0
MLINESTYLE
  5
1C
102
{ACAD_REACTORS
330
1B
102
}
100
AcDbMlineStyle
  2
STANDARD
 70
     0
  3

 62
     0
 51
90.0
 52
90.0
 71
     2
 49
0.5
 62
   256
  6
BYLAYER
 49
-0.5
 62
   256
  6
BYLAYER
  0
ENDSEC
  0
EOF
