  0
SECTION
  2
HEADER
  9
$ACADVER
  1
AC1014
  9
$ACADMAINTVER
 70
     0
  9
$DWGCODEPAGE
  3
ANSI_1252
  9
$INSBASE
 10
0.0
 20
0.0
 30
0.0
  9
$EXTMIN
 10
189138.007948
 20
1680299.239172
 30
0.0
  9
$EXTMAX
 10
190023.764533
 20
1680868.452841
 30
0.0
  9
$LIMMIN
 10
0.0
 20
0.0
  9
$LIMMAX
 10
0.0
 20
0.0
  9
$ORTHOMODE
 70
     0
  9
$REGENMODE
 70
     1
  9
$FILLMODE
 70
     1
  9
$QTEXTMODE
 70
     0
  9
$MIRRTEXT
 70
     1
  9
$DRAGMODE
 70
     2
  9
$LTSCALE
 40
1.0
  9
$OSMODE
 70
     0
  9
$ATTMODE
 70
     1
  9
$TEXTSIZE
 40
0.2
  9
$TRACEWID
 40
0.05
  9
$TEXTSTYLE
  7
STANDARD
  9
$CLAYER
  8
0
  9
$CELTYPE
  6
CONTINUOUS
  9
$CECOLOR
 62
   256
  9
$CELTSCALE
 40
1.0
  9
$DELOBJ
 70
     1
  9
$DISPSILH
 70
     0
  9
$DIMSCALE
 40
1.0
  9
$DIMASZ
 40
0.18
  9
$DIMEXO
 40
0.0625
  9
$DIMDLI
 40
0.38
  9
$DIMRND
 40
0.0
  9
$DIMDLE
 40
0.0
  9
$DIMEXE
 40
0.18
  9
$DIMTP
 40
0.0
  9
$DIMTM
 40
0.0
  9
$DIMTXT
 40
0.18
  9
$DIMCEN
 40
0.09
  9
$DIMTSZ
 40
0.0
  9
$DIMTOL
 70
     0
  9
$DIMLIM
 70
     0
  9
$DIMTIH
 70
     1
  9
$DIMTOH
 70
     1
  9
$DIMSE1
 70
     0
  9
$DIMSE2
 70
     0
  9
$DIMTAD
 70
     0
  9
$DIMZIN
 70
     0
  9
$DIMBLK
  1

  9
$DIMASO
 70
     1
  9
$DIMSHO
 70
     1
  9
$DIMPOST
  1

  9
$DIMAPOST
  1

  9
$DIMALT
 70
     0
  9
$DIMALTD
 70
     2
  9
$DIMALTF
 40
25.4
  9
$DIMLFAC
 40
1.0
  9
$DIMTOFL
 70
     0
  9
$DIMTVP
 40
0.0
  9
$DIMTIX
 70
     0
  9
$DIMSOXD
 70
     0
  9
$DIMSAH
 70
     0
  9
$DIMBLK1
  1

  9
$DIMBLK2
  1

  9
$DIMSTYLE
  2
STANDARD
  9
$DIMCLRD
 70
     0
  9
$DIMCLRE
 70
     0
  9
$DIMCLRT
 70
     0
  9
$DIMTFAC
 40
1.0
  9
$DIMGAP
 40
0.09
  9
$DIMJUST
 70
     0
  9
$DIMSD1
 70
     0
  9
$DIMSD2
 70
     0
  9
$DIMTOLJ
 70
     1
  9
$DIMTZIN
 70
     0
  9
$DIMALTZ
 70
     0
  9
$DIMALTTZ
 70
     0
  9
$DIMFIT
 70
     3
  9
$DIMUPT
 70
     0
  9
$DIMUNIT
 70
     2
  9
$DIMDEC
 70
     4
  9
$DIMTDEC
 70
     4
  9
$DIMALTU
 70
     2
  9
$DIMALTTD
 70
     2
  9
$DIMTXSTY
  7
STANDARD
  9
$DIMAUNIT
 70
     0
  9
$LUNITS
 70
     2
  9
$LUPREC
 70
     4
  9
$SKETCHINC
 40
0.1
  9
$FILLETRAD
 40
0.0
  9
$AUNITS
 70
     0
  9
$AUPREC
 70
     0
  9
$MENU
  1
acad
  9
$ELEVATION
 40
0.0
  9
$PELEVATION
 40
0.0
  9
$THICKNESS
 40
0.0
  9
$LIMCHECK
 70
     0
  9
$BLIPMODE
 70
     1
  9
$CHAMFERA
 40
0.0
  9
$CHAMFERB
 40
0.0
  9
$CHAMFERC
 40
0.0
  9
$CHAMFERD
 40
0.0
  9
$SKPOLY
 70
     0
  9
$TDCREATE
 40
0.000000000
  9
$TDUPDATE
 40
0.000000000
  9
$TDINDWG
 40
0.0000000000
  9
$TDUSRTIMER
 40
0.0000000000
  9
$USRTIMER
 70
     1
  9
$ANGBASE
 50
0.0
  9
$ANGDIR
 70
     0
  9
$PDMODE
 70
     0
  9
$PDSIZE
 40
0.0
  9
$PLINEWID
 40
0.0
  9
$COORDS
 70
     0
  9
$SPLFRAME
 70
     0
  9
$SPLINETYPE
 70
     6
  9
$SPLINESEGS
 70
     8
  9
$ATTDIA
 70
     0
  9
$ATTREQ
 70
     1
  9
$HANDLING
 70
     1
  9
$HANDSEED
  5
26B
  9
$SURFTAB1
 70
     6
  9
$SURFTAB2
 70
     6
  9
$SURFTYPE
 70
     6
  9
$SURFU
 70
     6
  9
$SURFV
 70
     6
  9
$UCSNAME
  2

  9
$UCSORG
 10
0.0
 20
0.0
 30
0.0
  9
$UCSXDIR
 10
1.0
 20
0.0
 30
0.0
  9
$UCSYDIR
 10
0.0
 20
1.0
 30
0.0
  9
$PUCSNAME
  2

  9
$PUCSORG
 10
0.0
 20
0.0
 30
0.0
  9
$PUCSXDIR
 10
1.0
 20
0.0
 30
0.0
  9
$PUCSYDIR
 10
0.0
 20
1.0
 30
0.0
  9
$USERI1
 70
     0
  9
$USERI2
 70
     0
  9
$USERI3
 70
     0
  9
$USERI4
 70
     0
  9
$USERI5
 70
     0
  9
$USERR1
 40
0.0
  9
$USERR2
 40
0.0
  9
$USERR3
 40
0.0
  9
$USERR4
 40
0.0
  9
$USERR5
 40
0.0
  9
$WORLDVIEW
 70
     1
  9
$SHADEDGE
 70
     3
  9
$SHADEDIF
 70
    70
  9
$TILEMODE
 70
     1
  9
$MAXACTVP
 70
    16
  9
$PINSBASE
 10
0.0
 20
0.0
 30
0.0
  9
$PLIMCHECK
 70
     0
  9
$PEXTMIN
 10
1.000000E+20
 20
1.000000E+20
 30
1.000000E+20
  9
$PEXTMAX
 10
-1.000000E+20
 20
-1.000000E+20
 30
-1.000000E+20
  9
$PLIMMIN
 10
0.0
 20
0.0
  9
$PLIMMAX
 10
12.0
 20
9.0
  9
$UNITMODE
 70
     0
  9
$VISRETAIN
 70
     0
  9
$PLINEGEN
 70
     1
  9
$PSLTSCALE
 70
     0
  9
$TREEDEPTH
 70
  3020
  9
$PICKSTYLE
 70
     1
  9
$CMLSTYLE
  2
STANDARD
  9
$CMLJUST
 70
     0
  9
$CMLSCALE
 40
1.0
  9
$PROXYGRAPHICS
 70
     0
  9
$MEASUREMENT
 70
     0
  0
ENDSEC
  0
SECTION
  2
CLASSES
  0
CLASS
  1
LWPOLYLINE
  2
AcDbPolyline
  3
"AutoCAD"
 90
        0
280
     0
281
     1
  0
CLASS
  1
IMAGE
  2
AcDbRasterImage
  3
ISM
 90
      127
280
     0
281
     1
  0
CLASS
  1
OLE2FRAME
  2
AcDbOle2Frame
  3
""
 90
        0
280
     0
281
     1
  0
CLASS
  1
HATCH
  2
AcDbHatch
  3
"ACAD_SEDONA"
 90
        0
280
     0
281
     1
  0
CLASS
  1
DICTIONARYVAR
  2
AcDbDictionaryVar
  3
"AutoCAD"
 90
        0
280
     0
281
     0
  0
CLASS
  1
RASTERVARIABLES
  2
AcDbRasterVariables
  3
ISM
 90
        0
280
     0
281
     0
  0
CLASS
  1
IMAGEDEF
  2
AcDbRasterImageDef
  3
ISM
 90
        0
280
     0
281
     0
  0
CLASS
  1
IMAGEDEF_REACTOR
  2
AcDbRasterImageDefReactor
  3
ISM
 90
        1
280
     0
281
     0
  0
CLASS
  1
IDBUFFER
  2
AcDbIdBuffer
  3
"Acad"
 90
        0
280
     0
281
     0
  0
CLASS
  1
SPATIAL_FILTER
  2
AcDbSpatialFilter
  3
"Acad"
 90
        0
280
     0
281
     0
  0
CLASS
  1
XRECORD
  2
AcDbXrecord
  3
"<Built In>"
 90
        0
280
     0
281
     0
  0
CLASS
  1
SORTENTSTABLE
  2
AcDbSortentsTable
  3
"AutoCAD"
 90
        0
280
     0
281
     0
  0
CLASS
  1
LAYER_INDEX
  2
AcDbLayerIndex
  3
"Acad"
 90
        0
280
     0
281
     0
  0
CLASS
  1
SPATIAL_INDEX
  2
AcDbSpatialIndex
  3
"Acad"
 90
        0
280
     0
281
     0
  0
CLASS
  1
OBJECT_PTR
  2
CAseDLPNTableRecord
  3
"ASE-LPNTableRecord"
 90
        1
280
     0
281
     0
  0
ENDSEC
  0
SECTION
  2
TABLES
  0
TABLE
  2
VPORT
  5
7
100
AcDbSymbolTable
 70
     1
  0
VPORT
  5
15
100
AcDbSymbolTableRecord
100
AcDbViewportTableRecord
  2
*ACTIVE
 70
     0
 10
0.0
 20
0.0
 11
1.0
 21
1.0
 12
6.591288
 22
4.579184
 13
0.0
 23
0.0
 14
1.0
 24
1.0
 15
0.0
 25
0.0
 16
0.0
 26
0.0
 36
1.0
 17
0.0
 27
0.0
 37
0.0
 40
9.158369
 41
0.688564
 42
50.0
 43
0.0
 44
0.0
 50
0.0
 51
0.0
 71
     0
 72
   100
 73
     1
 74
     1
 75
     0
 76
     0
 77
     0
 78
     0
  0
ENDTAB
  0
TABLE
  2
LTYPE
  5
4
100
AcDbSymbolTable
 70
    10
  0
LTYPE
  5
11
100
AcDbSymbolTableRecord
100
AcDbLinetypeTableRecord
  2
BYBLOCK
 70
     0
  3

 72
    65
 73
     0
 40
0.0
  0
LTYPE
  5
12
100
AcDbSymbolTableRecord
100
AcDbLinetypeTableRecord
  2
BYLAYER
 70
     0
  3

 72
    65
 73
     0
 40
0.0
  0
LTYPE
  5
13
100
AcDbSymbolTableRecord
100
AcDbLinetypeTableRecord
  2
CONTINUOUS
 70
     0
  3
Solid line
 72
    65
 73
     0
 40
0.0
  0
LTYPE
  5
1D
100
AcDbSymbolTableRecord
100
AcDbLinetypeTableRecord
  2
TRACEJADO
 70
     0
  3
topoGRAPH
 72
    65
 73
     2
 40
4.35
 49
4.0
 74
     0
 49
-0.35
 74
     0
  0
LTYPE
  5
1E
100
AcDbSymbolTableRecord
100
AcDbLinetypeTableRecord
  2
TRACO-PONTO
 70
     0
  3
topoGRAPH
 72
    65
 73
     4
 40
4.7
 49
4.0
 74
     0
 49
-0.35
 74
     0
 49
0.0
 74
     0
 49
-0.35
 74
     0
  0
LTYPE
  5
1F
100
AcDbSymbolTableRecord
100
AcDbLinetypeTableRecord
  2
CERCA
 70
     0
  3
topoGRAPH
 72
    65
 73
     4
 40
4.7
 49
4.0
 74
     0
 49
-0.35
 74
     0
 49
0.0
 74
     0
 49
-0.35
 74
     0
  0
LTYPE
  5
20
100
AcDbSymbolTableRecord
100
AcDbLinetypeTableRecord
  2
PONTILHADO
 70
     0
  3
topoGRAPH
 72
    65
 73
     2
 40
0.5
 49
0.0
 74
     0
 49
-0.5
 74
     0
  0
LTYPE
  5
21
100
AcDbSymbolTableRecord
100
AcDbLinetypeTableRecord
  2
CERCA_VIVA
 70
     0
  3
topoGRAPH
 72
    65
 73
     4
 40
4.7
 49
4.0
 74
     0
 49
-0.35
 74
     0
 49
0.0
 74
     0
 49
-0.35
 74
     0
  0
LTYPE
  5
22
100
AcDbSymbolTableRecord
100
AcDbLinetypeTableRecord
  2
TAPUME
 70
     0
  3
topoGRAPH
 72
    65
 73
     4
 40
4.7
 49
4.0
 74
     0
 49
-0.35
 74
     0
 49
0.0
 74
     0
 49
-0.35
 74
     0
  0
LTYPE
  5
23
100
AcDbSymbolTableRecord
100
AcDbLinetypeTableRecord
  2
CONTINUO
 70
     0
  3
topoGRAPH
 72
    65
 73
     0
 40
0.0
  0
ENDTAB
  0
TABLE
  2
LAYER
  5
2
100
AcDbSymbolTable
 70
     3
  0
LAYER
  5
14
100
AcDbSymbolTableRecord
100
AcDbLayerTableRecord
  2
0
 70
     0
 62
     7
  6
CONTINUOUS
  0
LAYER
  5
33
100
AcDbSymbolTableRecord
100
AcDbLayerTableRecord
  2
TG
 70
     0
 62
     7
  6
CONTINUO
  0
LAYER
  5
AD
100
AcDbSymbolTableRecord
100
AcDbLayerTableRecord
  2
_TG
 70
     0
 62
     7
  6
CONTINUO
  0
ENDTAB
  0
TABLE
  2
STYLE
  5
3
100
AcDbSymbolTable
 70
    16
  0
STYLE
  5
17
100
AcDbSymbolTableRecord
100
AcDbTextStyleTableRecord
  2
STANDARD
 70
     0
 40
0.0
 41
1.0
 50
0.0
 71
     0
 42
0.0
  3
txt
  4

  0
STYLE
  5
24
100
AcDbSymbolTableRecord
100
AcDbTextStyleTableRecord
  2
TXT
 70
     0
 40
0.2
 41
1.0
 50
0.0
 71
     0
 42
0.2
  3
txt
  4

  0
STYLE
  5
25
100
AcDbSymbolTableRecord
100
AcDbTextStyleTableRecord
  2
MONOTXT
 70
     0
 40
0.2
 41
1.0
 50
0.0
 71
     0
 42
0.2
  3
monotxt
  4

  0
STYLE
  5
26
100
AcDbSymbolTableRecord
100
AcDbTextStyleTableRecord
  2
SIMPLEX
 70
     0
 40
0.2
 41
1.0
 50
0.0
 71
     0
 42
0.2
  3
simplex
  4

  0
STYLE
  5
27
100
AcDbSymbolTableRecord
100
AcDbTextStyleTableRecord
  2
COMPLEX
 70
     0
 40
0.2
 41
1.0
 50
0.0
 71
     0
 42
0.2
  3
complex
  4

  0
STYLE
  5
28
100
AcDbSymbolTableRecord
100
AcDbTextStyleTableRecord
  2
ROMANS
 70
     0
 40
0.2
 41
1.0
 50
0.0
 71
     0
 42
0.2
  3
romans
  4

  0
STYLE
  5
29
100
AcDbSymbolTableRecord
100
AcDbTextStyleTableRecord
  2
ROMAND
 70
     0
 40
0.2
 41
1.0
 50
0.0
 71
     0
 42
0.2
  3
romand
  4

  0
STYLE
  5
2A
100
AcDbSymbolTableRecord
100
AcDbTextStyleTableRecord
  2
ROMANC
 70
     0
 40
0.2
 41
1.0
 50
0.0
 71
     0
 42
0.2
  3
romanc
  4

  0
STYLE
  5
2B
100
AcDbSymbolTableRecord
100
AcDbTextStyleTableRecord
  2
ROMANT
 70
     0
 40
0.2
 41
1.0
 50
0.0
 71
     0
 42
0.2
  3
romant
  4

  0
STYLE
  5
2C
100
AcDbSymbolTableRecord
100
AcDbTextStyleTableRecord
  2
ITALIC
 70
     0
 40
0.2
 41
1.0
 50
0.0
 71
     0
 42
0.2
  3
italic
  4

  0
STYLE
  5
2D
100
AcDbSymbolTableRecord
100
AcDbTextStyleTableRecord
  2
ITALICC
 70
     0
 40
0.2
 41
1.0
 50
0.0
 71
     0
 42
0.2
  3
italicc
  4

  0
STYLE
  5
2E
100
AcDbSymbolTableRecord
100
AcDbTextStyleTableRecord
  2
ITALICT
 70
     0
 40
0.2
 41
1.0
 50
0.0
 71
     0
 42
0.2
  3
italict
  4

  0
STYLE
  5
2F
100
AcDbSymbolTableRecord
100
AcDbTextStyleTableRecord
  2
SCRIPTC
 70
     0
 40
0.2
 41
1.0
 50
0.0
 71
     0
 42
0.2
  3
scriptc
  4

  0
STYLE
  5
30
100
AcDbSymbolTableRecord
100
AcDbTextStyleTableRecord
  2
SCRIPTS
 70
     0
 40
0.2
 41
1.0
 50
0.0
 71
     0
 42
0.2
  3
scripts
  4

  0
STYLE
  5
31
100
AcDbSymbolTableRecord
100
AcDbTextStyleTableRecord
  2
GOTHICE
 70
     0
 40
0.2
 41
1.0
 50
0.0
 71
     0
 42
0.2
  3
gothice
  4

  0
STYLE
  5
32
100
AcDbSymbolTableRecord
100
AcDbTextStyleTableRecord
  2
GOTHICG
 70
     0
 40
0.2
 41
1.0
 50
0.0
 71
     0
 42
0.2
  3
gothicg
  4

  0
ENDTAB
  0
TABLE
  2
VIEW
  5
5
100
AcDbSymbolTable
 70
     0
  0
ENDTAB
  0
TABLE
  2
UCS
  5
6
100
AcDbSymbolTable
 70
     0
  0
ENDTAB
  0
TABLE
  2
APPID
  5
8
100
AcDbSymbolTable
 70
     1
  0
APPID
  5
16
100
AcDbSymbolTableRecord
100
AcDbRegAppTableRecord
  2
ACAD
 70
     0
  0
ENDTAB
  0
TABLE
  2
DIMSTYLE
  5
9
100
AcDbSymbolTable
 70
     1
  0
DIMSTYLE
105
18
100
AcDbSymbolTableRecord
100
AcDbDimStyleTableRecord
  2
STANDARD
 70
     0
  3

  4

  5

  6

  7

 40
1.0
 41
0.18
 42
0.0625
 43
0.38
 44
0.18
 45
0.0
 46
0.0
 47
0.0
 48
0.0
140
0.18
141
0.09
142
0.0
143
25.4
144
1.0
145
0.0
146
1.0
147
0.09
 71
     0
 72
     0
 73
     1
 74
     1
 75
     0
 76
     0
 77
     0
 78
     0
170
     0
171
     2
172
     0
173
     0
174
     0
175
     0
176
     0
177
     0
178
     0
270
     2
271
     4
272
     4
273
     2
274
     2
340
17
275
     0
280
     0
281
     0
282
     0
283
     1
284
     0
285
     0
286
     0
287
     0
288
     0
  0
ENDTAB
  0
TABLE
  2
BLOCK_RECORD
  5
1
100
AcDbSymbolTable
 70
    10
  0
BLOCK_RECORD
  5
A
100
AcDbSymbolTableRecord
100
AcDbBlockTableRecord
  2
*MODEL_SPACE
  0
BLOCK_RECORD
  5
B
100
AcDbSymbolTableRecord
100
AcDbBlockTableRecord
  2
*PAPER_SPACE
  0
BLOCK_RECORD
  5
34
100
AcDbSymbolTableRecord
100
AcDbBlockTableRecord
  2
SIMB_XIS
  0
BLOCK_RECORD
  5
42
100
AcDbSymbolTableRecord
100
AcDbBlockTableRecord
  2
SIMB_CIRCULO
  0
BLOCK_RECORD
  5
4A
100
AcDbSymbolTableRecord
100
AcDbBlockTableRecord
  2
SIMB_ARVORE
  0
BLOCK_RECORD
  5
56
100
AcDbSymbolTableRecord
100
AcDbBlockTableRecord
  2
SIMB_QUADRADO
  0
BLOCK_RECORD
  5
63
100
AcDbSymbolTableRecord
100
AcDbBlockTableRecord
  2
SIMB_BOLINHA
  0
BLOCK_RECORD
  5
6B
100
AcDbSymbolTableRecord
100
AcDbBlockTableRecord
  2
SIMB_CRUZETA
  0
BLOCK_RECORD
  5
79
100
AcDbSymbolTableRecord
100
AcDbBlockTableRecord
  2
SIMB_BARRAS
  0
BLOCK_RECORD
  5
88
100
AcDbSymbolTableRecord
100
AcDbBlockTableRecord
  2
SIMB_PONTO
  0
BLOCK_RECORD
  5
8F
100
AcDbSymbolTableRecord
100
AcDbBlockTableRecord
  2
SIMB_TRIANGULO
  0
BLOCK_RECORD
  5
9B
100
AcDbSymbolTableRecord
100
AcDbBlockTableRecord
  2
SIMB_POSTE
  0
ENDTAB
  0
ENDSEC
  0
SECTION
  2
BLOCKS
  0
BLOCK
  5
D
100
AcDbEntity
  8
0
100
AcDbBlockBegin
  2
*MODEL_SPACE
 70
     0
 10
0.0
 20
0.0
 30
0.0
  3
*MODEL_SPACE
  1

  0
ENDBLK
  5
E
100
AcDbEntity
  8
0
100
AcDbBlockEnd
  0
BLOCK
  5
F
100
AcDbEntity
 67
     1
  8
0
100
AcDbBlockBegin
  2
*PAPER_SPACE
 70
     0
 10
0.0
 20
0.0
 30
0.0
  3
*PAPER_SPACE
  1

  0
ENDBLK
  5
10
100
AcDbEntity
 67
     1
  8
0
100
AcDbBlockEnd
  0
BLOCK
  5
35
100
AcDbEntity
  8
0
100
AcDbBlockBegin
  2
SIMB_XIS
 70
     0
 10
0.0
 20
0.0
 30
0.0
  3
SIMB_XIS
  1

  0
POLYLINE
  5
36
100
AcDbEntity
  8
0
 62
     0
100
AcDb2dPolyline
 66
     1
 10
0.0
 20
0.0
 30
0.0
  0
VERTEX
  5
37
100
AcDbEntity
  8
0
 62
     0
100
AcDbVertex
100
AcDb2dVertex
 10
-0.175
 20
-0.25
 30
0.0
  0
VERTEX
  5
38
100
AcDbEntity
  8
0
 62
     0
100
AcDbVertex
100
AcDb2dVertex
 10
0.175
 20
0.25
 30
0.0
  0
SEQEND
  5
39
100
AcDbEntity
  8
0
 62
     0
  0
POLYLINE
  5
3A
100
AcDbEntity
  8
0
 62
     0
100
AcDb2dPolyline
 66
     1
 10
0.0
 20
0.0
 30
0.0
  0
VERTEX
  5
3B
100
AcDbEntity
  8
0
 62
     0
100
AcDbVertex
100
AcDb2dVertex
 10
0.175
 20
-0.25
 30
0.0
  0
VERTEX
  5
3C
100
AcDbEntity
  8
0
 62
     0
100
AcDbVertex
100
AcDb2dVertex
 10
-0.175
 20
0.25
 30
0.0
  0
SEQEND
  5
3D
100
AcDbEntity
  8
0
 62
     0
  0
ATTDEF
  5
3E
100
AcDbEntity
  8
0
100
AcDbText
 10
0.0
 20
0.0
 30
0.0
 40
1.0
  1

100
AcDbAttributeDefinition
  3
pto:
  2
PONTO
 70
     0
  0
ATTDEF
  5
3F
100
AcDbEntity
  8
0
100
AcDbText
 10
0.0
 20
0.0
 30
0.0
 40
1.0
  1

100
AcDbAttributeDefinition
  3
desc:
  2
DESC
 70
     0
  0
ATTDEF
  5
40
100
AcDbEntity
  8
0
100
AcDbText
 10
0.0
 20
0.0
 30
0.0
 40
1.0
  1

100
AcDbAttributeDefinition
  3
ct:
  2
COTA
 70
     0
  0
ENDBLK
  5
41
100
AcDbEntity
  8
0
100
AcDbBlockEnd
  0
BLOCK
  5
43
100
AcDbEntity
  8
0
100
AcDbBlockBegin
  2
SIMB_CIRCULO
 70
     0
 10
0.0
 20
0.0
 30
0.0
  3
SIMB_CIRCULO
  1

  0
CIRCLE
  5
44
100
AcDbEntity
  8
0
 62
     0
100
AcDbCircle
 10
0.0
 20
0.0
 30
0.0
 40
0.25
  0
POINT
  5
45
100
AcDbEntity
  8
0
 62
     0
100
AcDbPoint
 10
0.0
 20
0.0
 30
0.0
  0
ATTDEF
  5
46
100
AcDbEntity
  8
0
100
AcDbText
 10
0.0
 20
0.0
 30
0.0
 40
1.0
  1

100
AcDbAttributeDefinition
  3
pto:
  2
PONTO
 70
     0
  0
ATTDEF
  5
47
100
AcDbEntity
  8
0
100
AcDbText
 10
0.0
 20
0.0
 30
0.0
 40
1.0
  1

100
AcDbAttributeDefinition
  3
desc:
  2
DESC
 70
     0
  0
ATTDEF
  5
48
100
AcDbEntity
  8
0
100
AcDbText
 10
0.0
 20
0.0
 30
0.0
 40
1.0
  1

100
AcDbAttributeDefinition
  3
ct:
  2
COTA
 70
     0
  0
ENDBLK
  5
49
100
AcDbEntity
  8
0
100
AcDbBlockEnd
  0
BLOCK
  5
4B
100
AcDbEntity
  8
0
100
AcDbBlockBegin
  2
SIMB_ARVORE
 70
     0
 10
0.0
 20
0.0
 30
0.0
  3
SIMB_ARVORE
  1

  0
ARC
  5
4C
100
AcDbEntity
  8
0
 62
     0
100
AcDbCircle
 10
-0.545
 20
0.75
 30
0.0
 40
0.575
100
AcDbArc
 50
18.749758
 51
233.130102
  0
ARC
  5
4D
100
AcDbEntity
  8
0
 62
     0
100
AcDbCircle
 10
-0.88
 20
-0.285
 30
0.0
 40
0.575
100
AcDbArc
 50
87.013363
 51
319.184916
  0
ARC
  5
4E
100
AcDbEntity
  8
0
 62
     0
100
AcDbCircle
 10
0.0
 20
-0.925
 30
0.0
 40
0.575
100
AcDbArc
 50
162.824096
 51
17.175904
  0
ARC
  5
4F
100
AcDbEntity
  8
0
 62
     0
100
AcDbCircle
 10
0.88
 20
-0.285
 30
0.0
 40
0.575
100
AcDbArc
 50
234.926246
 51
89.003652
  0
ARC
  5
50
100
AcDbEntity
  8
0
 62
     0
100
AcDbCircle
 10
0.545
 20
0.75
 30
0.0
 40
0.575
100
AcDbArc
 50
306.869898
 51
161.250242
  0
POINT
  5
51
100
AcDbEntity
  8
0
 62
     0
100
AcDbPoint
 10
0.0
 20
0.0
 30
0.0
  0
ATTDEF
  5
52
100
AcDbEntity
  8
0
100
AcDbText
 10
0.0
 20
0.0
 30
0.0
 40
1.0
  1

100
AcDbAttributeDefinition
  3
pto:
  2
PONTO
 70
     0
  0
ATTDEF
  5
53
100
AcDbEntity
  8
0
100
AcDbText
 10
0.0
 20
0.0
 30
0.0
 40
1.0
  1

100
AcDbAttributeDefinition
  3
desc:
  2
DESC
 70
     0
  0
ATTDEF
  5
54
100
AcDbEntity
  8
0
100
AcDbText
 10
0.0
 20
0.0
 30
0.0
 40
1.0
  1

100
AcDbAttributeDefinition
  3
ct:
  2
COTA
 70
     0
  0
ENDBLK
  5
55
100
AcDbEntity
  8
0
100
AcDbBlockEnd
  0
BLOCK
  5
57
100
AcDbEntity
  8
0
100
AcDbBlockBegin
  2
SIMB_QUADRADO
 70
     0
 10
0.0
 20
0.0
 30
0.0
  3
SIMB_QUADRADO
  1

  0
POLYLINE
  5
58
100
AcDbEntity
  8
0
 62
     0
100
AcDb2dPolyline
 66
     1
 10
0.0
 20
0.0
 30
0.0
 70
     1
  0
VERTEX
  5
59
100
AcDbEntity
  8
0
 62
     0
100
AcDbVertex
100
AcDb2dVertex
 10
-0.125
 20
-0.125
 30
0.0
  0
VERTEX
  5
5A
100
AcDbEntity
  8
0
 62
     0
100
AcDbVertex
100
AcDb2dVertex
 10
0.125
 20
-0.125
 30
0.0
  0
VERTEX
  5
5B
100
AcDbEntity
  8
0
 62
     0
100
AcDbVertex
100
AcDb2dVertex
 10
0.125
 20
0.125
 30
0.0
  0
VERTEX
  5
5C
100
AcDbEntity
  8
0
 62
     0
100
AcDbVertex
100
AcDb2dVertex
 10
-0.125
 20
0.125
 30
0.0
  0
SEQEND
  5
5D
100
AcDbEntity
  8
0
 62
     0
  0
POINT
  5
5E
100
AcDbEntity
  8
0
 62
     0
100
AcDbPoint
 10
0.0
 20
0.0
 30
0.0
  0
ATTDEF
  5
5F
100
AcDbEntity
  8
0
100
AcDbText
 10
0.0
 20
0.0
 30
0.0
 40
1.0
  1

100
AcDbAttributeDefinition
  3
pto:
  2
PONTO
 70
     0
  0
ATTDEF
  5
60
100
AcDbEntity
  8
0
100
AcDbText
 10
0.0
 20
0.0
 30
0.0
 40
1.0
  1

100
AcDbAttributeDefinition
  3
desc:
  2
DESC
 70
     0
  0
ATTDEF
  5
61
100
AcDbEntity
  8
0
100
AcDbText
 10
0.0
 20
0.0
 30
0.0
 40
1.0
  1

100
AcDbAttributeDefinition
  3
ct:
  2
COTA
 70
     0
  0
ENDBLK
  5
62
100
AcDbEntity
  8
0
100
AcDbBlockEnd
  0
BLOCK
  5
64
100
AcDbEntity
  8
0
100
AcDbBlockBegin
  2
SIMB_BOLINHA
 70
     0
 10
0.0
 20
0.0
 30
0.0
  3
SIMB_BOLINHA
  1

  0
CIRCLE
  5
65
100
AcDbEntity
  8
0
 62
     0
100
AcDbCircle
 10
0.0
 20
0.0
 30
0.0
 40
0.15
  0
POINT
  5
66
100
AcDbEntity
  8
0
 62
     0
100
AcDbPoint
 10
0.0
 20
0.0
 30
0.0
  0
ATTDEF
  5
67
100
AcDbEntity
  8
0
100
AcDbText
 10
0.0
 20
0.0
 30
0.0
 40
1.0
  1

100
AcDbAttributeDefinition
  3
pto:
  2
PONTO
 70
     0
  0
ATTDEF
  5
68
100
AcDbEntity
  8
0
100
AcDbText
 10
0.0
 20
0.0
 30
0.0
 40
1.0
  1

100
AcDbAttributeDefinition
  3
desc:
  2
DESC
 70
     0
  0
ATTDEF
  5
69
100
AcDbEntity
  8
0
100
AcDbText
 10
0.0
 20
0.0
 30
0.0
 40
1.0
  1

100
AcDbAttributeDefinition
  3
ct:
  2
COTA
 70
     0
  0
ENDBLK
  5
6A
100
AcDbEntity
  8
0
100
AcDbBlockEnd
  0
BLOCK
  5
6C
100
AcDbEntity
  8
0
100
AcDbBlockBegin
  2
SIMB_CRUZETA
 70
     0
 10
0.0
 20
0.0
 30
0.0
  3
SIMB_CRUZETA
  1

  0
POLYLINE
  5
6D
100
AcDbEntity
  8
0
 62
     0
100
AcDb2dPolyline
 66
     1
 10
0.0
 20
0.0
 30
0.0
  0
VERTEX
  5
6E
100
AcDbEntity
  8
0
 62
     0
100
AcDbVertex
100
AcDb2dVertex
 10
-0.25
 20
0.0
 30
0.0
  0
VERTEX
  5
6F
100
AcDbEntity
  8
0
 62
     0
100
AcDbVertex
100
AcDb2dVertex
 10
0.25
 20
0.0
 30
0.0
  0
SEQEND
  5
70
100
AcDbEntity
  8
0
 62
     0
  0
POLYLINE
  5
71
100
AcDbEntity
  8
0
 62
     0
100
AcDb2dPolyline
 66
     1
 10
0.0
 20
0.0
 30
0.0
  0
VERTEX
  5
72
100
AcDbEntity
  8
0
 62
     0
100
AcDbVertex
100
AcDb2dVertex
 10
0.0
 20
-0.25
 30
0.0
  0
VERTEX
  5
73
100
AcDbEntity
  8
0
 62
     0
100
AcDbVertex
100
AcDb2dVertex
 10
0.0
 20
0.25
 30
0.0
  0
SEQEND
  5
74
100
AcDbEntity
  8
0
 62
     0
  0
ATTDEF
  5
75
100
AcDbEntity
  8
0
100
AcDbText
 10
0.0
 20
0.0
 30
0.0
 40
1.0
  1

100
AcDbAttributeDefinition
  3
pto:
  2
PONTO
 70
     0
  0
ATTDEF
  5
76
100
AcDbEntity
  8
0
100
AcDbText
 10
0.0
 20
0.0
 30
0.0
 40
1.0
  1

100
AcDbAttributeDefinition
  3
desc:
  2
DESC
 70
     0
  0
ATTDEF
  5
77
100
AcDbEntity
  8
0
100
AcDbText
 10
0.0
 20
0.0
 30
0.0
 40
1.0
  1

100
AcDbAttributeDefinition
  3
ct:
  2
COTA
 70
     0
  0
ENDBLK
  5
78
100
AcDbEntity
  8
0
100
AcDbBlockEnd
  0
BLOCK
  5
7A
100
AcDbEntity
  8
0
100
AcDbBlockBegin
  2
SIMB_BARRAS
 70
     0
 10
0.0
 20
0.0
 30
0.0
  3
SIMB_BARRAS
  1

  0
POLYLINE
  5
7B
100
AcDbEntity
  8
0
 62
     0
100
AcDb2dPolyline
 66
     1
 10
0.0
 20
0.0
 30
0.0
  0
VERTEX
  5
7C
100
AcDbEntity
  8
0
 62
     0
100
AcDbVertex
100
AcDb2dVertex
 10
-0.175
 20
-0.25
 30
0.0
  0
VERTEX
  5
7D
100
AcDbEntity
  8
0
 62
     0
100
AcDbVertex
100
AcDb2dVertex
 10
-0.05
 20
0.25
 30
0.0
  0
SEQEND
  5
7E
100
AcDbEntity
  8
0
 62
     0
  0
POLYLINE
  5
7F
100
AcDbEntity
  8
0
 62
     0
100
AcDb2dPolyline
 66
     1
 10
0.0
 20
0.0
 30
0.0
  0
VERTEX
  5
80
100
AcDbEntity
  8
0
 62
     0
100
AcDbVertex
100
AcDb2dVertex
 10
0.175
 20
0.25
 30
0.0
  0
VERTEX
  5
81
100
AcDbEntity
  8
0
 62
     0
100
AcDbVertex
100
AcDb2dVertex
 10
0.05
 20
-0.25
 30
0.0
  0
SEQEND
  5
82
100
AcDbEntity
  8
0
 62
     0
  0
POINT
  5
83
100
AcDbEntity
  8
0
 62
     0
100
AcDbPoint
 10
0.0
 20
0.0
 30
0.0
  0
ATTDEF
  5
84
100
AcDbEntity
  8
0
100
AcDbText
 10
0.0
 20
0.0
 30
0.0
 40
1.0
  1

100
AcDbAttributeDefinition
  3
pto:
  2
PONTO
 70
     0
  0
ATTDEF
  5
85
100
AcDbEntity
  8
0
100
AcDbText
 10
0.0
 20
0.0
 30
0.0
 40
1.0
  1

100
AcDbAttributeDefinition
  3
desc:
  2
DESC
 70
     0
  0
ATTDEF
  5
86
100
AcDbEntity
  8
0
100
AcDbText
 10
0.0
 20
0.0
 30
0.0
 40
1.0
  1

100
AcDbAttributeDefinition
  3
ct:
  2
COTA
 70
     0
  0
ENDBLK
  5
87
100
AcDbEntity
  8
0
100
AcDbBlockEnd
  0
BLOCK
  5
89
100
AcDbEntity
  8
0
100
AcDbBlockBegin
  2
SIMB_PONTO
 70
     0
 10
0.0
 20
0.0
 30
0.0
  3
SIMB_PONTO
  1

  0
POINT
  5
8A
100
AcDbEntity
  8
0
 62
     0
100
AcDbPoint
 10
0.0
 20
0.0
 30
0.0
  0
ATTDEF
  5
8B
100
AcDbEntity
  8
0
100
AcDbText
 10
0.0
 20
0.0
 30
0.0
 40
1.0
  1

100
AcDbAttributeDefinition
  3
pto:
  2
PONTO
 70
     0
  0
ATTDEF
  5
8C
100
AcDbEntity
  8
0
100
AcDbText
 10
0.0
 20
0.0
 30
0.0
 40
1.0
  1

100
AcDbAttributeDefinition
  3
desc:
  2
DESC
 70
     0
  0
ATTDEF
  5
8D
100
AcDbEntity
  8
0
100
AcDbText
 10
0.0
 20
0.0
 30
0.0
 40
1.0
  1

100
AcDbAttributeDefinition
  3
ct:
  2
COTA
 70
     0
  0
ENDBLK
  5
8E
100
AcDbEntity
  8
0
100
AcDbBlockEnd
  0
BLOCK
  5
90
100
AcDbEntity
  8
0
100
AcDbBlockBegin
  2
SIMB_TRIANGULO
 70
     0
 10
0.0
 20
0.0
 30
0.0
  3
SIMB_TRIANGULO
  1

  0
POLYLINE
  5
91
100
AcDbEntity
  8
0
 62
     0
100
AcDb2dPolyline
 66
     1
 10
0.0
 20
0.0
 30
0.0
 70
     1
  0
VERTEX
  5
92
100
AcDbEntity
  8
0
 62
     0
100
AcDbVertex
100
AcDb2dVertex
 10
-0.3
 20
-0.15
 30
0.0
  0
VERTEX
  5
93
100
AcDbEntity
  8
0
 62
     0
100
AcDbVertex
100
AcDb2dVertex
 10
0.0
 20
0.35
 30
0.0
  0
VERTEX
  5
94
100
AcDbEntity
  8
0
 62
     0
100
AcDbVertex
100
AcDb2dVertex
 10
0.3
 20
-0.15
 30
0.0
  0
SEQEND
  5
95
100
AcDbEntity
  8
0
 62
     0
  0
POINT
  5
96
100
AcDbEntity
  8
0
 62
     0
100
AcDbPoint
 10
0.0
 20
0.0
 30
0.0
  0
ATTDEF
  5
97
100
AcDbEntity
  8
0
100
AcDbText
 10
0.0
 20
0.0
 30
0.0
 40
1.0
  1

100
AcDbAttributeDefinition
  3
pto:
  2
PONTO
 70
     0
  0
ATTDEF
  5
98
100
AcDbEntity
  8
0
100
AcDbText
 10
0.0
 20
0.0
 30
0.0
 40
1.0
  1

100
AcDbAttributeDefinition
  3
desc:
  2
DESC
 70
     0
  0
ATTDEF
  5
99
100
AcDbEntity
  8
0
100
AcDbText
 10
0.0
 20
0.0
 30
0.0
 40
1.0
  1

100
AcDbAttributeDefinition
  3
ct:
  2
COTA
 70
     0
  0
ENDBLK
  5
9A
100
AcDbEntity
  8
0
100
AcDbBlockEnd
  0
BLOCK
  5
9C
100
AcDbEntity
  8
0
100
AcDbBlockBegin
  2
SIMB_POSTE
 70
     0
 10
0.0
 20
0.0
 30
0.0
  3
SIMB_POSTE
  1

  0
POLYLINE
  5
9D
100
AcDbEntity
  8
0
 62
     0
100
AcDb2dPolyline
 66
     1
 10
0.0
 20
0.0
 30
0.0
  0
VERTEX
  5
9E
100
AcDbEntity
  8
0
 62
     0
100
AcDbVertex
100
AcDb2dVertex
 10
0.0
 20
0.0
 30
0.0
  0
VERTEX
  5
9F
100
AcDbEntity
  8
0
 62
     0
100
AcDbVertex
100
AcDb2dVertex
 10
0.0
 20
2.5
 30
0.0
  0
SEQEND
  5
A0
100
AcDbEntity
  8
0
 62
     0
  0
POLYLINE
  5
A1
100
AcDbEntity
  8
0
 62
     0
100
AcDb2dPolyline
 66
     1
 10
0.0
 20
0.0
 30
0.0
  0
VERTEX
  5
A2
100
AcDbEntity
  8
0
 62
     0
100
AcDbVertex
100
AcDb2dVertex
 10
-0.75
 20
1.5
 30
0.0
  0
VERTEX
  5
A3
100
AcDbEntity
  8
0
 62
     0
100
AcDbVertex
100
AcDb2dVertex
 10
0.75
 20
1.5
 30
0.0
  0
SEQEND
  5
A4
100
AcDbEntity
  8
0
 62
     0
  0
POLYLINE
  5
A5
100
AcDbEntity
  8
0
 62
     0
100
AcDb2dPolyline
 66
     1
 10
0.0
 20
0.0
 30
0.0
  0
VERTEX
  5
A6
100
AcDbEntity
  8
0
 62
     0
100
AcDbVertex
100
AcDb2dVertex
 10
-0.5
 20
2.0
 30
0.0
  0
VERTEX
  5
A7
100
AcDbEntity
  8
0
 62
     0
100
AcDbVertex
100
AcDb2dVertex
 10
0.5
 20
2.0
 30
0.0
  0
SEQEND
  5
A8
100
AcDbEntity
  8
0
 62
     0
  0
ATTDEF
  5
A9
100
AcDbEntity
  8
0
100
AcDbText
 10
0.0
 20
0.0
 30
0.0
 40
1.0
  1

100
AcDbAttributeDefinition
  3
pto:
  2
PONTO
 70
     0
  0
ATTDEF
  5
AA
100
AcDbEntity
  8
0
100
AcDbText
 10
0.0
 20
0.0
 30
0.0
 40
1.0
  1

100
AcDbAttributeDefinition
  3
desc:
  2
DESC
 70
     0
  0
ATTDEF
  5
AB
100
AcDbEntity
  8
0
100
AcDbText
 10
0.0
 20
0.0
 30
0.0
 40
1.0
  1

100
AcDbAttributeDefinition
  3
ct:
  2
COTA
 70
     0
  0
ENDBLK
  5
AC
100
AcDbEntity
  8
0
100
AcDbBlockEnd
  0
ENDSEC
  0
SECTION
  2
ENTITIES
  0
INSERT
  5
AE
100
AcDbEntity
  8
_TG
 62
     3
100
AcDbBlockReference
 66
     1
  2
SIMB_PONTO
 10
189650.731519
 20
1680481.408245
 30
0.0
  0
ATTRIB
  5
AF
100
AcDbEntity
  8
0
 62
     1
100
AcDbText
 10
189651.081519
 20
1680481.758245
 30
0.0
 40
0.75
  1
1
 41
0.954526
  7
SIMPLEX
100
AcDbAttribute
  2
PONTO
 70
     8
  0
ATTRIB
  5
B0
100
AcDbEntity
  8
0
 62
     4
100
AcDbText
 10
189651.081519
 20
1680482.658245
 30
0.0
 40
0.75
  1
I
 41
0.699986
  7
SIMPLEX
100
AcDbAttribute
  2
DESC
 70
     9
  0
ATTRIB
  5
B1
100
AcDbEntity
  8
0
 62
     2
100
AcDbText
 10
189651.081519
 20
1680480.308245
 30
0.0
 40
0.75
  1

 41
0.699986
  7
SIMPLEX
100
AcDbAttribute
  2
COTA
 70
     9
  0
SEQEND
  5
B2
100
AcDbEntity
  8
0
  0
INSERT
  5
B3
100
AcDbEntity
  8
_TG
 62
     3
100
AcDbBlockReference
 66
     1
  2
SIMB_PONTO
 10
189649.288365
 20
1680535.996313
 30
0.0
  0
ATTRIB
  5
B4
100
AcDbEntity
  8
0
 62
     1
100
AcDbText
 10
189649.638365
 20
1680536.346313
 30
0.0
 40
0.75
  1
10
 41
0.954526
  7
SIMPLEX
100
AcDbAttribute
  2
PONTO
 70
     8
  0
ATTRIB
  5
B5
100
AcDbEntity
  8
0
 62
     4
100
AcDbText
 10
189649.638365
 20
1680537.246313
 30
0.0
 40
0.75
  1
I
 41
0.699986
  7
SIMPLEX
100
AcDbAttribute
  2
DESC
 70
     9
  0
ATTRIB
  5
B6
100
AcDbEntity
  8
0
 62
     2
100
AcDbText
 10
189649.638365
 20
1680534.896313
 30
0.0
 40
0.75
  1

 41
0.699986
  7
SIMPLEX
100
AcDbAttribute
  2
COTA
 70
     9
  0
SEQEND
  5
B7
100
AcDbEntity
  8
0
  0
INSERT
  5
B8
100
AcDbEntity
  8
_TG
 62
     3
100
AcDbBlockReference
 66
     1
  2
SIMB_PONTO
 10
189648.504779
 20
1680538.780257
 30
0.0
  0
ATTRIB
  5
B9
100
AcDbEntity
  8
0
 62
     1
100
AcDbText
 10
189648.854779
 20
1680539.130257
 30
0.0
 40
0.75
  1
11
 41
0.954526
  7
SIMPLEX
100
AcDbAttribute
  2
PONTO
 70
     8
  0
ATTRIB
  5
BA
100
AcDbEntity
  8
0
 62
     4
100
AcDbText
 10
189648.854779
 20
1680540.030257
 30
0.0
 40
0.75
  1
I
 41
0.699986
  7
SIMPLEX
100
AcDbAttribute
  2
DESC
 70
     9
  0
ATTRIB
  5
BB
100
AcDbEntity
  8
0
 62
     2
100
AcDbText
 10
189648.854779
 20
1680537.680257
 30
0.0
 40
0.75
  1

 41
0.699986
  7
SIMPLEX
100
AcDbAttribute
  2
COTA
 70
     9
  0
SEQEND
  5
BC
100
AcDbEntity
  8
0
  0
INSERT
  5
BD
100
AcDbEntity
  8
_TG
 62
     3
100
AcDbBlockReference
 66
     1
  2
SIMB_PONTO
 10
189644.35559
 20
1680536.670432
 30
0.0
  0
ATTRIB
  5
BE
100
AcDbEntity
  8
0
 62
     1
100
AcDbText
 10
189644.70559
 20
1680537.020432
 30
0.0
 40
0.75
  1
12
 41
0.954526
  7
SIMPLEX
100
AcDbAttribute
  2
PONTO
 70
     8
  0
ATTRIB
  5
BF
100
AcDbEntity
  8
0
 62
     4
100
AcDbText
 10
189644.70559
 20
1680537.920432
 30
0.0
 40
0.75
  1
I
 41
0.699986
  7
SIMPLEX
100
AcDbAttribute
  2
DESC
 70
     9
  0
ATTRIB
  5
C0
100
AcDbEntity
  8
0
 62
     2
100
AcDbText
 10
189644.70559
 20
1680535.570432
 30
0.0
 40
0.75
  1

 41
0.699986
  7
SIMPLEX
100
AcDbAttribute
  2
COTA
 70
     9
  0
SEQEND
  5
C1
100
AcDbEntity
  8
0
  0
INSERT
  5
C2
100
AcDbEntity
  8
_TG
 62
     3
100
AcDbBlockReference
 66
     1
  2
SIMB_PONTO
 10
189634.616525
 20
1680530.3517
 30
0.0
  0
ATTRIB
  5
C3
100
AcDbEntity
  8
0
 62
     1
100
AcDbText
 10
189634.966525
 20
1680530.7017
 30
0.0
 40
0.75
  1
13
 41
0.954526
  7
SIMPLEX
100
AcDbAttribute
  2
PONTO
 70
     8
  0
ATTRIB
  5
C4
100
AcDbEntity
  8
0
 62
     4
100
AcDbText
 10
189634.966525
 20
1680531.6017
 30
0.0
 40
0.75
  1
I
 41
0.699986
  7
SIMPLEX
100
AcDbAttribute
  2
DESC
 70
     9
  0
ATTRIB
  5
C5
100
AcDbEntity
  8
0
 62
     2
100
AcDbText
 10
189634.966525
 20
1680529.2517
 30
0.0
 40
0.75
  1

 41
0.699986
  7
SIMPLEX
100
AcDbAttribute
  2
COTA
 70
     9
  0
SEQEND
  5
C6
100
AcDbEntity
  8
0
  0
INSERT
  5
C7
100
AcDbEntity
  8
_TG
 62
     3
100
AcDbBlockReference
 66
     1
  2
SIMB_PONTO
 10
189635.318417
 20
1680528.580156
 30
0.0
  0
ATTRIB
  5
C8
100
AcDbEntity
  8
0
 62
     1
100
AcDbText
 10
189635.668417
 20
1680528.930156
 30
0.0
 40
0.75
  1
14
 41
0.954526
  7
SIMPLEX
100
AcDbAttribute
  2
PONTO
 70
     8
  0
ATTRIB
  5
C9
100
AcDbEntity
  8
0
 62
     4
100
AcDbText
 10
189635.668417
 20
1680529.830156
 30
0.0
 40
0.75
  1
I
 41
0.699986
  7
SIMPLEX
100
AcDbAttribute
  2
DESC
 70
     9
  0
ATTRIB
  5
CA
100
AcDbEntity
  8
0
 62
     2
100
AcDbText
 10
189635.668417
 20
1680527.480156
 30
0.0
 40
0.75
  1

 41
0.699986
  7
SIMPLEX
100
AcDbAttribute
  2
COTA
 70
     9
  0
SEQEND
  5
CB
100
AcDbEntity
  8
0
  0
INSERT
  5
CC
100
AcDbEntity
  8
_TG
 62
     3
100
AcDbBlockReference
 66
     1
  2
SIMB_PONTO
 10
189638.03238
 20
1680522.014612
 30
0.0
  0
ATTRIB
  5
CD
100
AcDbEntity
  8
0
 62
     1
100
AcDbText
 10
189638.38238
 20
1680522.364612
 30
0.0
 40
0.75
  1
15
 41
0.954526
  7
SIMPLEX
100
AcDbAttribute
  2
PONTO
 70
     8
  0
ATTRIB
  5
CE
100
AcDbEntity
  8
0
 62
     4
100
AcDbText
 10
189638.38238
 20
1680523.264612
 30
0.0
 40
0.75
  1
I
 41
0.699986
  7
SIMPLEX
100
AcDbAttribute
  2
DESC
 70
     9
  0
ATTRIB
  5
CF
100
AcDbEntity
  8
0
 62
     2
100
AcDbText
 10
189638.38238
 20
1680520.914612
 30
0.0
 40
0.75
  1

 41
0.699986
  7
SIMPLEX
100
AcDbAttribute
  2
COTA
 70
     9
  0
SEQEND
  5
D0
100
AcDbEntity
  8
0
  0
INSERT
  5
D1
100
AcDbEntity
  8
_TG
 62
     3
100
AcDbBlockReference
 66
     1
  2
SIMB_PONTO
 10
189638.380153
 20
1680519.141807
 30
0.0
  0
ATTRIB
  5
D2
100
AcDbEntity
  8
0
 62
     1
100
AcDbText
 10
189638.730153
 20
1680519.491807
 30
0.0
 40
0.75
  1
16
 41
0.954526
  7
SIMPLEX
100
AcDbAttribute
  2
PONTO
 70
     8
  0
ATTRIB
  5
D3
100
AcDbEntity
  8
0
 62
     4
100
AcDbText
 10
189638.730153
 20
1680520.391807
 30
0.0
 40
0.75
  1
I
 41
0.699986
  7
SIMPLEX
100
AcDbAttribute
  2
DESC
 70
     9
  0
ATTRIB
  5
D4
100
AcDbEntity
  8
0
 62
     2
100
AcDbText
 10
189638.730153
 20
1680518.041807
 30
0.0
 40
0.75
  1

 41
0.699986
  7
SIMPLEX
100
AcDbAttribute
  2
COTA
 70
     9
  0
SEQEND
  5
D5
100
AcDbEntity
  8
0
  0
INSERT
  5
D6
100
AcDbEntity
  8
_TG
 62
     3
100
AcDbBlockReference
 66
     1
  2
SIMB_PONTO
 10
189678.589713
 20
1680493.765067
 30
0.0
  0
ATTRIB
  5
D7
100
AcDbEntity
  8
0
 62
     1
100
AcDbText
 10
189678.939713
 20
1680494.115067
 30
0.0
 40
0.75
  1
17
 41
0.954526
  7
SIMPLEX
100
AcDbAttribute
  2
PONTO
 70
     8
  0
ATTRIB
  5
D8
100
AcDbEntity
  8
0
 62
     4
100
AcDbText
 10
189678.939713
 20
1680495.015067
 30
0.0
 40
0.75
  1
I
 41
0.699986
  7
SIMPLEX
100
AcDbAttribute
  2
DESC
 70
     9
  0
ATTRIB
  5
D9
100
AcDbEntity
  8
0
 62
     2
100
AcDbText
 10
189678.939713
 20
1680492.665067
 30
0.0
 40
0.75
  1

 41
0.699986
  7
SIMPLEX
100
AcDbAttribute
  2
COTA
 70
     9
  0
SEQEND
  5
DA
100
AcDbEntity
  8
0
  0
INSERT
  5
DB
100
AcDbEntity
  8
_TG
 62
     3
100
AcDbBlockReference
 66
     1
  2
SIMB_PONTO
 10
189679.242349
 20
1680495.045357
 30
0.0
  0
ATTRIB
  5
DC
100
AcDbEntity
  8
0
 62
     1
100
AcDbText
 10
189679.592349
 20
1680495.395357
 30
0.0
 40
0.75
  1
18
 41
0.954526
  7
SIMPLEX
100
AcDbAttribute
  2
PONTO
 70
     8
  0
ATTRIB
  5
DD
100
AcDbEntity
  8
0
 62
     4
100
AcDbText
 10
189679.592349
 20
1680496.295357
 30
0.0
 40
0.75
  1
I
 41
0.699986
  7
SIMPLEX
100
AcDbAttribute
  2
DESC
 70
     9
  0
ATTRIB
  5
DE
100
AcDbEntity
  8
0
 62
     2
100
AcDbText
 10
189679.592349
 20
1680493.945357
 30
0.0
 40
0.75
  1

 41
0.699986
  7
SIMPLEX
100
AcDbAttribute
  2
COTA
 70
     9
  0
SEQEND
  5
DF
100
AcDbEntity
  8
0
  0
INSERT
  5
E0
100
AcDbEntity
  8
_TG
 62
     3
100
AcDbBlockReference
 66
     1
  2
SIMB_PONTO
 10
189680.769487
 20
1680495.821262
 30
0.0
  0
ATTRIB
  5
E1
100
AcDbEntity
  8
0
 62
     1
100
AcDbText
 10
189681.119487
 20
1680496.171262
 30
0.0
 40
0.75
  1
19
 41
0.954526
  7
SIMPLEX
100
AcDbAttribute
  2
PONTO
 70
     8
  0
ATTRIB
  5
E2
100
AcDbEntity
  8
0
 62
     4
100
AcDbText
 10
189681.119487
 20
1680497.071262
 30
0.0
 40
0.75
  1
I
 41
0.699986
  7
SIMPLEX
100
AcDbAttribute
  2
DESC
 70
     9
  0
ATTRIB
  5
E3
100
AcDbEntity
  8
0
 62
     2
100
AcDbText
 10
189681.119487
 20
1680494.721262
 30
0.0
 40
0.75
  1

 41
0.699986
  7
SIMPLEX
100
AcDbAttribute
  2
COTA
 70
     9
  0
SEQEND
  5
E4
100
AcDbEntity
  8
0
  0
INSERT
  5
E5
100
AcDbEntity
  8
_TG
 62
     3
100
AcDbBlockReference
 66
     1
  2
SIMB_PONTO
 10
189654.635619
 20
1680481.407675
 30
0.0
  0
ATTRIB
  5
E6
100
AcDbEntity
  8
0
 62
     1
100
AcDbText
 10
189654.985619
 20
1680481.757675
 30
0.0
 40
0.75
  1
2
 41
0.954526
  7
SIMPLEX
100
AcDbAttribute
  2
PONTO
 70
     8
  0
ATTRIB
  5
E7
100
AcDbEntity
  8
0
 62
     4
100
AcDbText
 10
189654.985619
 20
1680482.657675
 30
0.0
 40
0.75
  1
I
 41
0.699986
  7
SIMPLEX
100
AcDbAttribute
  2
DESC
 70
     9
  0
ATTRIB
  5
E8
100
AcDbEntity
  8
0
 62
     2
100
AcDbText
 10
189654.985619
 20
1680480.307675
 30
0.0
 40
0.75
  1

 41
0.699986
  7
SIMPLEX
100
AcDbAttribute
  2
COTA
 70
     9
  0
SEQEND
  5
E9
100
AcDbEntity
  8
0
  0
INSERT
  5
EA
100
AcDbEntity
  8
_TG
 62
     3
100
AcDbBlockReference
 66
     1
  2
SIMB_PONTO
 10
189650.348749
 20
1680524.93969
 30
0.0
  0
ATTRIB
  5
EB
100
AcDbEntity
  8
0
 62
     1
100
AcDbText
 10
189650.698749
 20
1680525.28969
 30
0.0
 40
0.75
  1
20
 41
0.954526
  7
SIMPLEX
100
AcDbAttribute
  2
PONTO
 70
     8
  0
ATTRIB
  5
EC
100
AcDbEntity
  8
0
 62
     4
100
AcDbText
 10
189650.698749
 20
1680526.18969
 30
0.0
 40
0.75
  1
I
 41
0.699986
  7
SIMPLEX
100
AcDbAttribute
  2
DESC
 70
     9
  0
ATTRIB
  5
ED
100
AcDbEntity
  8
0
 62
     2
100
AcDbText
 10
189650.698749
 20
1680523.83969
 30
0.0
 40
0.75
  1

 41
0.699986
  7
SIMPLEX
100
AcDbAttribute
  2
COTA
 70
     9
  0
SEQEND
  5
EE
100
AcDbEntity
  8
0
  0
INSERT
  5
EF
100
AcDbEntity
  8
_TG
 62
     3
100
AcDbBlockReference
 66
     1
  2
SIMB_PONTO
 10
189652.829262
 20
1680529.972193
 30
0.0
  0
ATTRIB
  5
F0
100
AcDbEntity
  8
0
 62
     1
100
AcDbText
 10
189653.179262
 20
1680530.322193
 30
0.0
 40
0.75
  1
21
 41
0.954526
  7
SIMPLEX
100
AcDbAttribute
  2
PONTO
 70
     8
  0
ATTRIB
  5
F1
100
AcDbEntity
  8
0
 62
     4
100
AcDbText
 10
189653.179262
 20
1680531.222193
 30
0.0
 40
0.75
  1
I
 41
0.699986
  7
SIMPLEX
100
AcDbAttribute
  2
DESC
 70
     9
  0
ATTRIB
  5
F2
100
AcDbEntity
  8
0
 62
     2
100
AcDbText
 10
189653.179262
 20
1680528.872193
 30
0.0
 40
0.75
  1

 41
0.699986
  7
SIMPLEX
100
AcDbAttribute
  2
COTA
 70
     9
  0
SEQEND
  5
F3
100
AcDbEntity
  8
0
  0
INSERT
  5
F4
100
AcDbEntity
  8
_TG
 62
     3
100
AcDbBlockReference
 66
     1
  2
SIMB_PONTO
 10
189654.298181
 20
1680528.674289
 30
0.0
  0
ATTRIB
  5
F5
100
AcDbEntity
  8
0
 62
     1
100
AcDbText
 10
189654.648181
 20
1680529.024289
 30
0.0
 40
0.75
  1
22
 41
0.954526
  7
SIMPLEX
100
AcDbAttribute
  2
PONTO
 70
     8
  0
ATTRIB
  5
F6
100
AcDbEntity
  8
0
 62
     4
100
AcDbText
 10
189654.648181
 20
1680529.924289
 30
0.0
 40
0.75
  1
I
 41
0.699986
  7
SIMPLEX
100
AcDbAttribute
  2
DESC
 70
     9
  0
ATTRIB
  5
F7
100
AcDbEntity
  8
0
 62
     2
100
AcDbText
 10
189654.648181
 20
1680527.574289
 30
0.0
 40
0.75
  1

 41
0.699986
  7
SIMPLEX
100
AcDbAttribute
  2
COTA
 70
     9
  0
SEQEND
  5
F8
100
AcDbEntity
  8
0
  0
INSERT
  5
F9
100
AcDbEntity
  8
_TG
 62
     3
100
AcDbBlockReference
 66
     1
  2
SIMB_PONTO
 10
189666.276181
 20
1680530.000237
 30
0.0
  0
ATTRIB
  5
FA
100
AcDbEntity
  8
0
 62
     1
100
AcDbText
 10
189666.626181
 20
1680530.350237
 30
0.0
 40
0.75
  1
23
 41
0.954526
  7
SIMPLEX
100
AcDbAttribute
  2
PONTO
 70
     8
  0
ATTRIB
  5
FB
100
AcDbEntity
  8
0
 62
     4
100
AcDbText
 10
189666.626181
 20
1680531.250237
 30
0.0
 40
0.75
  1
I
 41
0.699986
  7
SIMPLEX
100
AcDbAttribute
  2
DESC
 70
     9
  0
ATTRIB
  5
FC
100
AcDbEntity
  8
0
 62
     2
100
AcDbText
 10
189666.626181
 20
1680528.900237
 30
0.0
 40
0.75
  1

 41
0.699986
  7
SIMPLEX
100
AcDbAttribute
  2
COTA
 70
     9
  0
SEQEND
  5
FD
100
AcDbEntity
  8
0
  0
INSERT
  5
FE
100
AcDbEntity
  8
_TG
 62
     3
100
AcDbBlockReference
 66
     1
  2
SIMB_PONTO
 10
189651.251319
 20
1680396.27266
 30
0.0
  0
ATTRIB
  5
FF
100
AcDbEntity
  8
0
 62
     1
100
AcDbText
 10
189651.601319
 20
1680396.62266
 30
0.0
 40
0.75
  1
24
 41
0.954526
  7
SIMPLEX
100
AcDbAttribute
  2
PONTO
 70
     8
  0
ATTRIB
  5
100
100
AcDbEntity
  8
0
 62
     4
100
AcDbText
 10
189651.601319
 20
1680397.52266
 30
0.0
 40
0.75
  1
I
 41
0.699986
  7
SIMPLEX
100
AcDbAttribute
  2
DESC
 70
     9
  0
ATTRIB
  5
101
100
AcDbEntity
  8
0
 62
     2
100
AcDbText
 10
189651.601319
 20
1680395.17266
 30
0.0
 40
0.75
  1

 41
0.699986
  7
SIMPLEX
100
AcDbAttribute
  2
COTA
 70
     9
  0
SEQEND
  5
102
100
AcDbEntity
  8
0
  0
INSERT
  5
103
100
AcDbEntity
  8
_TG
 62
     3
100
AcDbBlockReference
 66
     1
  2
SIMB_PONTO
 10
189655.081493
 20
1680397.016286
 30
0.0
  0
ATTRIB
  5
104
100
AcDbEntity
  8
0
 62
     1
100
AcDbText
 10
189655.431493
 20
1680397.366286
 30
0.0
 40
0.75
  1
25
 41
0.954526
  7
SIMPLEX
100
AcDbAttribute
  2
PONTO
 70
     8
  0
ATTRIB
  5
105
100
AcDbEntity
  8
0
 62
     4
100
AcDbText
 10
189655.431493
 20
1680398.266286
 30
0.0
 40
0.75
  1
I
 41
0.699986
  7
SIMPLEX
100
AcDbAttribute
  2
DESC
 70
     9
  0
ATTRIB
  5
106
100
AcDbEntity
  8
0
 62
     2
100
AcDbText
 10
189655.431493
 20
1680395.916286
 30
0.0
 40
0.75
  1

 41
0.699986
  7
SIMPLEX
100
AcDbAttribute
  2
COTA
 70
     9
  0
SEQEND
  5
107
100
AcDbEntity
  8
0
  0
INSERT
  5
108
100
AcDbEntity
  8
_TG
 62
     3
100
AcDbBlockReference
 66
     1
  2
SIMB_PONTO
 10
189672.865004
 20
1680395.984394
 30
0.0
  0
ATTRIB
  5
109
100
AcDbEntity
  8
0
 62
     1
100
AcDbText
 10
189673.215004
 20
1680396.334394
 30
0.0
 40
0.75
  1
26
 41
0.954526
  7
SIMPLEX
100
AcDbAttribute
  2
PONTO
 70
     8
  0
ATTRIB
  5
10A
100
AcDbEntity
  8
0
 62
     4
100
AcDbText
 10
189673.215004
 20
1680397.234394
 30
0.0
 40
0.75
  1
I
 41
0.699986
  7
SIMPLEX
100
AcDbAttribute
  2
DESC
 70
     9
  0
ATTRIB
  5
10B
100
AcDbEntity
  8
0
 62
     2
100
AcDbText
 10
189673.215004
 20
1680394.884394
 30
0.0
 40
0.75
  1

 41
0.699986
  7
SIMPLEX
100
AcDbAttribute
  2
COTA
 70
     9
  0
SEQEND
  5
10C
100
AcDbEntity
  8
0
  0
INSERT
  5
10D
100
AcDbEntity
  8
_TG
 62
     3
100
AcDbBlockReference
 66
     1
  2
SIMB_PONTO
 10
189680.432253
 20
1680399.053834
 30
0.0
  0
ATTRIB
  5
10E
100
AcDbEntity
  8
0
 62
     1
100
AcDbText
 10
189680.782253
 20
1680399.403834
 30
0.0
 40
0.75
  1
27
 41
0.954526
  7
SIMPLEX
100
AcDbAttribute
  2
PONTO
 70
     8
  0
ATTRIB
  5
10F
100
AcDbEntity
  8
0
 62
     4
100
AcDbText
 10
189680.782253
 20
1680400.303834
 30
0.0
 40
0.75
  1
I
 41
0.699986
  7
SIMPLEX
100
AcDbAttribute
  2
DESC
 70
     9
  0
ATTRIB
  5
110
100
AcDbEntity
  8
0
 62
     2
100
AcDbText
 10
189680.782253
 20
1680397.953834
 30
0.0
 40
0.75
  1

 41
0.699986
  7
SIMPLEX
100
AcDbAttribute
  2
COTA
 70
     9
  0
SEQEND
  5
111
100
AcDbEntity
  8
0
  0
INSERT
  5
112
100
AcDbEntity
  8
_TG
 62
     3
100
AcDbBlockReference
 66
     1
  2
SIMB_PONTO
 10
189650.648948
 20
1680380.030186
 30
0.0
  0
ATTRIB
  5
113
100
AcDbEntity
  8
0
 62
     1
100
AcDbText
 10
189650.998948
 20
1680380.380186
 30
0.0
 40
0.75
  1
28
 41
0.954526
  7
SIMPLEX
100
AcDbAttribute
  2
PONTO
 70
     8
  0
ATTRIB
  5
114
100
AcDbEntity
  8
0
 62
     4
100
AcDbText
 10
189650.998948
 20
1680381.280186
 30
0.0
 40
0.75
  1
I
 41
0.699986
  7
SIMPLEX
100
AcDbAttribute
  2
DESC
 70
     9
  0
ATTRIB
  5
115
100
AcDbEntity
  8
0
 62
     2
100
AcDbText
 10
189650.998948
 20
1680378.930186
 30
0.0
 40
0.75
  1

 41
0.699986
  7
SIMPLEX
100
AcDbAttribute
  2
COTA
 70
     9
  0
SEQEND
  5
116
100
AcDbEntity
  8
0
  0
INSERT
  5
117
100
AcDbEntity
  8
_TG
 62
     3
100
AcDbBlockReference
 66
     1
  2
SIMB_PONTO
 10
189651.234959
 20
1680380.77489
 30
0.0
  0
ATTRIB
  5
118
100
AcDbEntity
  8
0
 62
     1
100
AcDbText
 10
189651.584959
 20
1680381.12489
 30
0.0
 40
0.75
  1
29
 41
0.954526
  7
SIMPLEX
100
AcDbAttribute
  2
PONTO
 70
     8
  0
ATTRIB
  5
119
100
AcDbEntity
  8
0
 62
     4
100
AcDbText
 10
189651.584959
 20
1680382.02489
 30
0.0
 40
0.75
  1
I
 41
0.699986
  7
SIMPLEX
100
AcDbAttribute
  2
DESC
 70
     9
  0
ATTRIB
  5
11A
100
AcDbEntity
  8
0
 62
     2
100
AcDbText
 10
189651.584959
 20
1680379.67489
 30
0.0
 40
0.75
  1

 41
0.699986
  7
SIMPLEX
100
AcDbAttribute
  2
COTA
 70
     9
  0
SEQEND
  5
11B
100
AcDbEntity
  8
0
  0
INSERT
  5
11C
100
AcDbEntity
  8
_TG
 62
     3
100
AcDbBlockReference
 66
     1
  2
SIMB_PONTO
 10
189671.885855
 20
1680481.378531
 30
0.0
  0
ATTRIB
  5
11D
100
AcDbEntity
  8
0
 62
     1
100
AcDbText
 10
189672.235855
 20
1680481.728531
 30
0.0
 40
0.75
  1
3
 41
0.954526
  7
SIMPLEX
100
AcDbAttribute
  2
PONTO
 70
     8
  0
ATTRIB
  5
11E
100
AcDbEntity
  8
0
 62
     4
100
AcDbText
 10
189672.235855
 20
1680482.628531
 30
0.0
 40
0.75
  1
I
 41
0.699986
  7
SIMPLEX
100
AcDbAttribute
  2
DESC
 70
     9
  0
ATTRIB
  5
11F
100
AcDbEntity
  8
0
 62
     2
100
AcDbText
 10
189672.235855
 20
1680480.278531
 30
0.0
 40
0.75
  1

 41
0.699986
  7
SIMPLEX
100
AcDbAttribute
  2
COTA
 70
     9
  0
SEQEND
  5
120
100
AcDbEntity
  8
0
  0
INSERT
  5
121
100
AcDbEntity
  8
_TG
 62
     3
100
AcDbBlockReference
 66
     1
  2
SIMB_PONTO
 10
189633.802927
 20
1680379.926617
 30
0.0
  0
ATTRIB
  5
122
100
AcDbEntity
  8
0
 62
     1
100
AcDbText
 10
189634.152927
 20
1680380.276617
 30
0.0
 40
0.75
  1
30
 41
0.954526
  7
SIMPLEX
100
AcDbAttribute
  2
PONTO
 70
     8
  0
ATTRIB
  5
123
100
AcDbEntity
  8
0
 62
     4
100
AcDbText
 10
189634.152927
 20
1680381.176617
 30
0.0
 40
0.75
  1
I
 41
0.699986
  7
SIMPLEX
100
AcDbAttribute
  2
DESC
 70
     9
  0
ATTRIB
  5
124
100
AcDbEntity
  8
0
 62
     2
100
AcDbText
 10
189634.152927
 20
1680378.826617
 30
0.0
 40
0.75
  1

 41
0.699986
  7
SIMPLEX
100
AcDbAttribute
  2
COTA
 70
     9
  0
SEQEND
  5
125
100
AcDbEntity
  8
0
  0
INSERT
  5
126
100
AcDbEntity
  8
_TG
 62
     3
100
AcDbBlockReference
 66
     1
  2
SIMB_PONTO
 10
189633.620948
 20
1680376.061584
 30
0.0
  0
ATTRIB
  5
127
100
AcDbEntity
  8
0
 62
     1
100
AcDbText
 10
189633.970948
 20
1680376.411584
 30
0.0
 40
0.75
  1
31
 41
0.954526
  7
SIMPLEX
100
AcDbAttribute
  2
PONTO
 70
     8
  0
ATTRIB
  5
128
100
AcDbEntity
  8
0
 62
     4
100
AcDbText
 10
189633.970948
 20
1680377.311584
 30
0.0
 40
0.75
  1
I
 41
0.699986
  7
SIMPLEX
100
AcDbAttribute
  2
DESC
 70
     9
  0
ATTRIB
  5
129
100
AcDbEntity
  8
0
 62
     2
100
AcDbText
 10
189633.970948
 20
1680374.961584
 30
0.0
 40
0.75
  1

 41
0.699986
  7
SIMPLEX
100
AcDbAttribute
  2
COTA
 70
     9
  0
SEQEND
  5
12A
100
AcDbEntity
  8
0
  0
INSERT
  5
12B
100
AcDbEntity
  8
_TG
 62
     3
100
AcDbBlockReference
 66
     1
  2
SIMB_PONTO
 10
189655.097658
 20
1680380.744089
 30
0.0
  0
ATTRIB
  5
12C
100
AcDbEntity
  8
0
 62
     1
100
AcDbText
 10
189655.447658
 20
1680381.094089
 30
0.0
 40
0.75
  1
32
 41
0.954526
  7
SIMPLEX
100
AcDbAttribute
  2
PONTO
 70
     8
  0
ATTRIB
  5
12D
100
AcDbEntity
  8
0
 62
     4
100
AcDbText
 10
189655.447658
 20
1680381.994089
 30
0.0
 40
0.75
  1
I
 41
0.699986
  7
SIMPLEX
100
AcDbAttribute
  2
DESC
 70
     9
  0
ATTRIB
  5
12E
100
AcDbEntity
  8
0
 62
     2
100
AcDbText
 10
189655.447658
 20
1680379.644089
 30
0.0
 40
0.75
  1

 41
0.699986
  7
SIMPLEX
100
AcDbAttribute
  2
COTA
 70
     9
  0
SEQEND
  5
12F
100
AcDbEntity
  8
0
  0
INSERT
  5
130
100
AcDbEntity
  8
_TG
 62
     3
100
AcDbBlockReference
 66
     1
  2
SIMB_PONTO
 10
189654.901704
 20
1680377.919144
 30
0.0
  0
ATTRIB
  5
131
100
AcDbEntity
  8
0
 62
     1
100
AcDbText
 10
189655.251704
 20
1680378.269144
 30
0.0
 40
0.75
  1
33
 41
0.954526
  7
SIMPLEX
100
AcDbAttribute
  2
PONTO
 70
     8
  0
ATTRIB
  5
132
100
AcDbEntity
  8
0
 62
     4
100
AcDbText
 10
189655.251704
 20
1680379.169144
 30
0.0
 40
0.75
  1
I
 41
0.699986
  7
SIMPLEX
100
AcDbAttribute
  2
DESC
 70
     9
  0
ATTRIB
  5
133
100
AcDbEntity
  8
0
 62
     2
100
AcDbText
 10
189655.251704
 20
1680376.819144
 30
0.0
 40
0.75
  1

 41
0.699986
  7
SIMPLEX
100
AcDbAttribute
  2
COTA
 70
     9
  0
SEQEND
  5
134
100
AcDbEntity
  8
0
  0
INSERT
  5
135
100
AcDbEntity
  8
_TG
 62
     3
100
AcDbBlockReference
 66
     1
  2
SIMB_PONTO
 10
189652.64976
 20
1680376.095072
 30
0.0
  0
ATTRIB
  5
136
100
AcDbEntity
  8
0
 62
     1
100
AcDbText
 10
189652.99976
 20
1680376.445072
 30
0.0
 40
0.75
  1
34
 41
0.954526
  7
SIMPLEX
100
AcDbAttribute
  2
PONTO
 70
     8
  0
ATTRIB
  5
137
100
AcDbEntity
  8
0
 62
     4
100
AcDbText
 10
189652.99976
 20
1680377.345072
 30
0.0
 40
0.75
  1
I
 41
0.699986
  7
SIMPLEX
100
AcDbAttribute
  2
DESC
 70
     9
  0
ATTRIB
  5
138
100
AcDbEntity
  8
0
 62
     2
100
AcDbText
 10
189652.99976
 20
1680374.995072
 30
0.0
 40
0.75
  1

 41
0.699986
  7
SIMPLEX
100
AcDbAttribute
  2
COTA
 70
     9
  0
SEQEND
  5
139
100
AcDbEntity
  8
0
  0
INSERT
  5
13A
100
AcDbEntity
  8
_TG
 62
     3
100
AcDbBlockReference
 66
     1
  2
SIMB_PONTO
 10
189633.842698
 20
1680365.536689
 30
0.0
  0
ATTRIB
  5
13B
100
AcDbEntity
  8
0
 62
     1
100
AcDbText
 10
189634.192698
 20
1680365.886689
 30
0.0
 40
0.75
  1
35
 41
0.954526
  7
SIMPLEX
100
AcDbAttribute
  2
PONTO
 70
     8
  0
ATTRIB
  5
13C
100
AcDbEntity
  8
0
 62
     4
100
AcDbText
 10
189634.192698
 20
1680366.786689
 30
0.0
 40
0.75
  1
I
 41
0.699986
  7
SIMPLEX
100
AcDbAttribute
  2
DESC
 70
     9
  0
ATTRIB
  5
13D
100
AcDbEntity
  8
0
 62
     2
100
AcDbText
 10
189634.192698
 20
1680364.436689
 30
0.0
 40
0.75
  1

 41
0.699986
  7
SIMPLEX
100
AcDbAttribute
  2
COTA
 70
     9
  0
SEQEND
  5
13E
100
AcDbEntity
  8
0
  0
INSERT
  5
13F
100
AcDbEntity
  8
_TG
 62
     3
100
AcDbBlockReference
 66
     1
  2
SIMB_PONTO
 10
189633.777503
 20
1680357.977011
 30
0.0
  0
ATTRIB
  5
140
100
AcDbEntity
  8
0
 62
     1
100
AcDbText
 10
189634.127503
 20
1680358.327011
 30
0.0
 40
0.75
  1
36
 41
0.954526
  7
SIMPLEX
100
AcDbAttribute
  2
PONTO
 70
     8
  0
ATTRIB
  5
141
100
AcDbEntity
  8
0
 62
     4
100
AcDbText
 10
189634.127503
 20
1680359.227011
 30
0.0
 40
0.75
  1
I
 41
0.699986
  7
SIMPLEX
100
AcDbAttribute
  2
DESC
 70
     9
  0
ATTRIB
  5
142
100
AcDbEntity
  8
0
 62
     2
100
AcDbText
 10
189634.127503
 20
1680356.877011
 30
0.0
 40
0.75
  1

 41
0.699986
  7
SIMPLEX
100
AcDbAttribute
  2
COTA
 70
     9
  0
SEQEND
  5
143
100
AcDbEntity
  8
0
  0
INSERT
  5
144
100
AcDbEntity
  8
_TG
 62
     3
100
AcDbBlockReference
 66
     1
  2
SIMB_PONTO
 10
189652.410353
 20
1680365.436195
 30
0.0
  0
ATTRIB
  5
145
100
AcDbEntity
  8
0
 62
     1
100
AcDbText
 10
189652.760353
 20
1680365.786195
 30
0.0
 40
0.75
  1
37
 41
0.954526
  7
SIMPLEX
100
AcDbAttribute
  2
PONTO
 70
     8
  0
ATTRIB
  5
146
100
AcDbEntity
  8
0
 62
     4
100
AcDbText
 10
189652.760353
 20
1680366.686195
 30
0.0
 40
0.75
  1
I
 41
0.699986
  7
SIMPLEX
100
AcDbAttribute
  2
DESC
 70
     9
  0
ATTRIB
  5
147
100
AcDbEntity
  8
0
 62
     2
100
AcDbText
 10
189652.760353
 20
1680364.336195
 30
0.0
 40
0.75
  1

 41
0.699986
  7
SIMPLEX
100
AcDbAttribute
  2
COTA
 70
     9
  0
SEQEND
  5
148
100
AcDbEntity
  8
0
  0
INSERT
  5
149
100
AcDbEntity
  8
_TG
 62
     3
100
AcDbBlockReference
 66
     1
  2
SIMB_PONTO
 10
189652.069448
 20
1680357.991122
 30
0.0
  0
ATTRIB
  5
14A
100
AcDbEntity
  8
0
 62
     1
100
AcDbText
 10
189652.419448
 20
1680358.341122
 30
0.0
 40
0.75
  1
38
 41
0.954526
  7
SIMPLEX
100
AcDbAttribute
  2
PONTO
 70
     8
  0
ATTRIB
  5
14B
100
AcDbEntity
  8
0
 62
     4
100
AcDbText
 10
189652.419448
 20
1680359.241122
 30
0.0
 40
0.75
  1
I
 41
0.699986
  7
SIMPLEX
100
AcDbAttribute
  2
DESC
 70
     9
  0
ATTRIB
  5
14C
100
AcDbEntity
  8
0
 62
     2
100
AcDbText
 10
189652.419448
 20
1680356.891122
 30
0.0
 40
0.75
  1

 41
0.699986
  7
SIMPLEX
100
AcDbAttribute
  2
COTA
 70
     9
  0
SEQEND
  5
14D
100
AcDbEntity
  8
0
  0
INSERT
  5
14E
100
AcDbEntity
  8
_TG
 62
     3
100
AcDbBlockReference
 66
     1
  2
SIMB_PONTO
 10
189633.922821
 20
1680347.526052
 30
0.0
  0
ATTRIB
  5
14F
100
AcDbEntity
  8
0
 62
     1
100
AcDbText
 10
189634.272821
 20
1680347.876052
 30
0.0
 40
0.75
  1
39
 41
0.954526
  7
SIMPLEX
100
AcDbAttribute
  2
PONTO
 70
     8
  0
ATTRIB
  5
150
100
AcDbEntity
  8
0
 62
     4
100
AcDbText
 10
189634.272821
 20
1680348.776052
 30
0.0
 40
0.75
  1
I
 41
0.699986
  7
SIMPLEX
100
AcDbAttribute
  2
DESC
 70
     9
  0
ATTRIB
  5
151
100
AcDbEntity
  8
0
 62
     2
100
AcDbText
 10
189634.272821
 20
1680346.426052
 30
0.0
 40
0.75
  1

 41
0.699986
  7
SIMPLEX
100
AcDbAttribute
  2
COTA
 70
     9
  0
SEQEND
  5
152
100
AcDbEntity
  8
0
  0
INSERT
  5
153
100
AcDbEntity
  8
_TG
 62
     3
100
AcDbBlockReference
 66
     1
  2
SIMB_PONTO
 10
189678.807299
 20
1680481.607006
 30
0.0
  0
ATTRIB
  5
154
100
AcDbEntity
  8
0
 62
     1
100
AcDbText
 10
189679.157299
 20
1680481.957006
 30
0.0
 40
0.75
  1
4
 41
0.954526
  7
SIMPLEX
100
AcDbAttribute
  2
PONTO
 70
     8
  0
ATTRIB
  5
155
100
AcDbEntity
  8
0
 62
     4
100
AcDbText
 10
189679.157299
 20
1680482.857006
 30
0.0
 40
0.75
  1
I
 41
0.699986
  7
SIMPLEX
100
AcDbAttribute
  2
DESC
 70
     9
  0
ATTRIB
  5
156
100
AcDbEntity
  8
0
 62
     2
100
AcDbText
 10
189679.157299
 20
1680480.507006
 30
0.0
 40
0.75
  1

 41
0.699986
  7
SIMPLEX
100
AcDbAttribute
  2
COTA
 70
     9
  0
SEQEND
  5
157
100
AcDbEntity
  8
0
  0
INSERT
  5
158
100
AcDbEntity
  8
_TG
 62
     3
100
AcDbBlockReference
 66
     1
  2
SIMB_PONTO
 10
189638.809854
 20
1680343.632098
 30
0.0
  0
ATTRIB
  5
159
100
AcDbEntity
  8
0
 62
     1
100
AcDbText
 10
189639.159854
 20
1680343.982098
 30
0.0
 40
0.75
  1
40
 41
0.954526
  7
SIMPLEX
100
AcDbAttribute
  2
PONTO
 70
     8
  0
ATTRIB
  5
15A
100
AcDbEntity
  8
0
 62
     4
100
AcDbText
 10
189639.159854
 20
1680344.882098
 30
0.0
 40
0.75
  1
I
 41
0.699986
  7
SIMPLEX
100
AcDbAttribute
  2
DESC
 70
     9
  0
ATTRIB
  5
15B
100
AcDbEntity
  8
0
 62
     2
100
AcDbText
 10
189639.159854
 20
1680342.532098
 30
0.0
 40
0.75
  1

 41
0.699986
  7
SIMPLEX
100
AcDbAttribute
  2
COTA
 70
     9
  0
SEQEND
  5
15C
100
AcDbEntity
  8
0
  0
INSERT
  5
15D
100
AcDbEntity
  8
_TG
 62
     3
100
AcDbBlockReference
 66
     1
  2
SIMB_PONTO
 10
189651.710418
 20
1680343.615005
 30
0.0
  0
ATTRIB
  5
15E
100
AcDbEntity
  8
0
 62
     1
100
AcDbText
 10
189652.060418
 20
1680343.965005
 30
0.0
 40
0.75
  1
41
 41
0.954526
  7
SIMPLEX
100
AcDbAttribute
  2
PONTO
 70
     8
  0
ATTRIB
  5
15F
100
AcDbEntity
  8
0
 62
     4
100
AcDbText
 10
189652.060418
 20
1680344.865005
 30
0.0
 40
0.75
  1
I
 41
0.699986
  7
SIMPLEX
100
AcDbAttribute
  2
DESC
 70
     9
  0
ATTRIB
  5
160
100
AcDbEntity
  8
0
 62
     2
100
AcDbText
 10
189652.060418
 20
1680342.515005
 30
0.0
 40
0.75
  1

 41
0.699986
  7
SIMPLEX
100
AcDbAttribute
  2
COTA
 70
     9
  0
SEQEND
  5
161
100
AcDbEntity
  8
0
  0
INSERT
  5
162
100
AcDbEntity
  8
_TG
 62
     3
100
AcDbBlockReference
 66
     1
  2
SIMB_PONTO
 10
189650.968676
 20
1680343.583552
 30
0.0
  0
ATTRIB
  5
163
100
AcDbEntity
  8
0
 62
     1
100
AcDbText
 10
189651.318676
 20
1680343.933552
 30
0.0
 40
0.75
  1
42
 41
0.954526
  7
SIMPLEX
100
AcDbAttribute
  2
PONTO
 70
     8
  0
ATTRIB
  5
164
100
AcDbEntity
  8
0
 62
     4
100
AcDbText
 10
189651.318676
 20
1680344.833552
 30
0.0
 40
0.75
  1
I
 41
0.699986
  7
SIMPLEX
100
AcDbAttribute
  2
DESC
 70
     9
  0
ATTRIB
  5
165
100
AcDbEntity
  8
0
 62
     2
100
AcDbText
 10
189651.318676
 20
1680342.483552
 30
0.0
 40
0.75
  1

 41
0.699986
  7
SIMPLEX
100
AcDbAttribute
  2
COTA
 70
     9
  0
SEQEND
  5
166
100
AcDbEntity
  8
0
  0
INSERT
  5
167
100
AcDbEntity
  8
_TG
 62
     3
100
AcDbBlockReference
 66
     1
  2
SIMB_PONTO
 10
189655.440823
 20
1680345.172173
 30
0.0
  0
ATTRIB
  5
168
100
AcDbEntity
  8
0
 62
     1
100
AcDbText
 10
189655.790823
 20
1680345.522173
 30
0.0
 40
0.75
  1
43
 41
0.954526
  7
SIMPLEX
100
AcDbAttribute
  2
PONTO
 70
     8
  0
ATTRIB
  5
169
100
AcDbEntity
  8
0
 62
     4
100
AcDbText
 10
189655.790823
 20
1680346.422173
 30
0.0
 40
0.75
  1
I
 41
0.699986
  7
SIMPLEX
100
AcDbAttribute
  2
DESC
 70
     9
  0
ATTRIB
  5
16A
100
AcDbEntity
  8
0
 62
     2
100
AcDbText
 10
189655.790823
 20
1680344.072173
 30
0.0
 40
0.75
  1

 41
0.699986
  7
SIMPLEX
100
AcDbAttribute
  2
COTA
 70
     9
  0
SEQEND
  5
16B
100
AcDbEntity
  8
0
  0
INSERT
  5
16C
100
AcDbEntity
  8
_TG
 62
     3
100
AcDbBlockReference
 66
     1
  2
SIMB_PONTO
 10
189653.265727
 20
1680347.432439
 30
0.0
  0
ATTRIB
  5
16D
100
AcDbEntity
  8
0
 62
     1
100
AcDbText
 10
189653.615727
 20
1680347.782439
 30
0.0
 40
0.75
  1
44
 41
0.954526
  7
SIMPLEX
100
AcDbAttribute
  2
PONTO
 70
     8
  0
ATTRIB
  5
16E
100
AcDbEntity
  8
0
 62
     4
100
AcDbText
 10
189653.615727
 20
1680348.682439
 30
0.0
 40
0.75
  1
I
 41
0.699986
  7
SIMPLEX
100
AcDbAttribute
  2
DESC
 70
     9
  0
ATTRIB
  5
16F
100
AcDbEntity
  8
0
 62
     2
100
AcDbText
 10
189653.615727
 20
1680346.332439
 30
0.0
 40
0.75
  1

 41
0.699986
  7
SIMPLEX
100
AcDbAttribute
  2
COTA
 70
     9
  0
SEQEND
  5
170
100
AcDbEntity
  8
0
  0
INSERT
  5
171
100
AcDbEntity
  8
_TG
 62
     3
100
AcDbBlockReference
 66
     1
  2
SIMB_PONTO
 10
189651.595147
 20
1680347.491422
 30
0.0
  0
ATTRIB
  5
172
100
AcDbEntity
  8
0
 62
     1
100
AcDbText
 10
189651.945147
 20
1680347.841422
 30
0.0
 40
0.75
  1
45
 41
0.954526
  7
SIMPLEX
100
AcDbAttribute
  2
PONTO
 70
     8
  0
ATTRIB
  5
173
100
AcDbEntity
  8
0
 62
     4
100
AcDbText
 10
189651.945147
 20
1680348.741422
 30
0.0
 40
0.75
  1
I
 41
0.699986
  7
SIMPLEX
100
AcDbAttribute
  2
DESC
 70
     9
  0
ATTRIB
  5
174
100
AcDbEntity
  8
0
 62
     2
100
AcDbText
 10
189651.945147
 20
1680346.391422
 30
0.0
 40
0.75
  1

 41
0.699986
  7
SIMPLEX
100
AcDbAttribute
  2
COTA
 70
     9
  0
SEQEND
  5
175
100
AcDbEntity
  8
0
  0
INSERT
  5
176
100
AcDbEntity
  8
_TG
 62
     3
100
AcDbBlockReference
 66
     1
  2
SIMB_PONTO
 10
189651.748046
 20
1680333.851976
 30
0.0
  0
ATTRIB
  5
177
100
AcDbEntity
  8
0
 62
     1
100
AcDbText
 10
189652.098046
 20
1680334.201976
 30
0.0
 40
0.75
  1
46
 41
0.954526
  7
SIMPLEX
100
AcDbAttribute
  2
PONTO
 70
     8
  0
ATTRIB
  5
178
100
AcDbEntity
  8
0
 62
     4
100
AcDbText
 10
189652.098046
 20
1680335.101976
 30
0.0
 40
0.75
  1
I
 41
0.699986
  7
SIMPLEX
100
AcDbAttribute
  2
DESC
 70
     9
  0
ATTRIB
  5
179
100
AcDbEntity
  8
0
 62
     2
100
AcDbText
 10
189652.098046
 20
1680332.751976
 30
0.0
 40
0.75
  1

 41
0.699986
  7
SIMPLEX
100
AcDbAttribute
  2
COTA
 70
     9
  0
SEQEND
  5
17A
100
AcDbEntity
  8
0
  0
INSERT
  5
17B
100
AcDbEntity
  8
_TG
 62
     3
100
AcDbBlockReference
 66
     1
  2
SIMB_PONTO
 10
189655.350347
 20
1680333.756636
 30
0.0
  0
ATTRIB
  5
17C
100
AcDbEntity
  8
0
 62
     1
100
AcDbText
 10
189655.700347
 20
1680334.106636
 30
0.0
 40
0.75
  1
47
 41
0.954526
  7
SIMPLEX
100
AcDbAttribute
  2
PONTO
 70
     8
  0
ATTRIB
  5
17D
100
AcDbEntity
  8
0
 62
     4
100
AcDbText
 10
189655.700347
 20
1680335.006636
 30
0.0
 40
0.75
  1
I
 41
0.699986
  7
SIMPLEX
100
AcDbAttribute
  2
DESC
 70
     9
  0
ATTRIB
  5
17E
100
AcDbEntity
  8
0
 62
     2
100
AcDbText
 10
189655.700347
 20
1680332.656636
 30
0.0
 40
0.75
  1

 41
0.699986
  7
SIMPLEX
100
AcDbAttribute
  2
COTA
 70
     9
  0
SEQEND
  5
17F
100
AcDbEntity
  8
0
  0
INSERT
  5
180
100
AcDbEntity
  8
_TG
 62
     3
100
AcDbBlockReference
 66
     1
  2
SIMB_PONTO
 10
189672.101564
 20
1680332.259299
 30
0.0
  0
ATTRIB
  5
181
100
AcDbEntity
  8
0
 62
     1
100
AcDbText
 10
189672.451564
 20
1680332.609299
 30
0.0
 40
0.75
  1
48
 41
0.954526
  7
SIMPLEX
100
AcDbAttribute
  2
PONTO
 70
     8
  0
ATTRIB
  5
182
100
AcDbEntity
  8
0
 62
     4
100
AcDbText
 10
189672.451564
 20
1680333.509299
 30
0.0
 40
0.75
  1
I
 41
0.699986
  7
SIMPLEX
100
AcDbAttribute
  2
DESC
 70
     9
  0
ATTRIB
  5
183
100
AcDbEntity
  8
0
 62
     2
100
AcDbText
 10
189672.451564
 20
1680331.159299
 30
0.0
 40
0.75
  1

 41
0.699986
  7
SIMPLEX
100
AcDbAttribute
  2
COTA
 70
     9
  0
SEQEND
  5
184
100
AcDbEntity
  8
0
  0
INSERT
  5
185
100
AcDbEntity
  8
_TG
 62
     3
100
AcDbBlockReference
 66
     1
  2
SIMB_PONTO
 10
189680.7046
 20
1680331.213709
 30
0.0
  0
ATTRIB
  5
186
100
AcDbEntity
  8
0
 62
     1
100
AcDbText
 10
189681.0546
 20
1680331.563709
 30
0.0
 40
0.75
  1
49
 41
0.954526
  7
SIMPLEX
100
AcDbAttribute
  2
PONTO
 70
     8
  0
ATTRIB
  5
187
100
AcDbEntity
  8
0
 62
     4
100
AcDbText
 10
189681.0546
 20
1680332.463709
 30
0.0
 40
0.75
  1
I
 41
0.699986
  7
SIMPLEX
100
AcDbAttribute
  2
DESC
 70
     9
  0
ATTRIB
  5
188
100
AcDbEntity
  8
0
 62
     2
100
AcDbText
 10
189681.0546
 20
1680330.113709
 30
0.0
 40
0.75
  1

 41
0.699986
  7
SIMPLEX
100
AcDbAttribute
  2
COTA
 70
     9
  0
SEQEND
  5
189
100
AcDbEntity
  8
0
  0
INSERT
  5
18A
100
AcDbEntity
  8
_TG
 62
     3
100
AcDbBlockReference
 66
     1
  2
SIMB_PONTO
 10
189663.8797
 20
1680564.7225
 30
0.0
  0
ATTRIB
  5
18B
100
AcDbEntity
  8
0
 62
     1
100
AcDbText
 10
189664.2297
 20
1680565.0725
 30
0.0
 40
0.75
  1
5
 41
0.954526
  7
SIMPLEX
100
AcDbAttribute
  2
PONTO
 70
     8
  0
ATTRIB
  5
18C
100
AcDbEntity
  8
0
 62
     4
100
AcDbText
 10
189664.2297
 20
1680565.9725
 30
0.0
 40
0.75
  1
I
 41
0.699986
  7
SIMPLEX
100
AcDbAttribute
  2
DESC
 70
     9
  0
ATTRIB
  5
18D
100
AcDbEntity
  8
0
 62
     2
100
AcDbText
 10
189664.2297
 20
1680563.6225
 30
0.0
 40
0.75
  1

 41
0.699986
  7
SIMPLEX
100
AcDbAttribute
  2
COTA
 70
     9
  0
SEQEND
  5
18E
100
AcDbEntity
  8
0
  0
INSERT
  5
18F
100
AcDbEntity
  8
_TG
 62
     3
100
AcDbBlockReference
 66
     1
  2
SIMB_PONTO
 10
189680.545366
 20
1680360.714827
 30
0.0
  0
ATTRIB
  5
190
100
AcDbEntity
  8
0
 62
     1
100
AcDbText
 10
189680.895366
 20
1680361.064827
 30
0.0
 40
0.75
  1
50
 41
0.954526
  7
SIMPLEX
100
AcDbAttribute
  2
PONTO
 70
     8
  0
ATTRIB
  5
191
100
AcDbEntity
  8
0
 62
     4
100
AcDbText
 10
189680.895366
 20
1680361.964827
 30
0.0
 40
0.75
  1
I
 41
0.699986
  7
SIMPLEX
100
AcDbAttribute
  2
DESC
 70
     9
  0
ATTRIB
  5
192
100
AcDbEntity
  8
0
 62
     2
100
AcDbText
 10
189680.895366
 20
1680359.614827
 30
0.0
 40
0.75
  1

 41
0.699986
  7
SIMPLEX
100
AcDbAttribute
  2
COTA
 70
     9
  0
SEQEND
  5
193
100
AcDbEntity
  8
0
  0
INSERT
  5
194
100
AcDbEntity
  8
_TG
 62
     3
100
AcDbBlockReference
 66
     1
  2
SIMB_PONTO
 10
189682.682369
 20
1680362.074875
 30
0.0
  0
ATTRIB
  5
195
100
AcDbEntity
  8
0
 62
     1
100
AcDbText
 10
189683.032369
 20
1680362.424875
 30
0.0
 40
0.75
  1
51
 41
0.954526
  7
SIMPLEX
100
AcDbAttribute
  2
PONTO
 70
     8
  0
ATTRIB
  5
196
100
AcDbEntity
  8
0
 62
     4
100
AcDbText
 10
189683.032369
 20
1680363.324875
 30
0.0
 40
0.75
  1
I
 41
0.699986
  7
SIMPLEX
100
AcDbAttribute
  2
DESC
 70
     9
  0
ATTRIB
  5
197
100
AcDbEntity
  8
0
 62
     2
100
AcDbText
 10
189683.032369
 20
1680360.974875
 30
0.0
 40
0.75
  1

 41
0.699986
  7
SIMPLEX
100
AcDbAttribute
  2
COTA
 70
     9
  0
SEQEND
  5
198
100
AcDbEntity
  8
0
  0
INSERT
  5
199
100
AcDbEntity
  8
_TG
 62
     3
100
AcDbBlockReference
 66
     1
  2
SIMB_PONTO
 10
189683.888802
 20
1680368.030841
 30
0.0
  0
ATTRIB
  5
19A
100
AcDbEntity
  8
0
 62
     1
100
AcDbText
 10
189684.238802
 20
1680368.380841
 30
0.0
 40
0.75
  1
52
 41
0.954526
  7
SIMPLEX
100
AcDbAttribute
  2
PONTO
 70
     8
  0
ATTRIB
  5
19B
100
AcDbEntity
  8
0
 62
     4
100
AcDbText
 10
189684.238802
 20
1680369.280841
 30
0.0
 40
0.75
  1
I
 41
0.699986
  7
SIMPLEX
100
AcDbAttribute
  2
DESC
 70
     9
  0
ATTRIB
  5
19C
100
AcDbEntity
  8
0
 62
     2
100
AcDbText
 10
189684.238802
 20
1680366.930841
 30
0.0
 40
0.75
  1

 41
0.699986
  7
SIMPLEX
100
AcDbAttribute
  2
COTA
 70
     9
  0
SEQEND
  5
19D
100
AcDbEntity
  8
0
  0
INSERT
  5
19E
100
AcDbEntity
  8
_TG
 62
     3
100
AcDbBlockReference
 66
     1
  2
SIMB_PONTO
 10
189680.510207
 20
1680371.012369
 30
0.0
  0
ATTRIB
  5
19F
100
AcDbEntity
  8
0
 62
     1
100
AcDbText
 10
189680.860207
 20
1680371.362369
 30
0.0
 40
0.75
  1
53
 41
0.954526
  7
SIMPLEX
100
AcDbAttribute
  2
PONTO
 70
     8
  0
ATTRIB
  5
1A0
100
AcDbEntity
  8
0
 62
     4
100
AcDbText
 10
189680.860207
 20
1680372.262369
 30
0.0
 40
0.75
  1
I
 41
0.699986
  7
SIMPLEX
100
AcDbAttribute
  2
DESC
 70
     9
  0
ATTRIB
  5
1A1
100
AcDbEntity
  8
0
 62
     2
100
AcDbText
 10
189680.860207
 20
1680369.912369
 30
0.0
 40
0.75
  1

 41
0.699986
  7
SIMPLEX
100
AcDbAttribute
  2
COTA
 70
     9
  0
SEQEND
  5
1A2
100
AcDbEntity
  8
0
  0
INSERT
  5
1A3
100
AcDbEntity
  8
_TG
 62
     3
100
AcDbBlockReference
 66
     1
  2
SIMB_PONTO
 10
189684.118697
 20
1680308.837068
 30
0.0
  0
ATTRIB
  5
1A4
100
AcDbEntity
  8
0
 62
     1
100
AcDbText
 10
189684.468697
 20
1680309.187068
 30
0.0
 40
0.75
  1
54
 41
0.954526
  7
SIMPLEX
100
AcDbAttribute
  2
PONTO
 70
     8
  0
ATTRIB
  5
1A5
100
AcDbEntity
  8
0
 62
     4
100
AcDbText
 10
189684.468697
 20
1680310.087068
 30
0.0
 40
0.75
  1
I
 41
0.699986
  7
SIMPLEX
100
AcDbAttribute
  2
DESC
 70
     9
  0
ATTRIB
  5
1A6
100
AcDbEntity
  8
0
 62
     2
100
AcDbText
 10
189684.468697
 20
1680307.737068
 30
0.0
 40
0.75
  1

 41
0.699986
  7
SIMPLEX
100
AcDbAttribute
  2
COTA
 70
     9
  0
SEQEND
  5
1A7
100
AcDbEntity
  8
0
  0
INSERT
  5
1A8
100
AcDbEntity
  8
_TG
 62
     3
100
AcDbBlockReference
 66
     1
  2
SIMB_PONTO
 10
189682.041057
 20
1680309.743754
 30
0.0
  0
ATTRIB
  5
1A9
100
AcDbEntity
  8
0
 62
     1
100
AcDbText
 10
189682.391057
 20
1680310.093754
 30
0.0
 40
0.75
  1
55
 41
0.954526
  7
SIMPLEX
100
AcDbAttribute
  2
PONTO
 70
     8
  0
ATTRIB
  5
1AA
100
AcDbEntity
  8
0
 62
     4
100
AcDbText
 10
189682.391057
 20
1680310.993754
 30
0.0
 40
0.75
  1
I
 41
0.699986
  7
SIMPLEX
100
AcDbAttribute
  2
DESC
 70
     9
  0
ATTRIB
  5
1AB
100
AcDbEntity
  8
0
 62
     2
100
AcDbText
 10
189682.391057
 20
1680308.643754
 30
0.0
 40
0.75
  1

 41
0.699986
  7
SIMPLEX
100
AcDbAttribute
  2
COTA
 70
     9
  0
SEQEND
  5
1AC
100
AcDbEntity
  8
0
  0
INSERT
  5
1AD
100
AcDbEntity
  8
_TG
 62
     3
100
AcDbBlockReference
 66
     1
  2
SIMB_PONTO
 10
189680.784372
 20
1680312.116506
 30
0.0
  0
ATTRIB
  5
1AE
100
AcDbEntity
  8
0
 62
     1
100
AcDbText
 10
189681.134372
 20
1680312.466506
 30
0.0
 40
0.75
  1
56
 41
0.954526
  7
SIMPLEX
100
AcDbAttribute
  2
PONTO
 70
     8
  0
ATTRIB
  5
1AF
100
AcDbEntity
  8
0
 62
     4
100
AcDbText
 10
189681.134372
 20
1680313.366506
 30
0.0
 40
0.75
  1
I
 41
0.699986
  7
SIMPLEX
100
AcDbAttribute
  2
DESC
 70
     9
  0
ATTRIB
  5
1B0
100
AcDbEntity
  8
0
 62
     2
100
AcDbText
 10
189681.134372
 20
1680311.016506
 30
0.0
 40
0.75
  1

 41
0.699986
  7
SIMPLEX
100
AcDbAttribute
  2
COTA
 70
     9
  0
SEQEND
  5
1B1
100
AcDbEntity
  8
0
  0
INSERT
  5
1B2
100
AcDbEntity
  8
_TG
 62
     3
100
AcDbBlockReference
 66
     1
  2
SIMB_PONTO
 10
189645.854642
 20
1680384.747954
 30
0.0
  0
ATTRIB
  5
1B3
100
AcDbEntity
  8
0
 62
     1
100
AcDbText
 10
189646.204642
 20
1680385.097954
 30
0.0
 40
0.75
  1
57
 41
0.954526
  7
SIMPLEX
100
AcDbAttribute
  2
PONTO
 70
     8
  0
ATTRIB
  5
1B4
100
AcDbEntity
  8
0
 62
     4
100
AcDbText
 10
189646.204642
 20
1680385.997954
 30
0.0
 40
0.75
  1
I
 41
0.699986
  7
SIMPLEX
100
AcDbAttribute
  2
DESC
 70
     9
  0
ATTRIB
  5
1B5
100
AcDbEntity
  8
0
 62
     2
100
AcDbText
 10
189646.204642
 20
1680383.647954
 30
0.0
 40
0.75
  1

 41
0.699986
  7
SIMPLEX
100
AcDbAttribute
  2
COTA
 70
     9
  0
SEQEND
  5
1B6
100
AcDbEntity
  8
0
  0
INSERT
  5
1B7
100
AcDbEntity
  8
_TG
 62
     3
100
AcDbBlockReference
 66
     1
  2
SIMB_PONTO
 10
189645.85271
 20
1680391.290485
 30
0.0
  0
ATTRIB
  5
1B8
100
AcDbEntity
  8
0
 62
     1
100
AcDbText
 10
189646.20271
 20
1680391.640485
 30
0.0
 40
0.75
  1
58
 41
0.954526
  7
SIMPLEX
100
AcDbAttribute
  2
PONTO
 70
     8
  0
ATTRIB
  5
1B9
100
AcDbEntity
  8
0
 62
     4
100
AcDbText
 10
189646.20271
 20
1680392.540485
 30
0.0
 40
0.75
  1
I
 41
0.699986
  7
SIMPLEX
100
AcDbAttribute
  2
DESC
 70
     9
  0
ATTRIB
  5
1BA
100
AcDbEntity
  8
0
 62
     2
100
AcDbText
 10
189646.20271
 20
1680390.190485
 30
0.0
 40
0.75
  1

 41
0.699986
  7
SIMPLEX
100
AcDbAttribute
  2
COTA
 70
     9
  0
SEQEND
  5
1BB
100
AcDbEntity
  8
0
  0
INSERT
  5
1BC
100
AcDbEntity
  8
_TG
 62
     3
100
AcDbBlockReference
 66
     1
  2
SIMB_PONTO
 10
189651.742378
 20
1680327.178893
 30
0.0
  0
ATTRIB
  5
1BD
100
AcDbEntity
  8
0
 62
     1
100
AcDbText
 10
189652.092378
 20
1680327.528893
 30
0.0
 40
0.75
  1
59
 41
0.954526
  7
SIMPLEX
100
AcDbAttribute
  2
PONTO
 70
     8
  0
ATTRIB
  5
1BE
100
AcDbEntity
  8
0
 62
     4
100
AcDbText
 10
189652.092378
 20
1680328.428893
 30
0.0
 40
0.75
  1
I
 41
0.699986
  7
SIMPLEX
100
AcDbAttribute
  2
DESC
 70
     9
  0
ATTRIB
  5
1BF
100
AcDbEntity
  8
0
 62
     2
100
AcDbText
 10
189652.092378
 20
1680326.078893
 30
0.0
 40
0.75
  1

 41
0.699986
  7
SIMPLEX
100
AcDbAttribute
  2
COTA
 70
     9
  0
SEQEND
  5
1C0
100
AcDbEntity
  8
0
  0
INSERT
  5
1C1
100
AcDbEntity
  8
_TG
 62
     3
100
AcDbBlockReference
 66
     1
  2
SIMB_PONTO
 10
189648.657545
 20
1680556.731756
 30
0.0
  0
ATTRIB
  5
1C2
100
AcDbEntity
  8
0
 62
     1
100
AcDbText
 10
189649.007545
 20
1680557.081756
 30
0.0
 40
0.75
  1
6
 41
0.954526
  7
SIMPLEX
100
AcDbAttribute
  2
PONTO
 70
     8
  0
ATTRIB
  5
1C3
100
AcDbEntity
  8
0
 62
     4
100
AcDbText
 10
189649.007545
 20
1680557.981756
 30
0.0
 40
0.75
  1
I
 41
0.699986
  7
SIMPLEX
100
AcDbAttribute
  2
DESC
 70
     9
  0
ATTRIB
  5
1C4
100
AcDbEntity
  8
0
 62
     2
100
AcDbText
 10
189649.007545
 20
1680555.631756
 30
0.0
 40
0.75
  1

 41
0.699986
  7
SIMPLEX
100
AcDbAttribute
  2
COTA
 70
     9
  0
SEQEND
  5
1C5
100
AcDbEntity
  8
0
  0
INSERT
  5
1C6
100
AcDbEntity
  8
_TG
 62
     3
100
AcDbBlockReference
 66
     1
  2
SIMB_PONTO
 10
189651.743456
 20
1680313.538153
 30
0.0
  0
ATTRIB
  5
1C7
100
AcDbEntity
  8
0
 62
     1
100
AcDbText
 10
189652.093456
 20
1680313.888153
 30
0.0
 40
0.75
  1
60
 41
0.954526
  7
SIMPLEX
100
AcDbAttribute
  2
PONTO
 70
     8
  0
ATTRIB
  5
1C8
100
AcDbEntity
  8
0
 62
     4
100
AcDbText
 10
189652.093456
 20
1680314.788153
 30
0.0
 40
0.75
  1
I
 41
0.699986
  7
SIMPLEX
100
AcDbAttribute
  2
DESC
 70
     9
  0
ATTRIB
  5
1C9
100
AcDbEntity
  8
0
 62
     2
100
AcDbText
 10
189652.093456
 20
1680312.438153
 30
0.0
 40
0.75
  1

 41
0.699986
  7
SIMPLEX
100
AcDbAttribute
  2
COTA
 70
     9
  0
SEQEND
  5
1CA
100
AcDbEntity
  8
0
  0
INSERT
  5
1CB
100
AcDbEntity
  8
_TG
 62
     3
100
AcDbBlockReference
 66
     1
  2
SIMB_PONTO
 10
189642.482542
 20
1680313.512688
 30
0.0
  0
ATTRIB
  5
1CC
100
AcDbEntity
  8
0
 62
     1
100
AcDbText
 10
189642.832542
 20
1680313.862688
 30
0.0
 40
0.75
  1
61
 41
0.954526
  7
SIMPLEX
100
AcDbAttribute
  2
PONTO
 70
     8
  0
ATTRIB
  5
1CD
100
AcDbEntity
  8
0
 62
     4
100
AcDbText
 10
189642.832542
 20
1680314.762688
 30
0.0
 40
0.75
  1
I
 41
0.699986
  7
SIMPLEX
100
AcDbAttribute
  2
DESC
 70
     9
  0
ATTRIB
  5
1CE
100
AcDbEntity
  8
0
 62
     2
100
AcDbText
 10
189642.832542
 20
1680312.412688
 30
0.0
 40
0.75
  1

 41
0.699986
  7
SIMPLEX
100
AcDbAttribute
  2
COTA
 70
     9
  0
SEQEND
  5
1CF
100
AcDbEntity
  8
0
  0
INSERT
  5
1D0
100
AcDbEntity
  8
_TG
 62
     3
100
AcDbBlockReference
 66
     1
  2
SIMB_PONTO
 10
189639.775368
 20
1680310.816759
 30
0.0
  0
ATTRIB
  5
1D1
100
AcDbEntity
  8
0
 62
     1
100
AcDbText
 10
189640.125368
 20
1680311.166759
 30
0.0
 40
0.75
  1
62
 41
0.954526
  7
SIMPLEX
100
AcDbAttribute
  2
PONTO
 70
     8
  0
ATTRIB
  5
1D2
100
AcDbEntity
  8
0
 62
     4
100
AcDbText
 10
189640.125368
 20
1680312.066759
 30
0.0
 40
0.75
  1
I
 41
0.699986
  7
SIMPLEX
100
AcDbAttribute
  2
DESC
 70
     9
  0
ATTRIB
  5
1D3
100
AcDbEntity
  8
0
 62
     2
100
AcDbText
 10
189640.125368
 20
1680309.716759
 30
0.0
 40
0.75
  1

 41
0.699986
  7
SIMPLEX
100
AcDbAttribute
  2
COTA
 70
     9
  0
SEQEND
  5
1D4
100
AcDbEntity
  8
0
  0
INSERT
  5
1D5
100
AcDbEntity
  8
_TG
 62
     3
100
AcDbBlockReference
 66
     1
  2
SIMB_PONTO
 10
189647.469821
 20
1680298.547172
 30
0.0
  0
ATTRIB
  5
1D6
100
AcDbEntity
  8
0
 62
     1
100
AcDbText
 10
189647.819821
 20
1680298.897172
 30
0.0
 40
0.75
  1
63
 41
0.954526
  7
SIMPLEX
100
AcDbAttribute
  2
PONTO
 70
     8
  0
ATTRIB
  5
1D7
100
AcDbEntity
  8
0
 62
     4
100
AcDbText
 10
189647.819821
 20
1680299.797172
 30
0.0
 40
0.75
  1
I
 41
0.699986
  7
SIMPLEX
100
AcDbAttribute
  2
DESC
 70
     9
  0
ATTRIB
  5
1D8
100
AcDbEntity
  8
0
 62
     2
100
AcDbText
 10
189647.819821
 20
1680297.447172
 30
0.0
 40
0.75
  1

 41
0.699986
  7
SIMPLEX
100
AcDbAttribute
  2
COTA
 70
     9
  0
SEQEND
  5
1D9
100
AcDbEntity
  8
0
  0
INSERT
  5
1DA
100
AcDbEntity
  8
_TG
 62
     3
100
AcDbBlockReference
 66
     1
  2
SIMB_PONTO
 10
189647.630965
 20
1680294.830998
 30
0.0
  0
ATTRIB
  5
1DB
100
AcDbEntity
  8
0
 62
     1
100
AcDbText
 10
189647.980965
 20
1680295.180998
 30
0.0
 40
0.75
  1
64
 41
0.954526
  7
SIMPLEX
100
AcDbAttribute
  2
PONTO
 70
     8
  0
ATTRIB
  5
1DC
100
AcDbEntity
  8
0
 62
     4
100
AcDbText
 10
189647.980965
 20
1680296.080998
 30
0.0
 40
0.75
  1
I
 41
0.699986
  7
SIMPLEX
100
AcDbAttribute
  2
DESC
 70
     9
  0
ATTRIB
  5
1DD
100
AcDbEntity
  8
0
 62
     2
100
AcDbText
 10
189647.980965
 20
1680293.730998
 30
0.0
 40
0.75
  1

 41
0.699986
  7
SIMPLEX
100
AcDbAttribute
  2
COTA
 70
     9
  0
SEQEND
  5
1DE
100
AcDbEntity
  8
0
  0
INSERT
  5
1DF
100
AcDbEntity
  8
_TG
 62
     3
100
AcDbBlockReference
 66
     1
  2
SIMB_PONTO
 10
189651.437571
 20
1680291.450643
 30
0.0
  0
ATTRIB
  5
1E0
100
AcDbEntity
  8
0
 62
     1
100
AcDbText
 10
189651.787571
 20
1680291.800643
 30
0.0
 40
0.75
  1
65
 41
0.954526
  7
SIMPLEX
100
AcDbAttribute
  2
PONTO
 70
     8
  0
ATTRIB
  5
1E1
100
AcDbEntity
  8
0
 62
     4
100
AcDbText
 10
189651.787571
 20
1680292.700643
 30
0.0
 40
0.75
  1
I
 41
0.699986
  7
SIMPLEX
100
AcDbAttribute
  2
DESC
 70
     9
  0
ATTRIB
  5
1E2
100
AcDbEntity
  8
0
 62
     2
100
AcDbText
 10
189651.787571
 20
1680290.350643
 30
0.0
 40
0.75
  1

 41
0.699986
  7
SIMPLEX
100
AcDbAttribute
  2
COTA
 70
     9
  0
SEQEND
  5
1E3
100
AcDbEntity
  8
0
  0
INSERT
  5
1E4
100
AcDbEntity
  8
_TG
 62
     3
100
AcDbBlockReference
 66
     1
  2
SIMB_PONTO
 10
189651.418719
 20
1680284.958086
 30
0.0
  0
ATTRIB
  5
1E5
100
AcDbEntity
  8
0
 62
     1
100
AcDbText
 10
189651.768719
 20
1680285.308086
 30
0.0
 40
0.75
  1
66
 41
0.954526
  7
SIMPLEX
100
AcDbAttribute
  2
PONTO
 70
     8
  0
ATTRIB
  5
1E6
100
AcDbEntity
  8
0
 62
     4
100
AcDbText
 10
189651.768719
 20
1680286.208086
 30
0.0
 40
0.75
  1
I
 41
0.699986
  7
SIMPLEX
100
AcDbAttribute
  2
DESC
 70
     9
  0
ATTRIB
  5
1E7
100
AcDbEntity
  8
0
 62
     2
100
AcDbText
 10
189651.768719
 20
1680283.858086
 30
0.0
 40
0.75
  1

 41
0.699986
  7
SIMPLEX
100
AcDbAttribute
  2
COTA
 70
     9
  0
SEQEND
  5
1E8
100
AcDbEntity
  8
0
  0
INSERT
  5
1E9
100
AcDbEntity
  8
_TG
 62
     3
100
AcDbBlockReference
 66
     1
  2
SIMB_PONTO
 10
189651.91131
 20
1680272.517233
 30
0.0
  0
ATTRIB
  5
1EA
100
AcDbEntity
  8
0
 62
     1
100
AcDbText
 10
189652.26131
 20
1680272.867233
 30
0.0
 40
0.75
  1
67
 41
0.954526
  7
SIMPLEX
100
AcDbAttribute
  2
PONTO
 70
     8
  0
ATTRIB
  5
1EB
100
AcDbEntity
  8
0
 62
     4
100
AcDbText
 10
189652.26131
 20
1680273.767233
 30
0.0
 40
0.75
  1
I
 41
0.699986
  7
SIMPLEX
100
AcDbAttribute
  2
DESC
 70
     9
  0
ATTRIB
  5
1EC
100
AcDbEntity
  8
0
 62
     2
100
AcDbText
 10
189652.26131
 20
1680271.417233
 30
0.0
 40
0.75
  1

 41
0.699986
  7
SIMPLEX
100
AcDbAttribute
  2
COTA
 70
     9
  0
SEQEND
  5
1ED
100
AcDbEntity
  8
0
  0
INSERT
  5
1EE
100
AcDbEntity
  8
_TG
 62
     3
100
AcDbBlockReference
 66
     1
  2
SIMB_PONTO
 10
189651.827692
 20
1680278.594369
 30
0.0
  0
ATTRIB
  5
1EF
100
AcDbEntity
  8
0
 62
     1
100
AcDbText
 10
189652.177692
 20
1680278.944369
 30
0.0
 40
0.75
  1
68
 41
0.954526
  7
SIMPLEX
100
AcDbAttribute
  2
PONTO
 70
     8
  0
ATTRIB
  5
1F0
100
AcDbEntity
  8
0
 62
     4
100
AcDbText
 10
189652.177692
 20
1680279.844369
 30
0.0
 40
0.75
  1
I
 41
0.699986
  7
SIMPLEX
100
AcDbAttribute
  2
DESC
 70
     9
  0
ATTRIB
  5
1F1
100
AcDbEntity
  8
0
 62
     2
100
AcDbText
 10
189652.177692
 20
1680277.494369
 30
0.0
 40
0.75
  1

 41
0.699986
  7
SIMPLEX
100
AcDbAttribute
  2
COTA
 70
     9
  0
SEQEND
  5
1F2
100
AcDbEntity
  8
0
  0
INSERT
  5
1F3
100
AcDbEntity
  8
_TG
 62
     3
100
AcDbBlockReference
 66
     1
  2
SIMB_PONTO
 10
189651.84378
 20
1680255.426232
 30
0.0
  0
ATTRIB
  5
1F4
100
AcDbEntity
  8
0
 62
     1
100
AcDbText
 10
189652.19378
 20
1680255.776232
 30
0.0
 40
0.75
  1
69
 41
0.954526
  7
SIMPLEX
100
AcDbAttribute
  2
PONTO
 70
     8
  0
ATTRIB
  5
1F5
100
AcDbEntity
  8
0
 62
     4
100
AcDbText
 10
189652.19378
 20
1680256.676232
 30
0.0
 40
0.75
  1
I
 41
0.699986
  7
SIMPLEX
100
AcDbAttribute
  2
DESC
 70
     9
  0
ATTRIB
  5
1F6
100
AcDbEntity
  8
0
 62
     2
100
AcDbText
 10
189652.19378
 20
1680254.326232
 30
0.0
 40
0.75
  1

 41
0.699986
  7
SIMPLEX
100
AcDbAttribute
  2
COTA
 70
     9
  0
SEQEND
  5
1F7
100
AcDbEntity
  8
0
  0
INSERT
  5
1F8
100
AcDbEntity
  8
_TG
 62
     3
100
AcDbBlockReference
 66
     1
  2
SIMB_PONTO
 10
189644.921221
 20
1680554.756501
 30
0.0
  0
ATTRIB
  5
1F9
100
AcDbEntity
  8
0
 62
     1
100
AcDbText
 10
189645.271221
 20
1680555.106501
 30
0.0
 40
0.75
  1
7
 41
0.954526
  7
SIMPLEX
100
AcDbAttribute
  2
PONTO
 70
     8
  0
ATTRIB
  5
1FA
100
AcDbEntity
  8
0
 62
     4
100
AcDbText
 10
189645.271221
 20
1680556.006501
 30
0.0
 40
0.75
  1
I
 41
0.699986
  7
SIMPLEX
100
AcDbAttribute
  2
DESC
 70
     9
  0
ATTRIB
  5
1FB
100
AcDbEntity
  8
0
 62
     2
100
AcDbText
 10
189645.271221
 20
1680553.656501
 30
0.0
 40
0.75
  1

 41
0.699986
  7
SIMPLEX
100
AcDbAttribute
  2
COTA
 70
     9
  0
SEQEND
  5
1FC
100
AcDbEntity
  8
0
  0
INSERT
  5
1FD
100
AcDbEntity
  8
_TG
 62
     3
100
AcDbBlockReference
 66
     1
  2
SIMB_PONTO
 10
189655.775016
 20
1680255.770198
 30
0.0
  0
ATTRIB
  5
1FE
100
AcDbEntity
  8
0
 62
     1
100
AcDbText
 10
189656.125016
 20
1680256.120198
 30
0.0
 40
0.75
  1
70
 41
0.954526
  7
SIMPLEX
100
AcDbAttribute
  2
PONTO
 70
     8
  0
ATTRIB
  5
1FF
100
AcDbEntity
  8
0
 62
     4
100
AcDbText
 10
189656.125016
 20
1680257.020198
 30
0.0
 40
0.75
  1
I
 41
0.699986
  7
SIMPLEX
100
AcDbAttribute
  2
DESC
 70
     9
  0
ATTRIB
  5
200
100
AcDbEntity
  8
0
 62
     2
100
AcDbText
 10
189656.125016
 20
1680254.670198
 30
0.0
 40
0.75
  1

 41
0.699986
  7
SIMPLEX
100
AcDbAttribute
  2
COTA
 70
     9
  0
SEQEND
  5
201
100
AcDbEntity
  8
0
  0
INSERT
  5
202
100
AcDbEntity
  8
_TG
 62
     3
100
AcDbBlockReference
 66
     1
  2
SIMB_PONTO
 10
189655.586575
 20
1680278.261783
 30
0.0
  0
ATTRIB
  5
203
100
AcDbEntity
  8
0
 62
     1
100
AcDbText
 10
189655.936575
 20
1680278.611783
 30
0.0
 40
0.75
  1
71
 41
0.954526
  7
SIMPLEX
100
AcDbAttribute
  2
PONTO
 70
     8
  0
ATTRIB
  5
204
100
AcDbEntity
  8
0
 62
     4
100
AcDbText
 10
189655.936575
 20
1680279.511783
 30
0.0
 40
0.75
  1
I
 41
0.699986
  7
SIMPLEX
100
AcDbAttribute
  2
DESC
 70
     9
  0
ATTRIB
  5
205
100
AcDbEntity
  8
0
 62
     2
100
AcDbText
 10
189655.936575
 20
1680277.161783
 30
0.0
 40
0.75
  1

 41
0.699986
  7
SIMPLEX
100
AcDbAttribute
  2
COTA
 70
     9
  0
SEQEND
  5
206
100
AcDbEntity
  8
0
  0
INSERT
  5
207
100
AcDbEntity
  8
_TG
 62
     3
100
AcDbBlockReference
 66
     1
  2
SIMB_PONTO
 10
189652.101468
 20
1680229.662566
 30
0.0
  0
ATTRIB
  5
208
100
AcDbEntity
  8
0
 62
     1
100
AcDbText
 10
189652.451468
 20
1680230.012566
 30
0.0
 40
0.75
  1
72
 41
0.954526
  7
SIMPLEX
100
AcDbAttribute
  2
PONTO
 70
     8
  0
ATTRIB
  5
209
100
AcDbEntity
  8
0
 62
     4
100
AcDbText
 10
189652.451468
 20
1680230.912566
 30
0.0
 40
0.75
  1
I
 41
0.699986
  7
SIMPLEX
100
AcDbAttribute
  2
DESC
 70
     9
  0
ATTRIB
  5
20A
100
AcDbEntity
  8
0
 62
     2
100
AcDbText
 10
189652.451468
 20
1680228.562566
 30
0.0
 40
0.75
  1

 41
0.699986
  7
SIMPLEX
100
AcDbAttribute
  2
COTA
 70
     9
  0
SEQEND
  5
20B
100
AcDbEntity
  8
0
  0
INSERT
  5
20C
100
AcDbEntity
  8
_TG
 62
     3
100
AcDbBlockReference
 66
     1
  2
SIMB_PONTO
 10
189648.10392
 20
1680210.371727
 30
0.0
  0
ATTRIB
  5
20D
100
AcDbEntity
  8
0
 62
     1
100
AcDbText
 10
189648.45392
 20
1680210.721727
 30
0.0
 40
0.75
  1
73
 41
0.954526
  7
SIMPLEX
100
AcDbAttribute
  2
PONTO
 70
     8
  0
ATTRIB
  5
20E
100
AcDbEntity
  8
0
 62
     4
100
AcDbText
 10
189648.45392
 20
1680211.621727
 30
0.0
 40
0.75
  1
I
 41
0.699986
  7
SIMPLEX
100
AcDbAttribute
  2
DESC
 70
     9
  0
ATTRIB
  5
20F
100
AcDbEntity
  8
0
 62
     2
100
AcDbText
 10
189648.45392
 20
1680209.271727
 30
0.0
 40
0.75
  1

 41
0.699986
  7
SIMPLEX
100
AcDbAttribute
  2
COTA
 70
     9
  0
SEQEND
  5
210
100
AcDbEntity
  8
0
  0
INSERT
  5
211
100
AcDbEntity
  8
_TG
 62
     3
100
AcDbBlockReference
 66
     1
  2
SIMB_PONTO
 10
189648.097072
 20
1680187.556525
 30
0.0
  0
ATTRIB
  5
212
100
AcDbEntity
  8
0
 62
     1
100
AcDbText
 10
189648.447072
 20
1680187.906525
 30
0.0
 40
0.75
  1
74
 41
0.954526
  7
SIMPLEX
100
AcDbAttribute
  2
PONTO
 70
     8
  0
ATTRIB
  5
213
100
AcDbEntity
  8
0
 62
     4
100
AcDbText
 10
189648.447072
 20
1680188.806525
 30
0.0
 40
0.75
  1
I
 41
0.699986
  7
SIMPLEX
100
AcDbAttribute
  2
DESC
 70
     9
  0
ATTRIB
  5
214
100
AcDbEntity
  8
0
 62
     2
100
AcDbText
 10
189648.447072
 20
1680186.456525
 30
0.0
 40
0.75
  1

 41
0.699986
  7
SIMPLEX
100
AcDbAttribute
  2
COTA
 70
     9
  0
SEQEND
  5
215
100
AcDbEntity
  8
0
  0
INSERT
  5
216
100
AcDbEntity
  8
_TG
 62
     3
100
AcDbBlockReference
 66
     1
  2
SIMB_PONTO
 10
189657.196373
 20
1680187.8205
 30
0.0
  0
ATTRIB
  5
217
100
AcDbEntity
  8
0
 62
     1
100
AcDbText
 10
189657.546373
 20
1680188.1705
 30
0.0
 40
0.75
  1
75
 41
0.954526
  7
SIMPLEX
100
AcDbAttribute
  2
PONTO
 70
     8
  0
ATTRIB
  5
218
100
AcDbEntity
  8
0
 62
     4
100
AcDbText
 10
189657.546373
 20
1680189.0705
 30
0.0
 40
0.75
  1
I
 41
0.699986
  7
SIMPLEX
100
AcDbAttribute
  2
DESC
 70
     9
  0
ATTRIB
  5
219
100
AcDbEntity
  8
0
 62
     2
100
AcDbText
 10
189657.546373
 20
1680186.7205
 30
0.0
 40
0.75
  1

 41
0.699986
  7
SIMPLEX
100
AcDbAttribute
  2
COTA
 70
     9
  0
SEQEND
  5
21A
100
AcDbEntity
  8
0
  0
INSERT
  5
21B
100
AcDbEntity
  8
_TG
 62
     3
100
AcDbBlockReference
 66
     1
  2
SIMB_PONTO
 10
189674.420802
 20
1680190.985174
 30
0.0
  0
ATTRIB
  5
21C
100
AcDbEntity
  8
0
 62
     1
100
AcDbText
 10
189674.770802
 20
1680191.335174
 30
0.0
 40
0.75
  1
76
 41
0.954526
  7
SIMPLEX
100
AcDbAttribute
  2
PONTO
 70
     8
  0
ATTRIB
  5
21D
100
AcDbEntity
  8
0
 62
     4
100
AcDbText
 10
189674.770802
 20
1680192.235174
 30
0.0
 40
0.75
  1
I
 41
0.699986
  7
SIMPLEX
100
AcDbAttribute
  2
DESC
 70
     9
  0
ATTRIB
  5
21E
100
AcDbEntity
  8
0
 62
     2
100
AcDbText
 10
189674.770802
 20
1680189.885174
 30
0.0
 40
0.75
  1

 41
0.699986
  7
SIMPLEX
100
AcDbAttribute
  2
COTA
 70
     9
  0
SEQEND
  5
21F
100
AcDbEntity
  8
0
  0
INSERT
  5
220
100
AcDbEntity
  8
_TG
 62
     3
100
AcDbBlockReference
 66
     1
  2
SIMB_PONTO
 10
189681.903182
 20
1680193.330043
 30
0.0
  0
ATTRIB
  5
221
100
AcDbEntity
  8
0
 62
     1
100
AcDbText
 10
189682.253182
 20
1680193.680043
 30
0.0
 40
0.75
  1
77
 41
0.954526
  7
SIMPLEX
100
AcDbAttribute
  2
PONTO
 70
     8
  0
ATTRIB
  5
222
100
AcDbEntity
  8
0
 62
     4
100
AcDbText
 10
189682.253182
 20
1680194.580043
 30
0.0
 40
0.75
  1
I
 41
0.699986
  7
SIMPLEX
100
AcDbAttribute
  2
DESC
 70
     9
  0
ATTRIB
  5
223
100
AcDbEntity
  8
0
 62
     2
100
AcDbText
 10
189682.253182
 20
1680192.230043
 30
0.0
 40
0.75
  1

 41
0.699986
  7
SIMPLEX
100
AcDbAttribute
  2
COTA
 70
     9
  0
SEQEND
  5
224
100
AcDbEntity
  8
0
  0
INSERT
  5
225
100
AcDbEntity
  8
_TG
 62
     3
100
AcDbBlockReference
 66
     1
  2
SIMB_PONTO
 10
189681.211706
 20
1680227.673396
 30
0.0
  0
ATTRIB
  5
226
100
AcDbEntity
  8
0
 62
     1
100
AcDbText
 10
189681.561706
 20
1680228.023396
 30
0.0
 40
0.75
  1
78
 41
0.954526
  7
SIMPLEX
100
AcDbAttribute
  2
PONTO
 70
     8
  0
ATTRIB
  5
227
100
AcDbEntity
  8
0
 62
     4
100
AcDbText
 10
189681.561706
 20
1680228.923396
 30
0.0
 40
0.75
  1
I
 41
0.699986
  7
SIMPLEX
100
AcDbAttribute
  2
DESC
 70
     9
  0
ATTRIB
  5
228
100
AcDbEntity
  8
0
 62
     2
100
AcDbText
 10
189681.561706
 20
1680226.573396
 30
0.0
 40
0.75
  1

 41
0.699986
  7
SIMPLEX
100
AcDbAttribute
  2
COTA
 70
     9
  0
SEQEND
  5
229
100
AcDbEntity
  8
0
  0
INSERT
  5
22A
100
AcDbEntity
  8
_TG
 62
     3
100
AcDbBlockReference
 66
     1
  2
SIMB_PONTO
 10
189682.6605
 20
1680230.432429
 30
0.0
  0
ATTRIB
  5
22B
100
AcDbEntity
  8
0
 62
     1
100
AcDbText
 10
189683.0105
 20
1680230.782429
 30
0.0
 40
0.75
  1
79
 41
0.954526
  7
SIMPLEX
100
AcDbAttribute
  2
PONTO
 70
     8
  0
ATTRIB
  5
22C
100
AcDbEntity
  8
0
 62
     4
100
AcDbText
 10
189683.0105
 20
1680231.682429
 30
0.0
 40
0.75
  1
I
 41
0.699986
  7
SIMPLEX
100
AcDbAttribute
  2
DESC
 70
     9
  0
ATTRIB
  5
22D
100
AcDbEntity
  8
0
 62
     2
100
AcDbText
 10
189683.0105
 20
1680229.332429
 30
0.0
 40
0.75
  1

 41
0.699986
  7
SIMPLEX
100
AcDbAttribute
  2
COTA
 70
     9
  0
SEQEND
  5
22E
100
AcDbEntity
  8
0
  0
INSERT
  5
22F
100
AcDbEntity
  8
_TG
 62
     3
100
AcDbBlockReference
 66
     1
  2
SIMB_PONTO
 10
189647.562013
 20
1680545.883261
 30
0.0
  0
ATTRIB
  5
230
100
AcDbEntity
  8
0
 62
     1
100
AcDbText
 10
189647.912013
 20
1680546.233261
 30
0.0
 40
0.75
  1
8
 41
0.954526
  7
SIMPLEX
100
AcDbAttribute
  2
PONTO
 70
     8
  0
ATTRIB
  5
231
100
AcDbEntity
  8
0
 62
     4
100
AcDbText
 10
189647.912013
 20
1680547.133261
 30
0.0
 40
0.75
  1
I
 41
0.699986
  7
SIMPLEX
100
AcDbAttribute
  2
DESC
 70
     9
  0
ATTRIB
  5
232
100
AcDbEntity
  8
0
 62
     2
100
AcDbText
 10
189647.912013
 20
1680544.783261
 30
0.0
 40
0.75
  1

 41
0.699986
  7
SIMPLEX
100
AcDbAttribute
  2
COTA
 70
     9
  0
SEQEND
  5
233
100
AcDbEntity
  8
0
  0
INSERT
  5
234
100
AcDbEntity
  8
_TG
 62
     3
100
AcDbBlockReference
 66
     1
  2
SIMB_PONTO
 10
189686.592877
 20
1680231.69595
 30
0.0
  0
ATTRIB
  5
235
100
AcDbEntity
  8
0
 62
     1
100
AcDbText
 10
189686.942877
 20
1680232.04595
 30
0.0
 40
0.75
  1
80
 41
0.954526
  7
SIMPLEX
100
AcDbAttribute
  2
PONTO
 70
     8
  0
ATTRIB
  5
236
100
AcDbEntity
  8
0
 62
     4
100
AcDbText
 10
189686.942877
 20
1680232.94595
 30
0.0
 40
0.75
  1
I
 41
0.699986
  7
SIMPLEX
100
AcDbAttribute
  2
DESC
 70
     9
  0
ATTRIB
  5
237
100
AcDbEntity
  8
0
 62
     2
100
AcDbText
 10
189686.942877
 20
1680230.59595
 30
0.0
 40
0.75
  1

 41
0.699986
  7
SIMPLEX
100
AcDbAttribute
  2
COTA
 70
     9
  0
SEQEND
  5
238
100
AcDbEntity
  8
0
  0
INSERT
  5
239
100
AcDbEntity
  8
_TG
 62
     3
100
AcDbBlockReference
 66
     1
  2
SIMB_PONTO
 10
189687.016493
 20
1680240.633117
 30
0.0
  0
ATTRIB
  5
23A
100
AcDbEntity
  8
0
 62
     1
100
AcDbText
 10
189687.366493
 20
1680240.983117
 30
0.0
 40
0.75
  1
81
 41
0.954526
  7
SIMPLEX
100
AcDbAttribute
  2
PONTO
 70
     8
  0
ATTRIB
  5
23B
100
AcDbEntity
  8
0
 62
     4
100
AcDbText
 10
189687.366493
 20
1680241.883117
 30
0.0
 40
0.75
  1
I
 41
0.699986
  7
SIMPLEX
100
AcDbAttribute
  2
DESC
 70
     9
  0
ATTRIB
  5
23C
100
AcDbEntity
  8
0
 62
     2
100
AcDbText
 10
189687.366493
 20
1680239.533117
 30
0.0
 40
0.75
  1

 41
0.699986
  7
SIMPLEX
100
AcDbAttribute
  2
COTA
 70
     9
  0
SEQEND
  5
23D
100
AcDbEntity
  8
0
  0
INSERT
  5
23E
100
AcDbEntity
  8
_TG
 62
     3
100
AcDbBlockReference
 66
     1
  2
SIMB_PONTO
 10
189684.668386
 20
1680241.770182
 30
0.0
  0
ATTRIB
  5
23F
100
AcDbEntity
  8
0
 62
     1
100
AcDbText
 10
189685.018386
 20
1680242.120182
 30
0.0
 40
0.75
  1
82
 41
0.954526
  7
SIMPLEX
100
AcDbAttribute
  2
PONTO
 70
     8
  0
ATTRIB
  5
240
100
AcDbEntity
  8
0
 62
     4
100
AcDbText
 10
189685.018386
 20
1680243.020182
 30
0.0
 40
0.75
  1
I
 41
0.699986
  7
SIMPLEX
100
AcDbAttribute
  2
DESC
 70
     9
  0
ATTRIB
  5
241
100
AcDbEntity
  8
0
 62
     2
100
AcDbText
 10
189685.018386
 20
1680240.670182
 30
0.0
 40
0.75
  1

 41
0.699986
  7
SIMPLEX
100
AcDbAttribute
  2
COTA
 70
     9
  0
SEQEND
  5
242
100
AcDbEntity
  8
0
  0
INSERT
  5
243
100
AcDbEntity
  8
_TG
 62
     3
100
AcDbBlockReference
 66
     1
  2
SIMB_PONTO
 10
189682.004255
 20
1680245.760772
 30
0.0
  0
ATTRIB
  5
244
100
AcDbEntity
  8
0
 62
     1
100
AcDbText
 10
189682.354255
 20
1680246.110772
 30
0.0
 40
0.75
  1
83
 41
0.954526
  7
SIMPLEX
100
AcDbAttribute
  2
PONTO
 70
     8
  0
ATTRIB
  5
245
100
AcDbEntity
  8
0
 62
     4
100
AcDbText
 10
189682.354255
 20
1680247.010772
 30
0.0
 40
0.75
  1
I
 41
0.699986
  7
SIMPLEX
100
AcDbAttribute
  2
DESC
 70
     9
  0
ATTRIB
  5
246
100
AcDbEntity
  8
0
 62
     2
100
AcDbText
 10
189682.354255
 20
1680244.660772
 30
0.0
 40
0.75
  1

 41
0.699986
  7
SIMPLEX
100
AcDbAttribute
  2
COTA
 70
     9
  0
SEQEND
  5
247
100
AcDbEntity
  8
0
  0
INSERT
  5
248
100
AcDbEntity
  8
_TG
 62
     3
100
AcDbBlockReference
 66
     1
  2
SIMB_PONTO
 10
189681.070128
 20
1680252.297105
 30
0.0
  0
ATTRIB
  5
249
100
AcDbEntity
  8
0
 62
     1
100
AcDbText
 10
189681.420128
 20
1680252.647105
 30
0.0
 40
0.75
  1
84
 41
0.954526
  7
SIMPLEX
100
AcDbAttribute
  2
PONTO
 70
     8
  0
ATTRIB
  5
24A
100
AcDbEntity
  8
0
 62
     4
100
AcDbText
 10
189681.420128
 20
1680253.547105
 30
0.0
 40
0.75
  1
I
 41
0.699986
  7
SIMPLEX
100
AcDbAttribute
  2
DESC
 70
     9
  0
ATTRIB
  5
24B
100
AcDbEntity
  8
0
 62
     2
100
AcDbText
 10
189681.420128
 20
1680251.197105
 30
0.0
 40
0.75
  1

 41
0.699986
  7
SIMPLEX
100
AcDbAttribute
  2
COTA
 70
     9
  0
SEQEND
  5
24C
100
AcDbEntity
  8
0
  0
INSERT
  5
24D
100
AcDbEntity
  8
_TG
 62
     3
100
AcDbBlockReference
 66
     1
  2
SIMB_PONTO
 10
189649.349861
 20
1680539.613556
 30
0.0
  0
ATTRIB
  5
24E
100
AcDbEntity
  8
0
 62
     1
100
AcDbText
 10
189649.699861
 20
1680539.963556
 30
0.0
 40
0.75
  1
9
 41
0.954526
  7
SIMPLEX
100
AcDbAttribute
  2
PONTO
 70
     8
  0
ATTRIB
  5
24F
100
AcDbEntity
  8
0
 62
     4
100
AcDbText
 10
189649.699861
 20
1680540.863556
 30
0.0
 40
0.75
  1
I
 41
0.699986
  7
SIMPLEX
100
AcDbAttribute
  2
DESC
 70
     9
  0
ATTRIB
  5
250
100
AcDbEntity
  8
0
 62
     2
100
AcDbText
 10
189649.699861
 20
1680538.513556
 30
0.0
 40
0.75
  1

 41
0.699986
  7
SIMPLEX
100
AcDbAttribute
  2
COTA
 70
     9
  0
SEQEND
  5
251
100
AcDbEntity
  8
0
  0
INSERT
  5
252
100
AcDbEntity
  8
_TG
 62
     3
100
AcDbBlockReference
 66
     1
  2
SIMB_PONTO
 10
189480.796
 20
1680867.816
 30
0.0
  0
ATTRIB
  5
253
100
AcDbEntity
  8
0
 62
     1
100
AcDbText
 10
189481.146
 20
1680868.166
 30
0.0
 40
0.75
  1
P0
 41
0.954526
  7
SIMPLEX
100
AcDbAttribute
  2
PONTO
 70
     8
  0
ATTRIB
  5
254
100
AcDbEntity
  8
0
 62
     4
100
AcDbText
 10
189481.146
 20
1680869.066
 30
0.0
 40
0.75
  1

 41
0.699986
  7
SIMPLEX
100
AcDbAttribute
  2
DESC
 70
     9
  0
ATTRIB
  5
255
100
AcDbEntity
  8
0
 62
     2
100
AcDbText
 10
189481.146
 20
1680866.716
 30
0.0
 40
0.75
  1

 41
0.699986
  7
SIMPLEX
100
AcDbAttribute
  2
COTA
 70
     9
  0
SEQEND
  5
256
100
AcDbEntity
  8
0
  0
INSERT
  5
257
100
AcDbEntity
  8
_TG
 62
     3
100
AcDbBlockReference
 66
     1
  2
SIMB_PONTO
 10
189561.138174
 20
1680720.563318
 30
0.0
  0
ATTRIB
  5
258
100
AcDbEntity
  8
0
 62
     1
100
AcDbText
 10
189561.488174
 20
1680720.913318
 30
0.0
 40
0.75
  1
P1
 41
0.954526
  7
SIMPLEX
100
AcDbAttribute
  2
PONTO
 70
     8
  0
ATTRIB
  5
259
100
AcDbEntity
  8
0
 62
     4
100
AcDbText
 10
189561.488174
 20
1680721.813318
 30
0.0
 40
0.75
  1

 41
0.699986
  7
SIMPLEX
100
AcDbAttribute
  2
DESC
 70
     9
  0
ATTRIB
  5
25A
100
AcDbEntity
  8
0
 62
     2
100
AcDbText
 10
189561.488174
 20
1680719.463318
 30
0.0
 40
0.75
  1

 41
0.699986
  7
SIMPLEX
100
AcDbAttribute
  2
COTA
 70
     9
  0
SEQEND
  5
25B
100
AcDbEntity
  8
0
  0
INSERT
  5
25C
100
AcDbEntity
  8
_TG
 62
     3
100
AcDbBlockReference
 66
     1
  2
SIMB_PONTO
 10
189677.684385
 20
1680548.234544
 30
0.0
  0
ATTRIB
  5
25D
100
AcDbEntity
  8
0
 62
     1
100
AcDbText
 10
189678.034385
 20
1680548.584544
 30
0.0
 40
0.75
  1
P2
 41
0.954526
  7
SIMPLEX
100
AcDbAttribute
  2
PONTO
 70
     8
  0
ATTRIB
  5
25E
100
AcDbEntity
  8
0
 62
     4
100
AcDbText
 10
189678.034385
 20
1680549.484544
 30
0.0
 40
0.75
  1

 41
0.699986
  7
SIMPLEX
100
AcDbAttribute
  2
DESC
 70
     9
  0
ATTRIB
  5
25F
100
AcDbEntity
  8
0
 62
     2
100
AcDbText
 10
189678.034385
 20
1680547.134544
 30
0.0
 40
0.75
  1

 41
0.699986
  7
SIMPLEX
100
AcDbAttribute
  2
COTA
 70
     9
  0
SEQEND
  5
260
100
AcDbEntity
  8
0
  0
INSERT
  5
261
100
AcDbEntity
  8
_TG
 62
     3
100
AcDbBlockReference
 66
     1
  2
SIMB_PONTO
 10
189654.990869
 20
1680362.719405
 30
0.0
  0
ATTRIB
  5
262
100
AcDbEntity
  8
0
 62
     1
100
AcDbText
 10
189655.340869
 20
1680363.069405
 30
0.0
 40
0.75
  1
P3
 41
0.954526
  7
SIMPLEX
100
AcDbAttribute
  2
PONTO
 70
     8
  0
ATTRIB
  5
263
100
AcDbEntity
  8
0
 62
     4
100
AcDbText
 10
189655.340869
 20
1680363.969405
 30
0.0
 40
0.75
  1

 41
0.699986
  7
SIMPLEX
100
AcDbAttribute
  2
DESC
 70
     9
  0
ATTRIB
  5
264
100
AcDbEntity
  8
0
 62
     2
100
AcDbText
 10
189655.340869
 20
1680361.619405
 30
0.0
 40
0.75
  1

 41
0.699986
  7
SIMPLEX
100
AcDbAttribute
  2
COTA
 70
     9
  0
SEQEND
  5
265
100
AcDbEntity
  8
0
  0
INSERT
  5
266
100
AcDbEntity
  8
_TG
 62
     3
100
AcDbBlockReference
 66
     1
  2
SIMB_PONTO
 10
189680.976481
 20
1680299.876013
 30
0.0
  0
ATTRIB
  5
267
100
AcDbEntity
  8
0
 62
     1
100
AcDbText
 10
189681.326481
 20
1680300.226013
 30
0.0
 40
0.75
  1
P4
 41
0.954526
  7
SIMPLEX
100
AcDbAttribute
  2
PONTO
 70
     8
  0
ATTRIB
  5
268
100
AcDbEntity
  8
0
 62
     4
100
AcDbText
 10
189681.326481
 20
1680301.126013
 30
0.0
 40
0.75
  1

 41
0.699986
  7
SIMPLEX
100
AcDbAttribute
  2
DESC
 70
     9
  0
ATTRIB
  5
269
100
AcDbEntity
  8
0
 62
     2
100
AcDbText
 10
189681.326481
 20
1680298.776013
 30
0.0
 40
0.75
  1

 41
0.699986
  7
SIMPLEX
100
AcDbAttribute
  2
COTA
 70
     9
  0
SEQEND
  5
26A
100
AcDbEntity
  8
0
  0
ENDSEC
  0
SECTION
  2
OBJECTS
  0
DICTIONARY
  5
19
100
AcDbDictionary
  3
ACAD_GROUP
350
1A
  3
ACAD_MLINESTYLE
350
1B
  0
DICTIONARY
  5
1A
102
{ACAD_REACTORS
330
19
102
}
100
AcDbDictionary
  0
DICTIONARY
  5
1B
102
{ACAD_REACTORS
330
19
102
}
100
AcDbDictionary
  3
STANDARD
350
1C
  0
MLINESTYLE
  5
1C
102
{ACAD_REACTORS
330
1B
102
}
100
AcDbMlineStyle
  2
STANDARD
 70
     0
  3

 62
     0
 51
90.0
 52
90.0
 71
     2
 49
0.5
 62
   256
  6
BYLAYER
 49
-0.5
 62
   256
  6
BYLAYER
  0
ENDSEC
  0
EOF
