  0
SECTION
  2
ENTITIES
  0
POINT
  8
Trabalho
 62
51
 10
185660.44
 20
1661554.585
 30
0
  0
TEXT
  8
Trabalho
 62
5
 10
185660.442
 20
1661550.585
 40
2
  1
(1)-(2)
 50
0
 41
2
  7
STANDARD
 72
     5
 11
185674.442
 21
1661550.585
  0
POINT
  8
Trabalho
 62
51
 10
185796.675
 20
1661526.642
 30
0
  0
TEXT
  8
Trabalho
 62
5
 10
185796.677
 20
1661522.642
 40
2
  1
(2)-(3)
 50
0
 41
2
  7
STANDARD
 72
     5
 11
185810.677
 21
1661522.642
  0
POINT
  8
Trabalho
 62
51
 10
185821.176
 20
1661672.571
 30
0
  0
TEXT
  8
Trabalho
 62
5
 10
185821.178
 20
1661668.571
 40
2
  1
(3)-(4)
 50
0
 41
2
  7
STANDARD
 72
     5
 11
185835.178
 21
1661668.571
  0
POINT
  8
Trabalho
 62
51
 10
185689.346
 20
1661679.276
 30
0
  0
TEXT
  8
Trabalho
 62
5
 10
185689.348
 20
1661675.276
 40
2
  1
(4)-(1)
 50
0
 41
2
  7
STANDARD
 72
     5
 11
185703.348
 21
1661675.276
  0
POINT
  8
Trabalho
 62
51
 10
185661.54
 20
1661559.679
 30
0
  0
TEXT
  8
Trabalho
 62
5
 10
185661.542
 20
1661555.679
 40
2
  1
1-2
 50
0
 41
2
  7
STANDARD
 72
     5
 11
185667.542
 21
1661555.679
  0
POINT
  8
Trabalho
 62
51
 10
185797.195
 20
1661531.692
 30
0
  0
TEXT
  8
Trabalho
 62
5
 10
185797.197
 20
1661527.692
 40
2
  1
2-3
 50
0
 41
2
  7
STANDARD
 72
     5
 11
185803.197
 21
1661527.692
  0
POINT
  8
Trabalho
 62
51
 10
185821.176
 20
1661672.571
 30
0
  0
TEXT
  8
Trabalho
 62
5
 10
185821.178
 20
1661668.571
 40
2
  1
3-4
 50
0
 41
2
  7
STANDARD
 72
     5
 11
185827.178
 21
1661668.571
  0
POINT
  8
Trabalho
 62
51
 10
185778.072
 20
1661675.072
 30
0
  0
TEXT
  8
Trabalho
 62
5
 10
185778.074
 20
1661671.072
 40
2
  1
4-5
 50
0
 41
2
  7
STANDARD
 72
     5
 11
185784.074
 21
1661671.072
  0
POINT
  8
Trabalho
 62
51
 10
185690.447
 20
1661679.222
 30
0
  0
TEXT
  8
Trabalho
 62
5
 10
185690.449
 20
1661675.222
 40
2
  1
5-1
 50
0
 41
2
  7
STANDARD
 72
     5
 11
185696.449
 21
1661675.222
  0
POINT
  8
Trabalho
 62
51
 10
185797.195
 20
1661531.692
 30
0
  0
TEXT
  8
Trabalho
 62
5
 10
185797.197
 20
1661527.692
 40
2
  1
2-(2A)
 50
0
 41
2
  7
STANDARD
 72
     5
 11
185809.197
 21
1661527.692
  0
POINT
  8
Trabalho
 62
51
 10
185798.399
 20
1661538.764
 30
0
  0
TEXT
  8
Trabalho
 62
5
 10
185798.401
 20
1661534.764
 40
2
  1
(2A)-1A
 50
0
 41
2
  7
STANDARD
 72
     5
 11
185812.401
 21
1661534.764
  0
POINT
  8
Trabalho
 62
51
 10
185663.379
 20
1661567.182
 30
0
  0
TEXT
  8
Trabalho
 62
5
 10
185663.381
 20
1661563.182
 40
2
  1
1A-1
 50
0
 41
2
  7
STANDARD
 72
     5
 11
185671.381
 21
1661563.182
  0
POLYLINE
  8
Trabalho
 62
4
 66
     1
 10
0.0
 20
0.0
 70
     8
  0
VERTEX
  8
Trabalho
 62
4
 10
185661.54
 20
1661559.679
 70
    32
  0
VERTEX
  8
Trabalho
 62
4
 10
185797.195
 20
1661531.692
 70
    32
  0
VERTEX
  8
Trabalho
 62
4
 10
185821.176
 20
1661672.571
 70
    32
  0
VERTEX
  8
Trabalho
 62
4
 10
185778.072
 20
1661675.072
 70
    32
  0
VERTEX
  8
Trabalho
 62
4
 10
185690.447
 20
1661679.222
 70
    32
  0
VERTEX
  8
Trabalho
 62
4
 10
185690.447
 20
1661679.222
 70
    32
  0
SEQEND
  8
0
  0
POINT
  8
Trabalho
 62
51
 10
185689.348
 20
1661679.278
 30
0
  0
TEXT
  8
Trabalho
 62
5
 10
185689.35
 20
1661675.278
 40
2
  1
(4)-(1)
 50
0
 41
2
  7
STANDARD
 72
     5
 11
185703.35
 21
1661675.278
  0
POINT
  8
Trabalho
 62
51
 10
185821.178
 20
1661672.571
 30
0
  0
TEXT
  8
Trabalho
 62
5
 10
185821.18
 20
1661668.571
 40
2
  1
(3)-(4)
 50
0
 41
2
  7
STANDARD
 72
     5
 11
185835.18
 21
1661668.571
  0
POINT
  8
Trabalho
 62
51
 10
185796.675
 20
1661528.642
 30
0
  0
TEXT
  8
Trabalho
 62
5
 10
185796.677
 20
1661524.642
 40
2
  1
(2)-(2A)
 50
0
 41
2
  7
STANDARD
 72
     5
 11
185812.677
 21
1661524.642
  0
POINT
  8
Trabalho
 62
51
 10
185663.375
 20
1661567.237
 30
0
  0
TEXT
  8
Trabalho
 62
5
 10
185663.377
 20
1661563.237
 40
2
  1
(1A)-(1)
 50
0
 41
2
  7
STANDARD
 72
     5
 11
185679.377
 21
1661563.237
  0
POINT
  8
Trabalho
 62
51
 10
185798.399
 20
1661538.764
 30
0
  0
TEXT
  8
Trabalho
 62
5
 10
185798.401
 20
1661534.764
 40
2
  1
(2A)-(1A)
 50
0
 41
2
  7
STANDARD
 72
     5
 11
185816.401
 21
1661534.764
  0
POINT
  8
Trabalho
 62
51
 10
185663.375
 20
1661567.237
 30
0
  0
TEXT
  8
Trabalho
 62
5
 10
185663.377
 20
1661563.237
 40
2
  1
(1A)-(2A)
 50
0
 41
2
  7
STANDARD
 72
     5
 11
185681.377
 21
1661563.237
  0
POINT
  8
Trabalho
 62
51
 10
185798.399
 20
1661538.764
 30
0
  0
TEXT
  8
Trabalho
 62
5
 10
185798.401
 20
1661534.764
 40
2
  1
(2A)-(3)
 50
0
 41
2
  7
STANDARD
 72
     5
 11
185814.401
 21
1661534.764
  0
POINT
  8
Trabalho
 62
51
 10
185689.348
 20
1661679.278
 30
0
  0
TEXT
  8
Trabalho
 62
5
 10
185689.35
 20
1661675.278
 40
2
  1
(4)-(1A)
 50
0
 41
2
  7
STANDARD
 72
     5
 11
185705.35
 21
1661675.278
  0
POLYLINE
  8
Trabalho
 62
4
 66
     1
 10
0.0
 20
0.0
 70
     8
  0
VERTEX
  8
Trabalho
 62
4
 10
185663.375
 20
1661567.237
 70
    32
  0
VERTEX
  8
Trabalho
 62
4
 10
185798.399
 20
1661538.764
 70
    32
  0
VERTEX
  8
Trabalho
 62
4
 10
185821.178
 20
1661672.571
 70
    32
  0
VERTEX
  8
Trabalho
 62
4
 10
185689.348
 20
1661679.278
 70
    32
  0
SEQEND
  8
0
  0
POINT
  8
Trabalho
 62
51
 10
185660.44
 20
1661554.585
 30
0
  0
TEXT
  8
Trabalho
 62
5
 10
185660.442
 20
1661550.585
 40
2
  1
(1)-(2)
 50
0
 41
2
  7
STANDARD
 72
     5
 11
185674.442
 21
1661550.585
  0
POINT
  8
Trabalho
 62
51
 10
185796.675
 20
1661528.642
 30
0
  0
TEXT
  8
Trabalho
 62
5
 10
185796.677
 20
1661524.642
 40
2
  1
(2)-(3)
 50
0
 41
2
  7
STANDARD
 72
     5
 11
185810.677
 21
1661524.642
  0
POINT
  8
Trabalho
 62
51
 10
185821.178
 20
1661672.571
 30
0
  0
TEXT
  8
Trabalho
 62
5
 10
185821.18
 20
1661668.571
 40
2
  1
(3)-(4)
 50
0
 41
2
  7
STANDARD
 72
     5
 11
185835.18
 21
1661668.571
  0
POINT
  8
Trabalho
 62
51
 10
185689.348
 20
1661679.278
 30
0
  0
TEXT
  8
Trabalho
 62
5
 10
185689.35
 20
1661675.278
 40
2
  1
(4)-(1)
 50
0
 41
2
  7
STANDARD
 72
     5
 11
185703.35
 21
1661675.278
  0
POLYLINE
  8
Trabalho
 62
4
 66
     1
 10
0.0
 20
0.0
 70
     8
  0
VERTEX
  8
Trabalho
 62
4
 10
185660.44
 20
1661554.585
 70
    32
  0
VERTEX
  8
Trabalho
 62
4
 10
185796.675
 20
1661528.642
 70
    32
  0
VERTEX
  8
Trabalho
 62
4
 10
185821.178
 20
1661672.571
 70
    32
  0
VERTEX
  8
Trabalho
 62
4
 10
185689.348
 20
1661679.278
 70
    32
  0
VERTEX
  8
Trabalho
 62
4
 10
185689.348
 20
1661679.278
 70
    32
  0
SEQEND
  8
0
  0
POINT
  8
Trabalho
 62
51
 10
185796.675
 20
1661528.642
 30
0
  0
TEXT
  8
Trabalho
 62
5
 10
185796.677
 20
1661524.642
 40
2
  1
(2)-(2A)
 50
0
 41
2
  7
STANDARD
 72
     5
 11
185812.677
 21
1661524.642
  0
POINT
  8
Trabalho
 62
51
 10
185798.315
 20
1661538.277
 30
0
  0
TEXT
  8
Trabalho
 62
5
 10
185798.317
 20
1661534.277
 40
2
  1
(2A)-(1A)
 50
0
 41
2
  7
STANDARD
 72
     5
 11
185816.317
 21
1661534.277
  0
POINT
  8
Trabalho
 62
51
 10
185663.125
 20
1661566.233
 30
0
  0
TEXT
  8
Trabalho
 62
5
 10
185663.127
 20
1661562.233
 40
2
  1
(1A)-(1)
 50
0
 41
2
  7
STANDARD
 72
     5
 11
185679.127
 21
1661562.233
  0
POLYLINE
  8
Trabalho
 62
4
 66
     1
 10
0.0
 20
0.0
 70
     8
  0
VERTEX
  8
Trabalho
 62
4
 10
185660.44
 20
1661554.585
 70
    32
  0
VERTEX
  8
Trabalho
 62
4
 10
185796.675
 20
1661528.642
 70
    32
  0
VERTEX
  8
Trabalho
 62
4
 10
185798.315
 20
1661538.277
 70
    32
  0
VERTEX
  8
Trabalho
 62
4
 10
185663.125
 20
1661566.233
 70
    32
  0
VERTEX
  8
Trabalho
 62
4
 10
185663.125
 20
1661566.233
 70
    32
  0
SEQEND
  8
0
  0
POINT
  8
Trabalho
 62
51
 10
185689.348
 20
1661679.278
 30
0
  0
TEXT
  8
Trabalho
 62
5
 10
185689.35
 20
1661675.278
 40
2
  1
(4)-(1A)
 50
0
 41
2
  7
STANDARD
 72
     5
 11
185705.35
 21
1661675.278
  0
POINT
  8
Trabalho
 62
51
 10
185770.315
 20
1661533.662
 30
0
  0
TEXT
  8
Trabalho
 62
5
 10
185770.317
 20
1661529.662
 40
2
  1
A
 50
0
 41
2
  7
STANDARD
 72
     5
 11
185772.317
 21
1661529.662
  0
POINT
  8
Trabalho
 62
51
 10
185796.691
 20
1661528.639
 30
0
  0
TEXT
  8
Trabalho
 62
5
 10
185796.693
 20
1661524.639
 40
2
  1
(2)
 50
0
 41
2
  7
STANDARD
 72
     5
 11
185802.693
 21
1661524.639
  0
POINT
  8
Trabalho
 62
51
 10
185821.178
 20
1661672.571
 30
0
  0
TEXT
  8
Trabalho
 62
5
 10
185821.18
 20
1661668.571
 40
2
  1
(3)
 50
0
 41
2
  7
STANDARD
 72
     5
 11
185827.18
 21
1661668.571
  0
POINT
  8
Trabalho
 62
51
 10
185796.672
 20
1661673.866
 30
0
  0
TEXT
  8
Trabalho
 62
5
 10
185796.674
 20
1661669.866
 40
2
  1
(3A)
 50
0
 41
2
  7
STANDARD
 72
     5
 11
185804.674
 21
1661669.866
  0
POINT
  8
Trabalho
 62
51
 10
185660.424
 20
1661554.589
 30
0
  0
TEXT
  8
Trabalho
 62
5
 10
185660.426
 20
1661550.589
 40
2
  1
(1)
 50
0
 41
2
  7
STANDARD
 72
     5
 11
185666.426
 21
1661550.589
  0
POINT
  8
Trabalho
 62
51
 10
185771.001
 20
1661537.094
 30
0
  0
TEXT
  8
Trabalho
 62
5
 10
185771.003
 20
1661533.094
 40
2
  1
B
 50
0
 41
2
  7
STANDARD
 72
     5
 11
185773.003
 21
1661533.094
  0
POINT
  8
Trabalho
 62
51
 10
185661.675
 20
1661559.554
 30
0
  0
TEXT
  8
Trabalho
 62
5
 10
185661.677
 20
1661555.554
 40
2
  1
1
 50
0
 41
2
  7
STANDARD
 72
     5
 11
185663.677
 21
1661555.554
  0
POLYLINE
  8
Trabalho
 62
4
 66
     1
 10
0.0
 20
0.0
 70
     8
  0
VERTEX
  8
Trabalho
 62
4
 10
185770.315
 20
1661533.662
 70
    32
  0
VERTEX
  8
Trabalho
 62
4
 10
185796.691
 20
1661528.639
 70
    32
  0
VERTEX
  8
Trabalho
 62
4
 10
185821.178
 20
1661672.571
 70
    32
  0
VERTEX
  8
Trabalho
 62
4
 10
185796.672
 20
1661673.866
 70
    32
  0
VERTEX
  8
Trabalho
 62
4
 10
185796.672
 20
1661673.866
 70
    32
  0
SEQEND
  8
0
  0
POLYLINE
  8
Trabalho
 62
4
 66
     1
 10
0.0
 20
0.0
 70
     8
  0
VERTEX
  8
Trabalho
 62
4
 10
185660.424
 20
1661554.589
 70
    32
  0
VERTEX
  8
Trabalho
 62
4
 10
185770.315
 20
1661533.662
 70
    32
  0
VERTEX
  8
Trabalho
 62
4
 10
185771.001
 20
1661537.094
 70
    32
  0
VERTEX
  8
Trabalho
 62
4
 10
185661.675
 20
1661559.554
 70
    32
  0
VERTEX
  8
Trabalho
 62
4
 10
185661.675
 20
1661559.554
 70
    32
  0
SEQEND
  8
0
  0
POINT
  8
Trabalho
 62
51
 10
185770.315
 20
1661533.662
 30
0
  0
TEXT
  8
Trabalho
 62
5
 10
185770.317
 20
1661529.662
 40
2
  1
A
 50
0
 41
2
  7
STANDARD
 72
     5
 11
185772.317
 21
1661529.662
  0
POINT
  8
Trabalho
 62
51
 10
185796.691
 20
1661528.639
 30
0
  0
TEXT
  8
Trabalho
 62
5
 10
185796.693
 20
1661524.639
 40
2
  1
(2)
 50
0
 41
2
  7
STANDARD
 72
     5
 11
185802.693
 21
1661524.639
  0
POINT
  8
Trabalho
 62
51
 10
185821.178
 20
1661672.571
 30
0
  0
TEXT
  8
Trabalho
 62
5
 10
185821.18
 20
1661668.571
 40
2
  1
(3)
 50
0
 41
2
  7
STANDARD
 72
     5
 11
185827.18
 21
1661668.571
  0
POINT
  8
Trabalho
 62
51
 10
185796.672
 20
1661673.866
 30
0
  0
TEXT
  8
Trabalho
 62
5
 10
185796.674
 20
1661669.866
 40
2
  1
(3A)
 50
0
 41
2
  7
STANDARD
 72
     5
 11
185804.674
 21
1661669.866
  0
POLYLINE
  8
Trabalho
 62
4
 66
     1
 10
0.0
 20
0.0
 70
     8
  0
VERTEX
  8
Trabalho
 62
4
 10
185770.315
 20
1661533.662
 70
    32
  0
VERTEX
  8
Trabalho
 62
4
 10
185796.691
 20
1661528.639
 70
    32
  0
VERTEX
  8
Trabalho
 62
4
 10
185821.178
 20
1661672.571
 70
    32
  0
VERTEX
  8
Trabalho
 62
4
 10
185796.672
 20
1661673.866
 70
    32
  0
VERTEX
  8
Trabalho
 62
4
 10
185796.672
 20
1661673.866
 70
    32
  0
SEQEND
  8
0
  0
POINT
  8
Trabalho
 62
51
 10
185661.675
 20
1661559.554
 30
0
  0
TEXT
  8
Trabalho
 62
5
 10
185661.677
 20
1661555.554
 40
2
  1
1
 50
0
 41
2
  7
STANDARD
 72
     5
 11
185663.677
 21
1661555.554
  0
POINT
  8
Trabalho
 62
51
 10
185771.001
 20
1661537.094
 30
0
  0
TEXT
  8
Trabalho
 62
5
 10
185771.003
 20
1661533.094
 40
2
  1
B
 50
0
 41
2
  7
STANDARD
 72
     5
 11
185773.003
 21
1661533.094
  0
POINT
  8
Trabalho
 62
51
 10
185772.198
 20
1661543.678
 30
0
  0
TEXT
  8
Trabalho
 62
5
 10
185772.2
 20
1661539.678
 40
2
  1
C
 50
0
 41
2
  7
STANDARD
 72
     5
 11
185774.2
 21
1661539.678
  0
POINT
  8
Trabalho
 62
51
 10
185663.125
 20
1661566.233
 30
0
  0
TEXT
  8
Trabalho
 62
5
 10
185663.127
 20
1661562.233
 40
2
  1
(1A)
 50
0
 41
2
  7
STANDARD
 72
     5
 11
185671.127
 21
1661562.233
  0
POLYLINE
  8
Trabalho
 62
4
 66
     1
 10
0.0
 20
0.0
 70
     8
  0
VERTEX
  8
Trabalho
 62
4
 10
185661.675
 20
1661559.554
 70
    32
  0
VERTEX
  8
Trabalho
 62
4
 10
185771.001
 20
1661537.094
 70
    32
  0
VERTEX
  8
Trabalho
 62
4
 10
185772.198
 20
1661543.678
 70
    32
  0
VERTEX
  8
Trabalho
 62
4
 10
185663.125
 20
1661566.233
 70
    32
  0
VERTEX
  8
Trabalho
 62
4
 10
185663.125
 20
1661566.233
 70
    32
  0
SEQEND
  8
0
  0
POINT
  8
Trabalho
 62
51
 10
185660.424
 20
1661554.589
 30
0
  0
TEXT
  8
Trabalho
 62
5
 10
185660.426
 20
1661550.589
 40
2
  1
(1)
 50
0
 41
2
  7
STANDARD
 72
     5
 11
185666.426
 21
1661550.589
  0
POLYLINE
  8
Trabalho
 62
4
 66
     1
 10
0.0
 20
0.0
 70
     8
  0
VERTEX
  8
Trabalho
 62
4
 10
185660.424
 20
1661554.589
 70
    32
  0
VERTEX
  8
Trabalho
 62
4
 10
185770.315
 20
1661533.662
 70
    32
  0
VERTEX
  8
Trabalho
 62
4
 10
185771.001
 20
1661537.094
 70
    32
  0
VERTEX
  8
Trabalho
 62
4
 10
185661.675
 20
1661559.554
 70
    32
  0
VERTEX
  8
Trabalho
 62
4
 10
185661.675
 20
1661559.554
 70
    32
  0
SEQEND
  8
0
  0
POINT
  8
Trabalho
 62
51
 10
185689.348
 20
1661679.278
 30
0
  0
TEXT
  8
Trabalho
 62
5
 10
185689.35
 20
1661675.278
 40
2
  1
(4)
 50
0
 41
2
  7
STANDARD
 72
     5
 11
185695.35
 21
1661675.278
  0
POLYLINE
  8
Trabalho
 62
4
 66
     1
 10
0.0
 20
0.0
 70
     8
  0
VERTEX
  8
Trabalho
 62
4
 10
185660.424
 20
1661554.589
 70
    32
  0
VERTEX
  8
Trabalho
 62
4
 10
185796.691
 20
1661528.639
 70
    32
  0
VERTEX
  8
Trabalho
 62
4
 10
185821.178
 20
1661672.571
 70
    32
  0
VERTEX
  8
Trabalho
 62
4
 10
185689.348
 20
1661679.278
 70
    32
  0
VERTEX
  8
Trabalho
 62
4
 10
185689.348
 20
1661679.278
 70
    32
  0
SEQEND
  8
0
  0
ENDSEC
  0
EOF
